  0
SECTION
  2
HEADER
  9
$ACADVER
  1
AC1009
  9
$INSBASE
 10
105.0
 20
0.0
 30
0.0
  9
$EXTMIN
 10
0.0
 20
-2.960436562073669
 30
0.0
  9
$EXTMAX
 10
357.68725925892562
 20
196.5
 30
0.0
  9
$LIMMIN
 10
0.0
 20
0.0
  9
$LIMMAX
 10
390.0
 20
270.0
  9
$ORTHOMODE
 70
     1
  9
$REGENMODE
 70
     1
  9
$FILLMODE
 70
     1
  9
$QTEXTMODE
 70
     0
  9
$MIRRTEXT
 70
     0
  9
$DRAGMODE
 70
     2
  9
$LTSCALE
 40
10.0
  9
$OSMODE
 70
    37
  9
$ATTMODE
 70
     1
  9
$TEXTSIZE
 40
6.0
  9
$TRACEWID
 40
0.05
  9
$TEXTSTYLE
  7
STANDARD
  9
$CLAYER
  8
0
  9
$CELTYPE
  6
BYLAYER
  9
$CECOLOR
 62
   256
  9
$DIMSCALE
 40
1.0
  9
$DIMASZ
 40
3.0
  9
$DIMEXO
 40
2.0
  9
$DIMDLI
 40
0.38
  9
$DIMRND
 40
0.0
  9
$DIMDLE
 40
0.0
  9
$DIMEXE
 40
2.0
  9
$DIMTP
 40
0.0
  9
$DIMTM
 40
0.0
  9
$DIMTXT
 40
3.0
  9
$DIMCEN
 40
0.09
  9
$DIMTSZ
 40
0.0
  9
$DIMTOL
 70
     0
  9
$DIMLIM
 70
     0
  9
$DIMTIH
 70
     0
  9
$DIMTOH
 70
     0
  9
$DIMSE1
 70
     0
  9
$DIMSE2
 70
     0
  9
$DIMTAD
 70
     1
  9
$DIMZIN
 70
     0
  9
$DIMBLK
  1

  9
$DIMASO
 70
     0
  9
$DIMSHO
 70
     0
  9
$DIMPOST
  1

  9
$DIMAPOST
  1

  9
$DIMALT
 70
     0
  9
$DIMALTD
 70
     2
  9
$DIMALTF
 40
25.399999999999999
  9
$DIMLFAC
 40
1.0
  9
$DIMTOFL
 70
     0
  9
$DIMTVP
 40
0.0
  9
$DIMTIX
 70
     0
  9
$DIMSOXD
 70
     0
  9
$DIMSAH
 70
     0
  9
$DIMBLK1
  1

  9
$DIMBLK2
  1

  9
$DIMSTYLE
  2
STANDARD
  9
$DIMCLRD
 70
     0
  9
$DIMCLRE
 70
     0
  9
$DIMCLRT
 70
     0
  9
$DIMTFAC
 40
1.0
  9
$DIMGAP
 40
0.09
  9
$LUNITS
 70
     2
  9
$LUPREC
 70
     4
  9
$SKETCHINC
 40
0.1
  9
$FILLETRAD
 40
0.5
  9
$AUNITS
 70
     0
  9
$AUPREC
 70
     0
  9
$MENU
  1
E:\r13\win\SUPPORT\ACAD
  9
$ELEVATION
 40
0.0
  9
$PELEVATION
 40
0.0
  9
$THICKNESS
 40
0.0
  9
$LIMCHECK
 70
     0
  9
$BLIPMODE
 70
     0
  9
$CHAMFERA
 40
0.0
  9
$CHAMFERB
 40
0.0
  9
$SKPOLY
 70
     0
  9
$TDCREATE
 40
2449840.6507523148
  9
$TDUPDATE
 40
2456689.4364494099
  9
$TDINDWG
 40
0.0828657523
  9
$TDUSRTIMER
 40
2456687.2317323042
  9
$USRTIMER
 70
     1
  9
$ANGBASE
 50
0.0
  9
$ANGDIR
 70
     0
  9
$PDMODE
 70
     0
  9
$PDSIZE
 40
0.0
  9
$PLINEWID
 40
0.0
  9
$COORDS
 70
     1
  9
$SPLFRAME
 70
     0
  9
$SPLINETYPE
 70
     6
  9
$SPLINESEGS
 70
     8
  9
$ATTDIA
 70
     0
  9
$ATTREQ
 70
     1
  9
$HANDLING
 70
     1
  9
$HANDSEED
  5
64B
  9
$SURFTAB1
 70
     6
  9
$SURFTAB2
 70
     6
  9
$SURFTYPE
 70
     6
  9
$SURFU
 70
     6
  9
$SURFV
 70
     6
  9
$UCSNAME
  2

  9
$UCSORG
 10
0.0
 20
0.0
 30
0.0
  9
$UCSXDIR
 10
1.0
 20
0.0
 30
0.0
  9
$UCSYDIR
 10
0.0
 20
1.0
 30
0.0
  9
$PUCSNAME
  2

  9
$PUCSORG
 10
0.0
 20
0.0
 30
0.0
  9
$PUCSXDIR
 10
1.0
 20
0.0
 30
0.0
  9
$PUCSYDIR
 10
0.0
 20
1.0
 30
0.0
  9
$USERI1
 70
     3
  9
$USERI2
 70
     1
  9
$USERI3
 70
     1
  9
$USERI4
 70
     0
  9
$USERI5
 70
     0
  9
$USERR1
 40
1.0
  9
$USERR2
 40
3.0
  9
$USERR3
 40
3.0
  9
$USERR4
 40
3.0
  9
$USERR5
 40
10.0
  9
$WORLDVIEW
 70
     1
  9
$SHADEDGE
 70
     3
  9
$SHADEDIF
 70
    70
  9
$TILEMODE
 70
     1
  9
$MAXACTVP
 70
    16
  9
$PLIMCHECK
 70
     0
  9
$PEXTMIN
 10
1.0000000000000000E+020
 20
1.0000000000000000E+020
 30
1.0000000000000000E+020
  9
$PEXTMAX
 10
-1.0000000000000000E+020
 20
-1.0000000000000000E+020
 30
-1.0000000000000000E+020
  9
$PLIMMIN
 10
0.0
 20
0.0
  9
$PLIMMAX
 10
12.0
 20
9.0
  9
$UNITMODE
 70
     0
  9
$VISRETAIN
 70
     0
  9
$PLINEGEN
 70
     0
  9
$PSLTSCALE
 70
     0
  0
ENDSEC
  0
SECTION
  2
TABLES
  0
TABLE
  2
VPORT
 70
     1
  0
VPORT
  2
*ACTIVE
 70
     0
 10
0.0
 20
0.0
 11
1.0
 21
1.0
 12
321.3805970149254
 22
135.0
 13
0.0
 23
0.0
 14
10.0
 24
10.0
 15
10.0
 25
10.0
 16
0.0
 26
0.0
 36
1.0
 17
0.0
 27
0.0
 37
0.0
 40
270.0
 41
2.3805970149253728
 42
50.0
 43
0.0
 44
0.0
 50
0.0
 51
0.0
 71
    16
 72
   100
 73
     1
 74
     0
 75
     0
 76
     0
 77
     0
 78
     0
  0
ENDTAB
  0
TABLE
  2
LTYPE
 70
     3
  0
LTYPE
  2
CONTINUOUS
 70
     0
  3
Solid Line
 72
    65
 73
     0
 40
0.0
  0
LTYPE
  2
CENTER
 70
     0
  3
____ _ ____ _ ____ _ ____ _ ____ _ ____ _ ____
 72
    65
 73
     4
 40
2.0
 49
1.25
 49
-0.25
 49
0.25
 49
-0.25
  0
LTYPE
  2
PHANTOM2
 70
     0
  3
___ _ _ ___ _ _ ___ _ _ ___ _ _
 72
    65
 73
     6
 40
1.25
 49
0.625
 49
-0.125
 49
0.125
 49
-0.125
 49
0.125
 49
-0.125
  0
ENDTAB
  0
TABLE
  2
LAYER
 70
     3
  0
LAYER
  2
0
 70
     0
 62
     7
  6
CONTINUOUS
  0
LAYER
  2
1
 70
     0
 62
     1
  6
CENTER
  0
LAYER
  2
3
 70
     0
 62
     3
  6
CONTINUOUS
  0
ENDTAB
  0
TABLE
  2
STYLE
 70
     2
  0
STYLE
  2
STANDARD
 70
     0
 40
0.0
 41
1.0
 50
0.0
 71
     0
 42
6.0
  3
TXT
  4
BIGFONT
  0
STYLE
  2
STANDARD1
 70
     0
 40
0.0
 41
1.0
 50
0.0
 71
     0
 42
3.0
  3
txt
  4

  0
ENDTAB
  0
TABLE
  2
VIEW
 70
     1
  0
VIEW
  2
ALL
 70
     0
 40
270.0
 10
237.42857100000001
 20
135.0
 41
0.0
 11
0.0
 21
0.0
 31
1.0
 12
0.0
 22
0.0
 32
0.0
 42
50.0
 43
0.0
 44
0.0
 50
0.0
 71
     0
  0
ENDTAB
  0
TABLE
  2
UCS
 70
     0
  0
ENDTAB
  0
TABLE
  2
APPID
 70
     4
  0
APPID
  2
ACAD
 70
     0
  0
APPID
  2
ACAD_MLEADERVER
 70
     0
  0
APPID
  2
ACAD_EXEMPT_FROM_CAD_STANDARDS
 70
     0
  0
APPID
  2
ACAD_NAV_VCDISPLAY
 70
     0
  0
ENDTAB
  0
TABLE
  2
DIMSTYLE
 70
     1
  0
DIMSTYLE
  2
STANDARD
 70
     0
  3

  4

  5

  6

  7

 40
1.0
 41
0.18
 42
0.0625
 43
0.38
 44
0.18
 45
0.0
 46
0.0
 47
0.0
 48
0.0
140
0.18
141
0.09
142
0.0
143
25.399999999999999
144
1.0
145
0.0
146
1.0
147
0.09
 71
     0
 72
     0
 73
     1
 74
     1
 75
     0
 76
     0
 77
     0
 78
     0
170
     0
171
     2
172
     0
173
     0
174
     0
175
     0
176
     0
177
     0
178
     0
  0
ENDTAB
  0
ENDSEC
  0
SECTION
  2
BLOCKS
  0
BLOCK
  8
0
  2
$MODEL_SPACE
 70
     0
 10
0.0
 20
0.0
 30
0.0
  3
$MODEL_SPACE
  1

  0
ENDBLK
  5
14C
  8
0
  0
BLOCK
 67
     1
  8
0
  2
$PAPER_SPACE
 70
     0
 10
0.0
 20
0.0
 30
0.0
  3
$PAPER_SPACE
  1

  0
ENDBLK
  5
14A
 67
     1
  8
0
  0
ENDSEC
  0
SECTION
  2
ENTITIES
  0
LINE
  5
68
  8
1
 10
74.811492623699948
 20
180.0
 30
0.0
 11
111.81149262369991
 21
180.0
 31
0.0
  0
LINE
  5
6C
  8
0
 10
250.31149262369991
 20
129.30000000000001
 30
0.0
 11
250.31149262369991
 21
119.3
 31
0.0
  0
LINE
  5
6D
  8
0
 10
250.31149262369991
 20
119.3
 30
0.0
 11
210.31149262369991
 21
119.3
 31
0.0
  0
LINE
  5
6E
  8
0
 10
210.31149262369991
 20
119.3
 30
0.0
 11
210.31149262369991
 21
129.30000000000001
 31
0.0
  0
LINE
  5
6F
  8
0
 10
210.31149262369991
 20
129.30000000000001
 30
0.0
 11
250.31149262369991
 21
129.30000000000001
 31
0.0
  0
LINE
  5
70
  8
0
 10
156.6614926236999
 20
129.30000000000001
 30
0.0
 11
156.6614926236999
 21
119.3
 31
0.0
  0
LINE
  5
71
  8
0
 10
156.6614926236999
 20
119.3
 30
0.0
 11
143.96149262369991
 21
119.3
 31
0.0
  0
LINE
  5
72
  8
0
 10
143.96149262369991
 20
119.3
 30
0.0
 11
143.96149262369991
 21
129.30000000000001
 31
0.0
  0
LINE
  5
73
  8
0
 10
143.96149262369991
 20
129.30000000000001
 30
0.0
 11
156.6614926236999
 21
129.30000000000001
 31
0.0
  0
LINE
  5
75
  8
0
 10
156.6614926236999
 20
120.8
 30
0.0
 11
143.96149262369991
 21
120.8
 31
0.0
  0
LINE
  5
76
  8
1
 10
150.31149262369991
 20
134.30000000000001
 30
0.0
 11
150.31149262369991
 21
111.8
 31
0.0
  0
LINE
  5
77
  8
0
 10
153.51149262369989
 20
119.3
 30
0.0
 11
153.51149262369989
 21
118.3
 31
0.0
  0
LINE
  5
78
  8
0
 10
153.51149262369989
 20
118.3
 30
0.0
 11
147.11149262369989
 21
118.3
 31
0.0
  0
LINE
  5
79
  8
0
 10
147.11149262369989
 20
118.3
 30
0.0
 11
147.11149262369989
 21
119.3
 31
0.0
  0
ARC
  5
7A
  8
0
 10
150.31149262369991
 20
119.3
 30
0.0
 40
2.5
 50
203.57817800000001
 51
336.42182200000002
  0
LINE
  5
7E
  8
1
 10
95.311492623699905
 20
144.9909286711879
 30
0.0
 11
95.311492623699905
 21
92.0
 31
0.0
  0
LINE
  5
88
  8
0
 10
106.81149262369991
 20
129.5
 30
0.0
 11
106.81149262369991
 21
125.5
 31
0.0
  0
LINE
  5
89
  8
0
 10
106.81149262369991
 20
125.5
 30
0.0
 11
83.811492623699905
 21
125.5
 31
0.0
  0
LINE
  5
8A
  8
0
 10
83.811492623699905
 20
125.5
 30
0.0
 11
83.811492623699905
 21
129.5
 31
0.0
  0
LINE
  5
8B
  8
0
 10
83.811492623699905
 20
129.5
 30
0.0
 11
106.81149262369991
 21
129.5
 31
0.0
  0
LINE
  5
8C
  8
0
 10
102.8170456236999
 20
114.22489400000001
 30
0.0
 11
101.56149262369991
 21
113.5
 31
0.0
  0
ARC
  5
8D
  8
0
 10
100.94065762369991
 20
116.96690700000001
 30
0.0
 40
3.322569999999998
 50
235.61575300000001
 51
295.61575299999998
  0
ARC
  5
8E
  8
0
 10
95.311492623699905
 20
126.06378100000001
 30
0.0
 40
12.419442999999999
 50
252.412046
 51
287.58795400000002
  0
LINE
  5
8F
  8
0
 10
102.8170456236999
 20
122.0
 30
0.0
 11
102.8170456236999
 21
114.22489400000001
 31
0.0
  0
LINE
  5
90
  8
0
 10
99.064269623699929
 20
122.0
 30
0.0
 11
99.064269623699929
 21
114.22489400000001
 31
0.0
  0
LINE
  5
91
  8
0
 10
91.558715623699854
 20
122.0
 30
0.0
 11
91.558715623699854
 21
114.22489400000001
 31
0.0
  0
LINE
  5
92
  8
0
 10
87.805939623699885
 20
122.0
 30
0.0
 11
87.805939623699885
 21
114.22489400000001
 31
0.0
  0
ARC
  5
93
  8
0
 10
89.682327623699905
 20
116.96690700000001
 30
0.0
 40
3.322569999999998
 50
244.38424699999999
 51
304.38424700000002
  0
LINE
  5
94
  8
0
 10
87.805939623699885
 20
114.22489400000001
 30
0.0
 11
89.061492623699905
 21
113.5
 31
0.0
  0
LINE
  5
95
  8
0
 10
89.061492623699905
 20
113.5
 30
0.0
 11
101.56149262369991
 21
113.5
 31
0.0
  0
LINE
  5
96
  8
0
 10
104.31149262369991
 20
122.0
 30
0.0
 11
86.311492623699934
 21
122.0
 31
0.0
  0
LINE
  5
97
  8
0
 10
104.31149262369991
 20
122.0
 30
0.0
 11
104.31149262369991
 21
125.5
 31
0.0
  0
LINE
  5
98
  8
0
 10
86.311492623699934
 20
122.0
 30
0.0
 11
86.311492623699934
 21
125.5
 31
0.0
  0
LINE
  5
9A
  8
0
 10
98.31149262369992
 20
97.0
 30
0.0
 11
92.31149262369992
 21
97.0
 31
0.0
  0
LINE
  5
9B
  8
0
 10
99.311492623699905
 20
133.69999999999999
 30
0.0
 11
99.311492623699905
 21
129.5
 31
0.0
  0
LINE
  5
9C
  8
3
 10
98.634992623699873
 20
133.69999999999999
 30
0.0
 11
98.634992623699873
 21
129.5
 31
0.0
  0
LINE
  5
9D
  8
3
 10
91.98799262369991
 20
133.69999999999999
 30
0.0
 11
91.98799262369991
 21
129.5
 31
0.0
  0
LINE
  5
9E
  8
0
 10
91.311492623699934
 20
133.69999999999999
 30
0.0
 11
91.311492623699934
 21
129.5
 31
0.0
  0
LINE
  5
9F
  8
0
 10
99.311492623699905
 20
113.5
 30
0.0
 11
99.311492623699905
 21
111.57735
 31
0.0
  0
LINE
  5
A0
  8
3
 10
98.634992623699873
 20
113.5
 30
0.0
 11
98.634992623699873
 21
111.186773
 31
0.0
  0
LINE
  5
A1
  8
3
 10
91.98799262369991
 20
113.5
 30
0.0
 11
91.98799262369991
 21
111.186773
 31
0.0
  0
LINE
  5
A2
  8
0
 10
91.311492623699934
 20
113.5
 30
0.0
 11
91.311492623699934
 21
111.57735
 31
0.0
  0
LINE
  5
A3
  8
0
 10
98.31149262369992
 20
111.0
 30
0.0
 11
92.31149262369992
 21
111.0
 31
0.0
  0
LINE
  5
A4
  8
0
 10
98.31149262369992
 20
111.0
 30
0.0
 11
98.31149262369992
 21
97.0
 31
0.0
  0
LINE
  5
A5
  8
0
 10
92.31149262369992
 20
111.0
 30
0.0
 11
92.31149262369992
 21
97.0
 31
0.0
  0
LINE
  5
A6
  8
0
 10
98.31149262369992
 20
111.0
 30
0.0
 11
99.311492623699905
 21
111.57735
 31
0.0
  0
LINE
  5
A7
  8
0
 10
99.311492623699905
 20
111.57735
 30
0.0
 11
91.311492623699934
 21
111.57735
 31
0.0
  0
LINE
  5
A8
  8
0
 10
92.31149262369992
 20
111.0
 30
0.0
 11
91.311492623699934
 21
111.57735
 31
0.0
  0
LINE
  5
B2
  8
1
 10
150.31149262369991
 20
191.34999999999999
 30
0.0
 11
150.31149262369991
 21
168.65000000000001
 31
0.0
  0
LINE
  5
B3
  8
0
 10
143.96149262369991
 20
186.34999999999999
 30
0.0
 11
156.6614926236999
 21
186.34999999999999
 31
0.0
  0
LINE
  5
B5
  8
0
 10
156.66149262370001
 20
173.65000000000001
 30
0.0
 11
143.96149262369991
 21
173.65000000000001
 31
0.0
  0
LINE
  5
BA
  8
1
 10
95.311492623699905
 20
196.5
 30
0.0
 11
95.311492623699905
 21
163.5
 31
0.0
  0
CIRCLE
  5
BD
  8
3
 10
150.31149262369991
 20
180.0
 30
0.0
 40
3.0
  0
CIRCLE
  5
BE
  8
0
 10
150.31149262369991
 20
180.0
 30
0.0
 40
2.458499999999999
  0
LINE
  5
CA
  8
1
 10
86.311492623699934
 20
184.30355
 30
0.0
 11
86.311492623699934
 21
175.69645
 31
0.0
  0
LINE
  5
E9
  8
0
 10
48.118397623699927
 20
111.0
 30
0.0
 11
47.118397623699927
 21
111.57735
 31
0.0
  0
LINE
  5
EA
  8
0
 10
55.118397623699927
 20
111.57735
 30
0.0
 11
47.118397623699927
 21
111.57735
 31
0.0
  0
LINE
  5
EB
  8
0
 10
54.118397623699927
 20
111.0
 30
0.0
 11
55.118397623699927
 21
111.57735
 31
0.0
  0
LINE
  5
EC
  8
0
 10
48.118397623699927
 20
111.0
 30
0.0
 11
48.118397623699927
 21
97.0
 31
0.0
  0
LINE
  5
ED
  8
0
 10
54.118397623699927
 20
111.0
 30
0.0
 11
54.118397623699927
 21
97.0
 31
0.0
  0
LINE
  5
EE
  8
0
 10
54.118397623699927
 20
111.0
 30
0.0
 11
48.118397623699927
 21
111.0
 31
0.0
  0
LINE
  5
EF
  8
0
 10
47.118397623699927
 20
113.5
 30
0.0
 11
47.118397623699927
 21
111.57735
 31
0.0
  0
LINE
  5
F0
  8
3
 10
47.794897623699903
 20
113.5
 30
0.0
 11
47.794897623699903
 21
111.186773
 31
0.0
  0
LINE
  5
F1
  8
3
 10
54.441897623699887
 20
113.5
 30
0.0
 11
54.441897623699887
 21
111.186773
 31
0.0
  0
LINE
  5
F2
  8
0
 10
55.118397623699927
 20
113.5
 30
0.0
 11
55.118397623699927
 21
111.57735
 31
0.0
  0
LINE
  5
F3
  8
0
 10
47.118397623699927
 20
133.69999999999999
 30
0.0
 11
47.118397623699927
 21
129.5
 31
0.0
  0
LINE
  5
F4
  8
3
 10
47.794897623699903
 20
133.69999999999999
 30
0.0
 11
47.794897623699903
 21
129.5
 31
0.0
  0
LINE
  5
F5
  8
3
 10
54.441897623699887
 20
133.69999999999999
 30
0.0
 11
54.441897623699887
 21
129.5
 31
0.0
  0
LINE
  5
F6
  8
0
 10
55.118397623699927
 20
133.69999999999999
 30
0.0
 11
55.118397623699927
 21
129.5
 31
0.0
  0
LINE
  5
F7
  8
0
 10
54.118397623699927
 20
97.0
 30
0.0
 11
48.118397623699927
 21
97.0
 31
0.0
  0
LINE
  5
F8
  8
0
 10
42.118397623699927
 20
122.0
 30
0.0
 11
42.118397623699927
 21
125.5
 31
0.0
  0
LINE
  5
F9
  8
0
 10
60.118397623699927
 20
122.0
 30
0.0
 11
60.118397623699927
 21
125.5
 31
0.0
  0
LINE
  5
FA
  8
0
 10
60.118397623699927
 20
122.0
 30
0.0
 11
42.118397623699927
 21
122.0
 31
0.0
  0
LINE
  5
FB
  8
0
 10
39.618397623699941
 20
129.5
 30
0.0
 11
62.618397623699927
 21
129.5
 31
0.0
  0
LINE
  5
FC
  8
0
 10
39.618397623699941
 20
125.5
 30
0.0
 11
39.618397623699941
 21
129.5
 31
0.0
  0
LINE
  5
FD
  8
0
 10
62.618397623699927
 20
125.5
 30
0.0
 11
39.618397623699941
 21
125.5
 31
0.0
  0
LINE
  5
FE
  8
0
 10
62.618397623699927
 20
129.5
 30
0.0
 11
62.618397623699927
 21
125.5
 31
0.0
  0
LINE
  5
FF
  8
1
 10
51.118397623699927
 20
144.9909286711879
 30
0.0
 11
51.118397623699927
 21
92.0
 31
0.0
  0
LINE
  5
100
  8
0
 10
51.118397623699927
 20
114.583333
 30
0.0
 11
51.118397623699927
 21
122.0
 31
0.0
  0
LINE
  5
101
  8
0
 10
56.997562623699856
 20
113.5
 30
0.0
 11
45.239232623699863
 21
113.5
 31
0.0
  0
LINE
  5
102
  8
0
 10
44.618397623699927
 20
122.0
 30
0.0
 11
44.618397623699927
 21
113.858439
 31
0.0
  0
ARC
  5
103
  8
0
 10
47.868397623699927
 20
121.577777
 30
0.0
 40
7.712635999999998
 50
245.07785000000001
 51
294.92214999999999
  0
LINE
  5
104
  8
0
 10
44.618397623699927
 20
113.858439
 30
0.0
 11
45.239232623699863
 21
113.5
 31
0.0
  0
ARC
  5
105
  8
0
 10
54.368397623699927
 20
121.577777
 30
0.0
 40
7.712635999999998
 50
245.07785000000001
 51
294.92214999999999
  0
LINE
  5
106
  8
0
 10
57.618397623699927
 20
113.858439
 30
0.0
 11
56.997562623699856
 21
113.5
 31
0.0
  0
LINE
  5
107
  8
0
 10
57.618397623699927
 20
122.0
 30
0.0
 11
57.618397623699927
 21
113.858439
 31
0.0
  0
LINE
  5
15C
  8
1
 10
322.63772656535161
 20
191.34999999999999
 30
0.0
 11
322.63772656535161
 21
168.65000000000001
 31
0.0
  0
LINE
  5
15F
  8
0
 10
328.98772656535158
 20
173.65000000000001
 30
0.0
 11
316.28772656535159
 21
173.65000000000001
 31
0.0
  0
LINE
  5
160
  8
0
 10
316.28772656535159
 20
186.34999999999999
 30
0.0
 11
328.98772656535158
 21
186.34999999999999
 31
0.0
  0
CIRCLE
  5
161
  8
3
 10
322.63772656535161
 20
180.0
 30
0.0
 40
3.0
  0
CIRCLE
  5
163
  8
0
 10
322.63772656535161
 20
180.0
 30
0.0
 40
2.458499999999999
  0
LINE
  5
166
  8
1
 10
322.63772656535161
 20
134.30000000000001
 30
0.0
 11
322.63772656535161
 21
114.3
 31
0.0
  0
LINE
  5
167
  8
0
 10
328.98772656535158
 20
120.8
 30
0.0
 11
316.28772656535159
 21
120.8
 31
0.0
  0
LINE
  5
169
  8
0
 10
316.28772656535159
 20
129.30000000000001
 30
0.0
 11
328.98772656535158
 21
129.30000000000001
 31
0.0
  0
LINE
  5
16A
  8
0
 10
328.98772656535158
 20
119.3
 30
0.0
 11
316.28772656535159
 21
119.3
 31
0.0
  0
LINE
  5
16B
  8
0
 10
316.28772656535159
 20
119.3
 30
0.0
 11
316.28772656535159
 21
129.30000000000001
 31
0.0
  0
LINE
  5
16F
  8
0
 10
328.98772656535158
 20
129.30000000000001
 30
0.0
 11
328.98772656535158
 21
119.3
 31
0.0
  0
LINE
  5
171
  8
1
 10
333.98772656535158
 20
180.0
 30
0.0
 11
311.2877265653517
 21
180.0
 31
0.0
  0
LINE
  5
172
  8
0
 10
328.98772656535158
 20
183.75
 30
0.0
 11
316.28772656535159
 21
183.75
 31
0.0
  0
LINE
  5
173
  8
0
 10
328.98772656535158
 20
176.25
 30
0.0
 11
316.28772656535159
 21
176.25
 31
0.0
  0
LINE
  5
174
  8
0
 10
328.98772656535158
 20
186.34999999999999
 30
0.0
 11
328.98772656535169
 21
173.64999999999989
 31
0.0
  0
LINE
  5
175
  8
0
 10
316.28772656535159
 20
186.34999999999999
 30
0.0
 11
316.28772656535159
 21
173.65000000000001
 31
0.0
  0
LINE
  5
178
  8
0
 10
324.13772656413079
 20
180.8660254030801
 30
0.0
 11
324.13772656413079
 21
179.13397459551109
 31
0.0
  0
LINE
  5
179
  8
0
 10
324.1377265641288
 20
179.13397459692001
 30
0.0
 11
322.63772656413067
 21
178.26794919313551
 31
0.0
  0
LINE
  5
17A
  8
0
 10
322.63772656535127
 20
178.2679491938415
 30
0.0
 11
321.13772656535127
 21
179.13397459762561
 31
0.0
  0
LINE
  5
17B
  8
0
 10
321.13772656657272
 20
179.13397459692089
 30
0.0
 11
321.13772656657272
 21
180.86602540448979
 31
0.0
  0
LINE
  5
17C
  8
0
 10
321.13772656657272
 20
180.86602540307979
 30
0.0
 11
322.63772656657272
 21
181.73205080686441
 31
0.0
  0
LINE
  5
17D
  8
0
 10
322.63772656535127
 20
181.73205080615841
 30
0.0
 11
324.13772656535127
 21
180.86602540237431
 31
0.0
  0
LINE
  5
186
  8
1
 10
139.11149262369989
 20
180.0
 30
0.0
 11
161.51149262369989
 21
180.0
 31
0.0
  0
LINE
  5
18C
  8
0
 10
316.28772656535159
 20
125.3
 30
0.0
 11
328.98772656535158
 21
125.3
 31
0.0
  0
LINE
  5
19D
  8
0
 10
347.58725925892549
 20
128.80000000000001
 30
0.0
 11
347.58725925892549
 21
125.3
 31
0.0
  0
LINE
  5
19E
  8
0
 10
355.08725925892549
 20
128.80000000000001
 30
0.0
 11
355.08725925892549
 21
125.3
 31
0.0
  0
LINE
  5
19F
  8
0
 10
357.68725925892562
 20
124.8
 30
0.0
 11
357.68725925892539
 21
120.8
 31
0.0
  0
LINE
  5
1A0
  8
0
 10
344.98725925892552
 20
124.8
 30
0.0
 11
344.98725925892552
 21
120.7999999999999
 31
0.0
  0
LINE
  5
1A1
  8
0
 10
348.0872592589256
 20
129.30000000000001
 30
0.0
 11
354.58725925892549
 21
129.30000000000001
 31
0.0
  0
LINE
  5
1A2
  8
0
 10
345.48725925892541
 20
125.3
 30
0.0
 11
347.58725925892549
 21
125.3
 31
0.0
  0
LINE
  5
1A3
  8
0
 10
346.33725925892549
 20
119.3
 30
0.0
 11
356.3372592589256
 21
119.3
 31
0.0
  0
LINE
  5
1A4
  8
0
 10
355.08725925892549
 20
125.3000000000001
 30
0.0
 11
357.18725925892562
 21
125.3000000000001
 31
0.0
  0
LINE
  5
1A5
  8
1
 10
351.33725925892549
 20
114.3
 30
0.0
 11
351.33725925892549
 21
134.30000000000001
 31
0.0
  0
LINE
  5
1AB
  8
0
 10
346.3372592589256
 20
119.3
 30
0.0
 11
344.98725925892552
 21
120.8
 31
0.0
  0
LINE
  5
1AC
  8
0
 10
357.68725925892562
 20
120.8
 30
0.0
 11
356.3372592589256
 21
119.3
 31
0.0
  0
ARC
  5
1AD
  8
0
 10
345.48725925892541
 20
124.8
 30
0.0
 40
0.5
 50
90.0
 51
180.0
  0
ARC
  5
1AE
  8
0
 10
348.0872592589256
 20
128.80000000000001
 30
0.0
 40
0.5
 50
90.0
 51
180.0
  0
ARC
  5
1AF
  8
0
 10
354.58725925892549
 20
128.80000000000001
 30
0.0
 40
0.5
 50
0.0000000000008142
 51
90.0
  0
ARC
  5
1B0
  8
0
 10
357.18725925892562
 20
124.8
 30
0.0
 40
0.5
 50
359.9999999999992
 51
90.0
  0
LINE
  5
1C9
  8
3
 10
320.17922656535171
 20
129.30000000000001
 30
0.0
 11
320.17922656535171
 21
131.8415
 31
0.0
  0
LINE
  5
1CA
  8
0
 10
319.63772656535161
 20
129.3000000000001
 30
0.0
 11
319.63772656535161
 21
131.30000000000001
 31
0.0
  0
LINE
  5
1CC
  8
3
 10
325.09622656535163
 20
129.30000000000001
 30
0.0
 11
325.09622656535169
 21
131.84149999999991
 31
0.0
  0
LINE
  5
1CD
  8
0
 10
325.63772656535161
 20
129.3000000000001
 30
0.0
 11
325.63772656535161
 21
131.2999999999999
 31
0.0
  0
LINE
  5
1FE
  8
0
 10
143.96149262369991
 20
184.0
 30
0.0
 11
156.6614926236999
 21
184.0
 31
0.0
  0
LINE
  5
1FF
  8
0
 10
143.96149262369991
 20
176.0
 30
0.0
 11
156.6614926236999
 21
176.0
 31
0.0
  0
LINE
  5
201
  8
0
 10
156.6614926236999
 20
186.34999999999999
 30
0.0
 11
156.66149262370001
 21
173.64999999999989
 31
0.0
  0
LINE
  5
202
  8
0
 10
143.96149262369991
 20
186.34999999999999
 30
0.0
 11
143.96149262369991
 21
173.65000000000001
 31
0.0
  0
LINE
  5
212
  8
0
 10
143.96149262369991
 20
125.3
 30
0.0
 11
156.6614926236999
 21
125.3
 31
0.0
  0
LINE
  5
215
  8
0
 10
172.9504708729493
 20
119.3
 30
0.0
 11
182.9504708729493
 21
119.3
 31
0.0
  0
LINE
  5
216
  8
0
 10
174.70047087294941
 20
129.30000000000001
 30
0.0
 11
181.2004708729493
 21
129.30000000000001
 31
0.0
  0
LINE
  5
217
  8
0
 10
171.6004708729493
 20
124.8
 30
0.0
 11
171.6004708729493
 21
120.7999999999999
 31
0.0
  0
LINE
  5
218
  8
0
 10
172.95047087294941
 20
119.3
 30
0.0
 11
171.6004708729493
 21
120.8
 31
0.0
  0
ARC
  5
21A
  8
0
 10
172.1004708729493
 20
124.8
 30
0.0
 40
0.5
 50
90.0
 51
180.0
  0
ARC
  5
21B
  8
0
 10
174.70047087294941
 20
128.80000000000001
 30
0.0
 40
0.5
 50
90.0
 51
180.0
  0
LINE
  5
21C
  8
0
 10
174.20047087294941
 20
128.80000000000001
 30
0.0
 11
174.20047087294941
 21
125.3
 31
0.0
  0
LINE
  5
21D
  8
0
 10
172.1004708729493
 20
125.3
 30
0.0
 11
174.20047087294941
 21
125.3
 31
0.0
  0
LINE
  5
21E
  8
0
 10
184.3004708729494
 20
124.8
 30
0.0
 11
184.30047087294929
 21
120.7999999999999
 31
0.0
  0
LINE
  5
21F
  8
1
 10
177.95047087294941
 20
111.8
 30
0.0
 11
177.95047087294941
 21
134.30000000000001
 31
0.0
  0
LINE
  5
220
  8
0
 10
184.3004708729494
 20
120.8
 30
0.0
 11
182.9504708729493
 21
119.3
 31
0.0
  0
LINE
  5
221
  8
0
 10
181.7004708729493
 20
125.3
 30
0.0
 11
183.8004708729494
 21
125.3
 31
0.0
  0
ARC
  5
225
  8
0
 10
181.2004708729493
 20
128.80000000000001
 30
0.0
 40
0.5
 50
0.0000000000008142
 51
90.0
  0
LINE
  5
226
  8
0
 10
181.7004708729493
 20
128.80000000000001
 30
0.0
 11
181.7004708729493
 21
125.3
 31
0.0
  0
ARC
  5
229
  8
0
 10
183.8004708729494
 20
124.8
 30
0.0
 40
0.5
 50
359.9999999999992
 51
90.0
  0
ARC
  5
22A
  8
0
 10
177.95047087294941
 20
119.3
 30
0.0
 40
2.5
 50
203.57817800000001
 51
336.42182200000002
  0
LINE
  5
22B
  8
0
 10
181.15047087294931
 20
118.3
 30
0.0
 11
174.75047087294939
 21
118.3
 31
0.0
  0
LINE
  5
22C
  8
0
 10
174.75047087294939
 20
118.3
 30
0.0
 11
174.75047087294939
 21
119.3
 31
0.0
  0
LINE
  5
22D
  8
0
 10
181.15047087294931
 20
119.3
 30
0.0
 11
181.15047087294931
 21
118.3
 31
0.0
  0
TEXT
  5
336
  8
0
 62
     3
 10
0.0
 20
0.0
 30
0.0
 40
10.0
  1
DE-LS1
  7
STANDARD1
  0
LINE
  5
3D6
  8
0
 10
102.81149262369991
 20
186.89999999999989
 30
0.0
 11
102.81149262369991
 21
173.09999999999999
 31
0.0
  0
LINE
  5
3D7
  8
0
 10
79.811492623699948
 20
186.89999999999989
 30
0.0
 11
102.81149262369991
 21
186.89999999999989
 31
0.0
  0
LINE
  5
3D8
  8
0
 10
79.811492623699948
 20
173.09999999999999
 30
0.0
 11
79.811492623699948
 21
186.89999999999989
 31
0.0
  0
LINE
  5
3D9
  8
0
 10
102.81149262369991
 20
173.09999999999999
 30
0.0
 11
79.811492623699948
 21
173.09999999999999
 31
0.0
  0
CIRCLE
  5
3DA
  8
3
 10
95.311492623699905
 20
180.0
 30
0.0
 40
3.9999999999999711
  0
CIRCLE
  5
3DB
  8
0
 10
95.311492623699905
 20
180.0
 30
0.0
 40
3.3235000000001218
  0
ARC
  5
3DC
  8
0
 10
51.118397623699927
 20
140.0000000000004
 30
0.0
 40
1.99999999999943
 50
14.47751218593246
 51
165.52248781406749
  0
ARC
  5
3DD
  8
0
 10
57.81839857736297
 20
133.90000000000001
 30
0.0
 40
0.2
 50
270.0
 51
21.82024298591158
  0
ARC
  5
3DE
  8
0
 10
44.418398577385531
 20
133.90000000000001
 30
0.0
 40
0.2
 50
158.17975701408841
 51
269.99945358486639
  0
ARC
  5
3DF
  8
0
 10
59.086404046369722
 20
128.0272139863732
 30
0.0
 40
16.0
 50
131.60568870621361
 51
158.1797900552796
  0
ARC
  5
3E0
  8
0
 10
51.118398577374229
 20
136.99999999998349
 30
0.0
 40
4.0000000000006821
 50
118.9550425857603
 51
131.60568640445121
  0
ARC
  5
3E1
  8
0
 10
43.150393108378772
 20
128.0272139863732
 30
0.0
 40
16.0
 50
21.820209944720411
 51
48.394311293786423
  0
LINE
  5
3E2
  8
0
 10
44.418396670036898
 20
133.69999999999999
 30
0.0
 11
57.81839857736297
 21
133.69999999999999
 31
0.0
  0
ARC
  5
3E3
  8
0
 10
51.118398577374229
 20
136.99999999998349
 30
0.0
 40
4.0000000000006821
 50
48.394308992024968
 51
61.044993841914369
  0
ARC
  5
3E8
  8
0
 10
51.11839762369992
 20
137.0
 30
0.0
 40
4.0
 50
61.044975628149778
 51
118.9550243718499
  0
LINE
  5
3E9
  8
1
 10
51.11839762369992
 20
131.19999999999999
 30
0.0
 11
51.11839762369992
 21
144.4999999999998
 31
0.0
  0
CIRCLE
  5
409
  8
0
 10
86.311492623699934
 20
180.0
 30
0.0
 40
1.8035499999999991
  0
CIRCLE
  5
412
  8
0
 10
95.311492623699905
 20
180.0
 30
0.0
 40
0.0
  0
CIRCLE
  5
413
  8
0
 10
95.311492623699905
 20
180.0
 30
0.0
 40
0.0
  0
ARC
  5
414
  8
0
 10
95.311492623699905
 20
180.0
 30
0.0
 40
11.5
 50
216.86989764584391
 51
143.13010235415609
  0
LINE
  5
417
  8
0
 10
79.811492623699948
 20
133.69999999999999
 30
0.0
 11
102.81149262369991
 21
133.69999999999999
 31
0.0
  0
LINE
  5
418
  8
0
 10
79.811492623699948
 20
141.0
 30
0.0
 11
79.811492623699948
 21
133.69999999999999
 31
0.0
  0
LINE
  5
419
  8
0
 10
102.81149262369991
 20
141.0
 30
0.0
 11
102.81149262369991
 21
133.69999999999999
 31
0.0
  0
LINE
  5
41A
  8
0
 10
79.811492623699948
 20
141.0
 30
0.0
 11
84.261492623700363
 21
141.0
 31
0.0
  0
ARC
  5
41B
  8
0
 10
95.311492623699877
 20
145.96864147115051
 30
0.0
 40
5.9777127999626147
 50
236.2216291110683
 51
303.77837088893182
  0
LINE
  5
41C
  8
0
 10
98.634992623699915
 20
141.0
 30
0.0
 11
102.81149262369991
 21
141.0
 31
0.0
  0
LINE
  5
41D
  8
1
 10
95.311492623699905
 20
142.50907132881201
 30
0.0
 11
95.311492623699905
 21
130.20907132881209
 31
0.0
  0
ARC
  5
41E
  8
0
 10
86.311492623700204
 20
144.4347529268982
 30
0.0
 40
4.0000034586030271
 50
239.1695321361984
 51
300.83046786379509
  0
LINE
  5
41F
  8
0
 10
88.361492623700087
 20
141.0
 30
0.0
 11
91.987992623699824
 21
141.0
 31
0.0
  0
ARC
  5
420
  8
0
 10
86.311492623699934
 20
140.0000000000004
 30
0.0
 40
1.99999999999943
 50
25.607993133819459
 51
154.3920068661732
  0
LINE
  5
421
  8
1
 10
86.311492623699934
 20
130.69999999999999
 30
0.0
 11
86.311492623699934
 21
144.9999999999998
 31
0.0
  0
LINE
  5
479
  8
1
 10
205.31149262369991
 20
124.3
 30
0.0
 11
255.31149262369991
 21
124.3
 31
0.0
  0
LINE
  5
4B7
  8
0
 10
320.63772656535161
 20
132.30000000000001
 30
0.0
 11
324.63772656535161
 21
132.30000000000001
 31
0.0
  0
LINE
  5
4BC
  8
0
 10
319.63772656535161
 20
131.30000000000001
 30
0.0
 11
320.63772656535161
 21
132.30000000000001
 31
0.0
  0
LINE
  5
4BD
  8
0
 10
324.63772656535161
 20
132.30000000000001
 30
0.0
 11
325.63772656535161
 21
131.30000000000001
 31
0.0
  0
LINE
  5
4BE
  8
0
 10
325.63772656535161
 20
131.30000000000001
 30
0.0
 11
319.63772656535161
 21
131.30000000000001
 31
0.0
  0
LINE
  5
4C4
  8
3
 10
348.87875925892553
 20
129.30000000000001
 30
0.0
 11
348.87875925892553
 21
131.8415
 31
0.0
  0
LINE
  5
4C5
  8
0
 10
348.3372592589256
 20
129.3000000000001
 30
0.0
 11
348.33725925892549
 21
131.30000000000001
 31
0.0
  0
LINE
  5
4C6
  8
3
 10
353.7957592589255
 20
129.30000000000001
 30
0.0
 11
353.79575925892561
 21
131.84149999999991
 31
0.0
  0
LINE
  5
4C7
  8
0
 10
354.3372592589256
 20
129.3000000000001
 30
0.0
 11
354.3372592589256
 21
131.2999999999999
 31
0.0
  0
LINE
  5
4C8
  8
0
 10
349.33725925892549
 20
132.30000000000001
 30
0.0
 11
353.33725925892549
 21
132.30000000000001
 31
0.0
  0
LINE
  5
4C9
  8
0
 10
348.3372592589256
 20
131.30000000000001
 30
0.0
 11
349.33725925892549
 21
132.30000000000001
 31
0.0
  0
LINE
  5
4CA
  8
0
 10
353.33725925892549
 20
132.30000000000001
 30
0.0
 11
354.3372592589256
 21
131.30000000000001
 31
0.0
  0
LINE
  5
4CB
  8
0
 10
354.3372592589256
 20
131.30000000000001
 30
0.0
 11
348.3372592589256
 21
131.30000000000001
 31
0.0
  0
LINE
  5
4D7
  8
1
 10
279.01102531727378
 20
134.30000000000001
 30
0.0
 11
279.01102531727378
 21
114.3
 31
0.0
  0
LINE
  5
4D8
  8
1
 10
269.01102531727378
 20
124.3
 30
0.0
 11
289.01102531727378
 21
124.3
 31
0.0
  0
CIRCLE
  5
4D9
  8
0
 10
279.01102531727378
 20
124.3
 30
0.0
 40
5.0
  0
ENDSEC
  0
EOF
