  0
SECTION
  2
HEADER
  9
$ACADVER
  1
AC1009
  9
$INSBASE
 10
105.0
 20
0.0
 30
0.0
  9
$EXTMIN
 10
0.0
 20
-2.960436562073669
 30
0.0
  9
$EXTMAX
 10
642.25417859223319
 20
474.0737410071942
 30
0.0
  9
$LIMMIN
 10
0.0
 20
0.0
  9
$LIMMAX
 10
750.0
 20
540.0
  9
$ORTHOMODE
 70
     1
  9
$REGENMODE
 70
     1
  9
$FILLMODE
 70
     1
  9
$QTEXTMODE
 70
     0
  9
$MIRRTEXT
 70
     0
  9
$DRAGMODE
 70
     2
  9
$LTSCALE
 40
20.0
  9
$OSMODE
 70
  3071
  9
$ATTMODE
 70
     1
  9
$TEXTSIZE
 40
5.0
  9
$TRACEWID
 40
0.05
  9
$TEXTSTYLE
  7
STANDARD
  9
$CLAYER
  8
4
  9
$CELTYPE
  6
BYLAYER
  9
$CECOLOR
 62
   256
  9
$DIMSCALE
 40
2.0
  9
$DIMASZ
 40
3.0
  9
$DIMEXO
 40
2.0
  9
$DIMDLI
 40
0.3799999999999999
  9
$DIMRND
 40
0.0
  9
$DIMDLE
 40
0.0
  9
$DIMEXE
 40
2.0
  9
$DIMTP
 40
0.0
  9
$DIMTM
 40
0.0
  9
$DIMTXT
 40
3.2000000000000002
  9
$DIMCEN
 40
0.0
  9
$DIMTSZ
 40
0.0
  9
$DIMTOL
 70
     0
  9
$DIMLIM
 70
     0
  9
$DIMTIH
 70
     0
  9
$DIMTOH
 70
     0
  9
$DIMSE1
 70
     0
  9
$DIMSE2
 70
     0
  9
$DIMTAD
 70
     1
  9
$DIMZIN
 70
     0
  9
$DIMBLK
  1

  9
$DIMASO
 70
     0
  9
$DIMSHO
 70
     0
  9
$DIMPOST
  1

  9
$DIMAPOST
  1

  9
$DIMALT
 70
     0
  9
$DIMALTD
 70
     2
  9
$DIMALTF
 40
25.399999999999999
  9
$DIMLFAC
 40
1.0
  9
$DIMTOFL
 70
     1
  9
$DIMTVP
 40
0.0
  9
$DIMTIX
 70
     1
  9
$DIMSOXD
 70
     0
  9
$DIMSAH
 70
     0
  9
$DIMBLK1
  1

  9
$DIMBLK2
  1

  9
$DIMSTYLE
  2
STANDARD
  9
$DIMCLRD
 70
     0
  9
$DIMCLRE
 70
     0
  9
$DIMCLRT
 70
     0
  9
$DIMTFAC
 40
1.0
  9
$DIMGAP
 40
0.09
  9
$LUNITS
 70
     2
  9
$LUPREC
 70
     4
  9
$SKETCHINC
 40
0.1
  9
$FILLETRAD
 40
1.5
  9
$AUNITS
 70
     0
  9
$AUPREC
 70
     0
  9
$MENU
  1
E:\r13\win\SUPPORT\ACAD
  9
$ELEVATION
 40
0.0
  9
$PELEVATION
 40
0.0
  9
$THICKNESS
 40
0.0
  9
$LIMCHECK
 70
     0
  9
$BLIPMODE
 70
     0
  9
$CHAMFERA
 40
0.0
  9
$CHAMFERB
 40
0.0
  9
$SKPOLY
 70
     0
  9
$TDCREATE
 40
2449840.6503703711
  9
$TDUPDATE
 40
2456598.6029620948
  9
$TDINDWG
 40
0.0001027662
  9
$TDUSRTIMER
 40
0.0001027662
  9
$USRTIMER
 70
     1
  9
$ANGBASE
 50
0.0
  9
$ANGDIR
 70
     0
  9
$PDMODE
 70
     0
  9
$PDSIZE
 40
0.0
  9
$PLINEWID
 40
0.0
  9
$COORDS
 70
     1
  9
$SPLFRAME
 70
     0
  9
$SPLINETYPE
 70
     6
  9
$SPLINESEGS
 70
     8
  9
$ATTDIA
 70
     0
  9
$ATTREQ
 70
     1
  9
$HANDLING
 70
     1
  9
$HANDSEED
  5
290
  9
$SURFTAB1
 70
     6
  9
$SURFTAB2
 70
     6
  9
$SURFTYPE
 70
     6
  9
$SURFU
 70
     6
  9
$SURFV
 70
     6
  9
$UCSNAME
  2

  9
$UCSORG
 10
0.0
 20
0.0
 30
0.0
  9
$UCSXDIR
 10
1.0
 20
0.0
 30
0.0
  9
$UCSYDIR
 10
0.0
 20
1.0
 30
0.0
  9
$PUCSNAME
  2

  9
$PUCSORG
 10
0.0
 20
0.0
 30
0.0
  9
$PUCSXDIR
 10
1.0
 20
0.0
 30
0.0
  9
$PUCSYDIR
 10
0.0
 20
1.0
 30
0.0
  9
$USERI1
 70
     0
  9
$USERI2
 70
     1
  9
$USERI3
 70
     0
  9
$USERI4
 70
     0
  9
$USERI5
 70
     0
  9
$USERR1
 40
0.0
  9
$USERR2
 40
0.0
  9
$USERR3
 40
0.0
  9
$USERR4
 40
0.0
  9
$USERR5
 40
0.0
  9
$WORLDVIEW
 70
     1
  9
$SHADEDGE
 70
     3
  9
$SHADEDIF
 70
    70
  9
$TILEMODE
 70
     1
  9
$MAXACTVP
 70
    16
  9
$PLIMCHECK
 70
     0
  9
$PEXTMIN
 10
1.0000000000000000E+020
 20
1.0000000000000000E+020
 30
1.0000000000000000E+020
  9
$PEXTMAX
 10
-1.0000000000000000E+020
 20
-1.0000000000000000E+020
 30
-1.0000000000000000E+020
  9
$PLIMMIN
 10
0.0
 20
0.0
  9
$PLIMMAX
 10
12.0
 20
9.0
  9
$UNITMODE
 70
     0
  9
$VISRETAIN
 70
     0
  9
$PLINEGEN
 70
     0
  9
$PSLTSCALE
 70
     0
  0
ENDSEC
  0
SECTION
  2
TABLES
  0
TABLE
  2
VPORT
 70
     1
  0
VPORT
  2
*ACTIVE
 70
     0
 10
0.0
 20
0.0
 11
1.0
 21
1.0
 12
390.03402345615979
 22
268.50860658393782
 13
0.0
 23
0.0
 14
20.0
 24
20.0
 15
20.0
 25
20.0
 16
0.0
 26
0.0
 36
1.0
 17
0.0
 27
0.0
 37
0.0
 40
547.85258761088789
 41
1.831871345029239
 42
50.0
 43
0.0
 44
0.0
 50
0.0
 51
0.0
 71
     0
 72
   500
 73
     1
 74
     0
 75
     0
 76
     0
 77
     0
 78
     0
  0
ENDTAB
  0
TABLE
  2
LTYPE
 70
     3
  0
LTYPE
  2
CONTINUOUS
 70
     0
  3
Solid Line
 72
    65
 73
     0
 40
0.0
  0
LTYPE
  2
CENTER
 70
     0
  3
____ _ ____ _ ____ _ ____ _ ____ _ ____ _ ____
 72
    65
 73
     4
 40
2.0
 49
1.25
 49
-0.25
 49
0.25
 49
-0.25
  0
LTYPE
  2
PHANTOM2
 70
     0
  3
___ _ _ ___ _ _ ___ _ _ ___ _ _
 72
    65
 73
     6
 40
1.25
 49
0.625
 49
-0.125
 49
0.125
 49
-0.125
 49
0.125
 49
-0.125
  0
ENDTAB
  0
TABLE
  2
LAYER
 70
     4
  0
LAYER
  2
0
 70
     0
 62
     7
  6
CONTINUOUS
  0
LAYER
  2
1
 70
     0
 62
     1
  6
CENTER
  0
LAYER
  2
3
 70
     0
 62
     3
  6
CONTINUOUS
  0
LAYER
  2
4
 70
     0
 62
     4
  6
CONTINUOUS
  0
ENDTAB
  0
TABLE
  2
STYLE
 70
     2
  0
STYLE
  2
STANDARD
 70
     0
 40
0.0
 41
1.0
 50
0.0
 71
     0
 42
5.0
  3
TXT
  4
BIGFONT
  0
STYLE
  2
STANDARD1
 70
     0
 40
0.0
 41
1.0
 50
0.0
 71
     0
 42
3.0
  3
txt
  4

  0
ENDTAB
  0
TABLE
  2
VIEW
 70
     1
  0
VIEW
  2
ALL
 70
     0
 40
540.0
 10
441.98319327731087
 20
270.0
 41
0.0
 11
0.0
 21
0.0
 31
1.0
 12
0.0
 22
0.0
 32
0.0
 42
0.0
 43
0.0
 44
0.0
 50
0.0
 71
     0
  0
ENDTAB
  0
TABLE
  2
UCS
 70
     0
  0
ENDTAB
  0
TABLE
  2
APPID
 70
     3
  0
APPID
  2
ACAD
 70
     0
  0
APPID
  2
ACAD_MLEADERVER
 70
     0
  0
APPID
  2
ACAD_NAV_VCDISPLAY
 70
     0
  0
ENDTAB
  0
TABLE
  2
DIMSTYLE
 70
     1
  0
DIMSTYLE
  2
STANDARD
 70
     0
  3

  4

  5

  6

  7

 40
1.0
 41
0.18
 42
0.0625
 43
0.38
 44
0.18
 45
0.0
 46
0.0
 47
0.0
 48
0.0
140
0.18
141
0.09
142
0.0
143
25.399999999999999
144
1.0
145
0.0
146
1.0
147
0.09
 71
     0
 72
     0
 73
     1
 74
     1
 75
     0
 76
     0
 77
     0
 78
     0
170
     0
171
     2
172
     0
173
     0
174
     0
175
     0
176
     0
177
     0
178
     0
  0
ENDTAB
  0
ENDSEC
  0
SECTION
  2
BLOCKS
  0
BLOCK
  8
0
  2
$MODEL_SPACE
 70
     0
 10
0.0
 20
0.0
 30
0.0
  3
$MODEL_SPACE
  1

  0
ENDBLK
  5
143
  8
0
  0
BLOCK
 67
     1
  8
0
  2
$PAPER_SPACE
 70
     0
 10
0.0
 20
0.0
 30
0.0
  3
$PAPER_SPACE
  1

  0
ENDBLK
  5
141
 67
     1
  8
0
  0
ENDSEC
  0
SECTION
  2
ENTITIES
  0
LINE
  5
42
  8
0
 10
403.91512539672101
 20
329.07374100719431
 30
0.0
 11
345.91512539672101
 21
329.07374100719431
 31
0.0
  0
LINE
  5
43
  8
0
 10
345.91512539672101
 20
329.07374100719431
 30
0.0
 11
345.91512539672112
 21
469.07374100719431
 31
0.0
  0
LINE
  5
44
  8
0
 10
345.91512539672112
 20
469.07374100719431
 30
0.0
 11
403.91512539672101
 21
469.07374100719431
 31
0.0
  0
LINE
  5
45
  8
0
 10
403.91512539672101
 20
469.07374100719431
 30
0.0
 11
403.91512539672101
 21
329.07374100719431
 31
0.0
  0
LINE
  5
46
  8
0
 10
379.91512539672101
 20
469.07374100719431
 30
0.0
 11
379.91512539672101
 21
329.07374100719431
 31
0.0
  0
LINE
  5
47
  8
0
 10
387.91512539672101
 20
469.07374100719431
 30
0.0
 11
387.91512539672101
 21
329.07374100719431
 31
0.0
  0
ARC
  5
48
  8
0
 10
395.6651253967209
 20
199.3458685114642
 30
0.0
 40
4.0
 50
180.0
 51
216.6419281412139
  0
LINE
  5
49
  8
0
 10
391.66512539672101
 20
199.3458685114642
 30
0.0
 11
391.66512539672101
 21
203.66458109399269
 31
0.0
  0
LINE
  5
4A
  8
0
 10
402.41512539672101
 20
205.50522480272841
 30
0.0
 11
400.41512539672112
 21
205.50522480272841
 31
0.0
  0
ARC
  5
4B
  8
0
 10
400.41512539672112
 20
206.50522480272841
 30
0.0
 40
1.0
 50
180.0
 51
270.0
  0
ARC
  5
4C
  8
0
 10
398.21512539672102
 20
210.15650837696521
 30
0.0
 40
1.1999999999999991
 50
360.0
 51
126.93010602515849
  0
ARC
  5
4D
  8
0
 10
412.51512539672092
 20
191.13152480272831
 30
0.0
 40
25.0
 50
126.93010602515891
 51
143.3580718587861
  0
ARC
  5
4E
  8
0
 10
395.6651253967209
 20
203.66458109399269
 30
0.0
 40
4.0
 50
143.3580718587861
 51
180.0
  0
LINE
  5
4F
  8
0
 10
399.41512539672112
 20
206.50522480272841
 30
0.0
 11
399.41512539672112
 21
210.15650837696521
 31
0.0
  0
LINE
  5
50
  8
0
 10
402.41512539672101
 20
197.50522480272841
 30
0.0
 11
400.41512539672112
 21
197.50522480272841
 31
0.0
  0
LINE
  5
51
  8
0
 10
399.41512539672112
 20
196.50522480272841
 30
0.0
 11
399.41512539672112
 21
192.85394122849169
 31
0.0
  0
ARC
  5
52
  8
0
 10
400.41512539672112
 20
196.50522480272841
 30
0.0
 40
1.0
 50
89.999999999999986
 51
180.0
  0
ARC
  5
53
  8
0
 10
412.51512539672092
 20
211.87892480272851
 30
0.0
 40
25.0
 50
216.64192814121381
 51
233.06989397484111
  0
ARC
  5
54
  8
0
 10
398.21512539672102
 20
192.85394122849169
 30
0.0
 40
1.1999999999999991
 50
233.06989397484151
 51
360.0
  0
ARC
  5
55
  8
0
 10
386.07448168798533
 20
233.25522480272841
 30
0.0
 40
4.0
 50
270.0
 51
306.64192814121401
  0
LINE
  5
56
  8
0
 10
386.07448168798533
 20
229.25522480272841
 30
0.0
 11
381.75576910545681
 21
229.25522480272841
 31
0.0
  0
LINE
  5
57
  8
0
 10
379.91512539672101
 20
240.00522480272849
 30
0.0
 11
379.91512539672101
 21
238.00522480272849
 31
0.0
  0
ARC
  5
58
  8
0
 10
378.91512539672112
 20
238.00522480272849
 30
0.0
 40
1.0
 50
270.0
 51
0.0
  0
ARC
  5
59
  8
0
 10
375.26384182248438
 20
235.80522480272859
 30
0.0
 40
1.1999999999999991
 50
90.000000000000028
 51
216.93010602515861
  0
ARC
  5
5A
  8
0
 10
394.28882539672122
 20
250.10522480272849
 30
0.0
 40
25.0
 50
216.93010602515889
 51
233.35807185878619
  0
ARC
  5
5B
  8
0
 10
381.75576910545681
 20
233.25522480272841
 30
0.0
 40
4.0
 50
233.3580718587861
 51
270.00000000000011
  0
LINE
  5
5C
  8
0
 10
378.91512539672112
 20
237.00522480272849
 30
0.0
 11
375.26384182248438
 21
237.00522480272849
 31
0.0
  0
LINE
  5
5D
  8
0
 10
387.91512539672112
 20
240.00522480272849
 30
0.0
 11
387.91512539672112
 21
238.00522480272849
 31
0.0
  0
LINE
  5
5E
  8
0
 10
388.91512539672112
 20
237.00522480272849
 30
0.0
 11
392.56640897095781
 21
237.00522480272849
 31
0.0
  0
ARC
  5
5F
  8
0
 10
388.91512539672112
 20
238.00522480272849
 30
0.0
 40
1.0
 50
180.0
 51
269.99999999999989
  0
ARC
  5
60
  8
0
 10
373.54142539672102
 20
250.10522480272849
 30
0.0
 40
25.0
 50
306.64192814121378
 51
323.06989397484108
  0
ARC
  5
61
  8
0
 10
392.56640897095781
 20
235.80522480272859
 30
0.0
 40
1.1999999999999991
 50
323.06989397484148
 51
90.0
  0
LINE
  5
62
  8
1
 10
374.91512539672112
 20
246.50522480272849
 30
0.0
 11
374.91512539672112
 21
178.50522480272849
 31
0.0
  0
LINE
  5
63
  8
0
 10
373.91512539672112
 20
228.85522480272849
 30
0.0
 11
368.43669827197488
 21
234.33365192747459
 31
0.0
  0
LINE
  5
64
  8
0
 10
355.91512539672129
 20
233.05522480272839
 30
0.0
 11
355.91512539672129
 21
193.95522480272851
 31
0.0
  0
LINE
  5
65
  8
0
 10
353.91512539672112
 20
222.00522480272829
 30
0.0
 11
355.91512539672129
 21
222.00522480272829
 31
0.0
  0
LINE
  5
66
  8
0
 10
373.91512539672112
 20
222.00522480272829
 30
0.0
 11
371.91512539672101
 21
222.00522480272829
 31
0.0
  0
LINE
  5
67
  8
0
 10
371.91512539672101
 20
230.85522480272871
 30
0.0
 11
371.91512539672101
 21
193.95522480272851
 31
0.0
  0
LINE
  5
68
  8
0
 10
365.41512539672101
 20
229.62408488702309
 30
0.0
 11
365.41512539672101
 21
197.38636471843381
 31
0.0
  0
LINE
  5
69
  8
0
 10
362.41512539672112
 20
229.62408488702309
 30
0.0
 11
362.41512539672112
 21
197.38636471843381
 31
0.0
  0
LINE
  5
6A
  8
0
 10
369.50419871795629
 20
233.05522671007719
 30
0.0
 11
369.50419871795629
 21
193.95522480272851
 31
0.0
  0
LINE
  5
6B
  8
0
 10
358.32605207548579
 20
233.05522671007719
 30
0.0
 11
358.32605207548579
 21
193.95522480272851
 31
0.0
  0
LINE
  5
6C
  8
0
 10
362.41512539672112
 20
229.62408488702309
 30
0.0
 11
358.32605207548579
 21
233.05522480272859
 31
0.0
  0
LINE
  5
6D
  8
0
 10
365.41512539672101
 20
229.62408488702309
 30
0.0
 11
369.5041987179564
 21
233.05522480272859
 31
0.0
  0
LINE
  5
6E
  8
0
 10
355.91512539672129
 20
233.05522480272839
 30
0.0
 11
358.32605207548579
 21
233.05522480272859
 31
0.0
  0
LINE
  5
6F
  8
0
 10
365.41512539672101
 20
229.62408488702309
 30
0.0
 11
362.41512539672112
 21
229.62408488702309
 31
0.0
  0
LINE
  5
70
  8
0
 10
369.50419871795629
 20
233.05522480272859
 30
0.0
 11
369.71512539672102
 21
233.05522480272859
 31
0.0
  0
LINE
  5
71
  8
0
 10
369.50419871795629
 20
193.9552248027284
 30
0.0
 11
371.91512539672101
 21
193.9552248027284
 31
0.0
  0
LINE
  5
72
  8
0
 10
365.41512539672101
 20
197.38636471843381
 30
0.0
 11
362.41512539672112
 21
197.38636471843381
 31
0.0
  0
LINE
  5
73
  8
0
 10
355.91512539672129
 20
193.9552248027284
 30
0.0
 11
358.32605207548579
 21
193.9552248027284
 31
0.0
  0
LINE
  5
74
  8
0
 10
365.41512539672101
 20
197.38636471843381
 30
0.0
 11
369.5041987179564
 21
193.9552248027284
 31
0.0
  0
LINE
  5
75
  8
0
 10
362.41512539672112
 20
197.38636471843381
 30
0.0
 11
358.32605207548579
 21
193.9552248027284
 31
0.0
  0
LINE
  5
76
  8
0
 10
373.91512539672112
 20
205.00522480272869
 30
0.0
 11
371.91512539672101
 21
205.00522480272869
 31
0.0
  0
LINE
  5
77
  8
0
 10
353.91512539672112
 20
205.00522480272869
 30
0.0
 11
355.91512539672129
 21
205.00522480272869
 31
0.0
  0
LINE
  5
78
  8
1
 10
383.91512539672112
 20
230.50522480272849
 30
0.0
 11
383.91512539672112
 21
193.10522480272849
 31
0.0
  0
LINE
  5
79
  8
0
 10
412.71512539672108
 20
197.50522480272849
 30
0.0
 11
412.71512539672108
 21
205.50522480272849
 31
0.0
  0
LINE
  5
7A
  8
0
 10
413.91512539672112
 20
198.7052248027284
 30
0.0
 11
412.71512539672119
 21
197.50522480272849
 31
0.0
  0
LINE
  5
7B
  8
0
 10
412.71512539672119
 20
205.50522480272849
 30
0.0
 11
413.91512539672112
 21
204.30522480272859
 31
0.0
  0
LINE
  5
7C
  8
0
 10
413.91512539672112
 20
204.30522480272859
 30
0.0
 11
413.91512539672112
 21
198.7052248027284
 31
0.0
  0
LINE
  5
7D
  8
0
 10
399.41512539672112
 20
205.50522480272849
 30
0.0
 11
412.71512539672119
 21
205.50522480272849
 31
0.0
  0
LINE
  5
7E
  8
3
 10
399.41512539672112
 20
204.8287248027286
 30
0.0
 11
413.391625396721
 21
204.8287248027286
 31
0.0
  0
LINE
  5
7F
  8
3
 10
399.41512539672112
 20
198.18172480272841
 30
0.0
 11
413.391625396721
 21
198.18172480272841
 31
0.0
  0
LINE
  5
80
  8
0
 10
399.41512539672112
 20
197.50522480272849
 30
0.0
 11
412.71512539672119
 21
197.50522480272849
 31
0.0
  0
ARC
  5
81
  8
0
 10
398.7015871149539
 20
200.29168652096141
 30
0.0
 40
6.0
 50
195.33191487126911
 51
254.66808512881221
  0
LINE
  5
82
  8
0
 10
397.91512539672118
 20
194.50522480272849
 30
0.0
 11
397.11512539672111
 21
194.50522480272849
 31
0.0
  0
ARC
  5
83
  8
0
 10
398.7015871149539
 20
202.71876308449549
 30
0.0
 40
6.0
 50
105.33191487118781
 51
164.66808512873089
  0
LINE
  5
84
  8
0
 10
397.91512539672118
 20
208.50522480272849
 30
0.0
 11
397.11512539672111
 21
208.50522480272849
 31
0.0
  0
LINE
  5
85
  8
0
 10
397.11512539672111
 20
208.5052248027292
 30
0.0
 11
397.11512539672111
 21
194.5052248027277
 31
0.0
  0
LINE
  5
86
  8
0
 10
392.91512539672112
 20
204.30522480273021
 30
0.0
 11
392.91512539672112
 21
198.70522480272231
 31
0.0
  0
LINE
  5
87
  8
0
 10
399.41512539672112
 20
194.0052248027275
 30
0.0
 11
399.41512539672112
 21
209.00522480272849
 31
0.0
  0
LINE
  5
88
  8
0
 10
397.91512539672112
 20
194.00522480272849
 30
0.0
 11
399.41512539672112
 21
194.0052248027275
 31
0.0
  0
LINE
  5
89
  8
0
 10
397.91512539672112
 20
209.00522480272849
 30
0.0
 11
397.91512539672112
 21
194.00522480272849
 31
0.0
  0
LINE
  5
8A
  8
0
 10
399.41512539672112
 20
209.00522480272849
 30
0.0
 11
397.91512539672112
 21
209.00522480272849
 31
0.0
  0
LINE
  5
8B
  8
1
 10
418.91512539672129
 20
201.50522480272849
 30
0.0
 11
375.51512539672098
 21
201.50522480272849
 31
0.0
  0
LINE
  5
8C
  8
0
 10
349.91512539672112
 20
202.50522480272849
 30
0.0
 11
353.91512539672112
 21
202.50522480272849
 31
0.0
  0
LINE
  5
8D
  8
0
 10
353.91512539672112
 20
202.50522480272849
 30
0.0
 11
353.91512539672112
 21
224.50522480272849
 31
0.0
  0
LINE
  5
8E
  8
0
 10
353.91512539672112
 20
224.50522480272849
 30
0.0
 11
349.91512539672112
 21
224.50522480272849
 31
0.0
  0
LINE
  5
8F
  8
0
 10
373.91512539672112
 20
228.85522480272849
 30
0.0
 11
373.91512539672112
 21
201.10522480272849
 31
0.0
  0
ARC
  5
90
  8
3
 10
383.91512539672112
 20
221.50522480272849
 30
0.0
 40
4.0
 50
22.024312837036881
 51
157.97568716295791
  0
ARC
  5
91
  8
3
 10
383.91512539672112
 20
221.50522480272849
 30
0.0
 40
4.0
 50
202.02431283703689
 51
337.97568716296831
  0
LINE
  5
92
  8
1
 10
408.91512539672112
 20
213.50522480272849
 30
0.0
 11
340.91512539672112
 21
213.50522480272849
 31
0.0
  0
ARC
  5
93
  8
0
 10
388.60091183434668
 20
192.75522480272849
 30
0.0
 40
1.0
 50
45.0
 51
90.0
  0
ARC
  5
94
  8
0
 10
382.91512539672112
 20
192.75522480272849
 30
0.0
 40
1.0
 50
90.0
 51
179.99999999999989
  0
ARC
  5
95
  8
0
 10
382.91512539672112
 20
188.50522480272849
 30
0.0
 40
1.0
 50
180.0
 51
269.99999999999989
  0
ARC
  5
96
  8
0
 10
392.85091183434679
 20
188.50522480272849
 30
0.0
 40
1.0
 50
270.0
 51
45.000000000000149
  0
LINE
  5
97
  8
0
 10
393.55801861553317
 20
189.21233158391499
 30
0.0
 11
389.30801861553317
 21
193.46233158391499
 31
0.0
  0
LINE
  5
98
  8
0
 10
382.91512539672112
 20
187.50522480272849
 30
0.0
 11
392.85091183434679
 21
187.50522480272849
 31
0.0
  0
LINE
  5
99
  8
0
 10
381.91512539672112
 20
192.75522480272849
 30
0.0
 11
381.91512539672112
 21
188.50522480272849
 31
0.0
  0
LINE
  5
9A
  8
0
 10
382.91512539672112
 20
193.75522480272849
 30
0.0
 11
388.60091183434668
 21
193.75522480272849
 31
0.0
  0
ARC
  5
9B
  8
0
 10
398.41512539672101
 20
221.00522480272849
 30
0.0
 40
1.0
 50
270.0
 51
0.0000000000004198
  0
ARC
  5
9C
  8
0
 10
398.41512539672078
 20
231.94101124035541
 30
0.0
 40
1.0
 50
0.0000000000002163
 51
134.9999999999998
  0
ARC
  5
9D
  8
0
 10
383.91512539672112
 20
221.50522480272849
 30
0.0
 40
3.399999999999999
 50
26.17896870400676
 51
153.82103129599321
  0
LINE
  5
9E
  8
0
 10
386.96635465719908
 20
223.00522480272849
 30
0.0
 11
388.06512539672087
 21
223.00522480272849
 31
0.0
  0
LINE
  5
9F
  8
0
 10
388.06512539672087
 20
223.00522480272849
 30
0.0
 11
397.7080186155344
 21
232.64811802154199
 31
0.0
  0
LINE
  5
A0
  8
0
 10
399.41512539672078
 20
231.94101124035541
 30
0.0
 11
399.41512539672112
 21
221.00522480272849
 31
0.0
  0
LINE
  5
A1
  8
0
 10
386.96635465720141
 20
220.00522480272849
 30
0.0
 11
398.41512539672101
 21
220.00522480272849
 31
0.0
  0
ARC
  5
A2
  8
0
 10
383.91512539672112
 20
221.50522480272849
 30
0.0
 40
3.399999999999999
 50
206.178968703989
 51
333.82103129601097
  0
LINE
  5
A3
  8
0
 10
379.01512539672109
 20
220.00522480272849
 30
0.0
 11
379.01512539672109
 21
223.00522480272849
 31
0.0
  0
LINE
  5
A4
  8
0
 10
380.863896136243
 20
220.00522480272849
 30
0.0
 11
379.01512539672098
 21
220.00522480272849
 31
0.0
  0
LINE
  5
A5
  8
0
 10
380.863896136243
 20
223.00522480272849
 30
0.0
 11
379.01512539672098
 21
223.00522480272849
 31
0.0
  0
ARC
  5
A6
  8
0
 10
377.8151253967211
 20
187.50522480272849
 30
0.0
 40
1.55
 50
154.68592198899529
 51
268.92704902792752
  0
ARC
  5
A7
  8
0
 10
375.16512539671919
 20
187.65522480272841
 30
0.0
 40
1.3500000000000001
 50
22.32216577877503
 51
180.00016190078031
  0
ARC
  5
A8
  8
0
 10
375.31512539672121
 20
185.00522480272849
 30
0.0
 40
1.5
 50
180.0
 51
269.99999999999989
  0
LINE
  5
A9
  8
0
 10
379.17174162211791
 20
186.7554965739684
 30
0.0
 11
379.5079473715607
 21
186.1731711341364
 31
0.0
  0
LINE
  5
AA
  8
0
 10
377.78610097605917
 20
185.95549657397581
 30
0.0
 11
378.12230390568612
 21
185.3731760182084
 31
0.0
  0
LINE
  5
AB
  8
0
 10
378.12230390568612
 20
185.3731760182084
 30
0.0
 11
379.50794369669973
 21
186.1731774991826
 31
0.0
  0
ARC
  5
AC
  8
0
 10
377.8151253967211
 20
187.50522480272849
 30
0.0
 40
1.55
 50
331.07295097222948
 51
82.586326198460185
  0
ARC
  5
AD
  8
0
 10
349.91512539672112
 20
187.50522480272849
 30
0.0
 40
1.55
 50
90.0
 51
208.92704902777049
  0
ARC
  5
AE
  8
0
 10
352.46512539672102
 20
187.75522480272849
 30
0.0
 40
1.25
 50
0.0
 51
158.9482013643034
  0
ARC
  5
AF
  8
0
 10
352.21512539672102
 20
185.00522480272849
 30
0.0
 40
1.5
 50
270.0
 51
0.0
  0
ARC
  5
B0
  8
0
 10
349.91512539672112
 20
187.50522480272849
 30
0.0
 40
1.55
 50
271.07295097207248
 51
26.806401771963682
  0
LINE
  5
B1
  8
0
 10
349.60794688775599
 20
185.3731760182084
 30
0.0
 11
348.2223070967425
 21
186.1731774991826
 31
0.0
  0
LINE
  5
B2
  8
0
 10
349.94414981738299
 20
185.95549657397581
 30
0.0
 11
349.60794688775599
 21
185.3731760182084
 31
0.0
  0
LINE
  5
B3
  8
0
 10
348.55850917132437
 20
186.7554965739684
 30
0.0
 11
348.22230342188129
 21
186.1731711341364
 31
0.0
  0
LINE
  5
B4
  8
0
 10
375.31512539672121
 20
183.50522480272849
 30
0.0
 11
399.91512539672112
 21
183.50522480272849
 31
0.0
  0
LINE
  5
B5
  8
0
 10
373.8151253967211
 20
185.00522480272849
 30
0.0
 11
373.8151253967211
 21
187.65523019752499
 31
0.0
  0
LINE
  5
B6
  8
0
 10
353.71512539672102
 20
187.75522480272849
 30
0.0
 11
353.71512539672102
 21
185.00522480272849
 31
0.0
  0
LINE
  5
B7
  8
0
 10
378.0151253967212
 20
197.00522480272849
 30
0.0
 11
373.91512539672112
 21
201.10522480272849
 31
0.0
  0
LINE
  5
B8
  8
0
 10
378.0151253967212
 20
197.00522480272849
 30
0.0
 11
378.0151253967212
 21
189.0422674176198
 31
0.0
  0
ARC
  5
B9
  8
0
 10
365.60827114722872
 20
231.50522480272841
 30
0.0
 40
4.0
 50
45.0
 51
90.0
  0
ARC
  5
BA
  8
0
 10
353.91512539672112
 20
231.50522480272849
 30
0.0
 40
4.0
 50
90.0
 51
179.99999999999989
  0
LINE
  5
BB
  8
0
 10
353.91512539672112
 20
235.50522480272849
 30
0.0
 11
365.60827114722872
 21
235.50522480272841
 31
0.0
  0
LINE
  5
BC
  8
0
 10
349.91512539672112
 20
231.50522480272849
 30
0.0
 11
349.91512539672112
 21
189.0552248027285
 31
0.0
  0
ARC
  5
BD
  8
0
 10
349.91512539672112
 20
187.50522480272849
 30
0.0
 40
4.0
 50
180.0
 51
269.99999999999989
  0
ARC
  5
BE
  8
0
 10
349.91512539672112
 20
237.50522480272849
 30
0.0
 40
4.0
 50
90.0
 51
179.99999999999989
  0
LINE
  5
BF
  8
0
 10
345.91512539672112
 20
237.50522480272849
 30
0.0
 11
345.91512539672112
 21
187.50522480272849
 31
0.0
  0
ARC
  5
C0
  8
0
 10
399.91512539672112
 20
187.50522480272849
 30
0.0
 40
4.0
 50
270.0
 51
0.0
  0
LINE
  5
C1
  8
0
 10
403.91512539672101
 20
196.00522480272849
 30
0.0
 11
403.91512539672101
 21
187.50522480272849
 31
0.0
  0
LINE
  5
C2
  8
0
 10
349.91512539672112
 20
183.50522480272849
 30
0.0
 11
352.21512539672102
 21
183.50522480272849
 31
0.0
  0
CIRCLE
  5
C3
  8
0
 10
383.91512539672112
 20
201.50522480272849
 30
0.0
 40
3.399999999999999
  0
ARC
  5
C4
  8
0
 10
399.91512539672112
 20
237.50522480272849
 30
0.0
 40
4.0
 50
360.0
 51
89.999999999999915
  0
LINE
  5
C5
  8
0
 10
403.91512539672101
 20
237.50522480272849
 30
0.0
 11
403.91512539672101
 21
207.00522480272849
 31
0.0
  0
LINE
  5
C6
  8
0
 10
389.41512539672112
 20
241.50522480272849
 30
0.0
 11
399.91512539672112
 21
241.50522480272849
 31
0.0
  0
LINE
  5
C7
  8
0
 10
349.91512539672112
 20
241.50522480272849
 30
0.0
 11
378.41512539672112
 21
241.50522480272849
 31
0.0
  0
ARC
  5
C8
  8
0
 10
402.41512539672101
 20
196.00522480272849
 30
0.0
 40
1.5
 50
0.000000000000014
 51
90.000000000000014
  0
ARC
  5
C9
  8
0
 10
402.41512539672101
 20
207.00522480272849
 30
0.0
 40
1.5
 50
270.0
 51
360.0
  0
ARC
  5
CA
  8
0
 10
389.41512539672112
 20
240.00522480272849
 30
0.0
 40
1.5
 50
90.000000000000014
 51
180.0
  0
LINE
  5
CB
  8
0
 10
387.91512539672112
 20
240.00522480272849
 30
0.0
 11
387.91512539672112
 21
238.25522480272849
 31
0.0
  0
LINE
  5
CC
  8
0
 10
379.91512539672101
 20
240.00522480272849
 30
0.0
 11
379.91512539672101
 21
238.25522480272849
 31
0.0
  0
ARC
  5
CD
  8
0
 10
378.41512539672112
 20
240.00522480272849
 30
0.0
 40
1.5
 50
360.0
 51
89.999999999999986
  0
LINE
  5
CE
  8
0
 10
123.12927582015431
 20
183.50522480272849
 30
0.0
 11
263.12927582015431
 21
183.50522480272849
 31
0.0
  0
LINE
  5
CF
  8
0
 10
123.12927582015431
 20
241.50522480272849
 30
0.0
 11
263.12927582015431
 21
241.50522480272849
 31
0.0
  0
LINE
  5
D0
  8
0
 10
263.12927582015431
 20
183.50522480272849
 30
0.0
 11
263.12927582015431
 21
241.50522480272849
 31
0.0
  0
LINE
  5
D1
  8
0
 10
123.12927582015431
 20
183.50522480272849
 30
0.0
 11
123.12927582015431
 21
241.50522480272849
 31
0.0
  0
CIRCLE
  5
D2
  8
0
 10
153.12927582015431
 20
213.25522480272849
 30
0.0
 40
2.8867513459478138
  0
LINE
  5
D3
  8
0
 10
150.62927582015459
 20
211.81184912975471
 30
0.0
 11
153.1292758201545
 21
210.36847345678049
 31
0.0
  0
LINE
  5
D4
  8
0
 10
153.1292758201545
 20
210.36847345678049
 30
0.0
 11
155.62927582015431
 21
211.81184912975471
 31
0.0
  0
LINE
  5
D5
  8
0
 10
155.62927582015431
 20
211.81184912975471
 30
0.0
 11
155.62927582015431
 21
214.69860047570319
 31
0.0
  0
LINE
  5
D6
  8
0
 10
155.62927582015431
 20
214.69860047570319
 30
0.0
 11
153.12927582015431
 21
216.1419761486768
 31
0.0
  0
LINE
  5
D7
  8
0
 10
153.12927582015431
 20
216.1419761486768
 30
0.0
 11
150.62927582015411
 21
214.69860047570239
 31
0.0
  0
LINE
  5
D8
  8
0
 10
150.62927582015411
 20
214.69860047570239
 30
0.0
 11
150.62927582015459
 21
211.81184912975471
 31
0.0
  0
CIRCLE
  5
D9
  8
0
 10
153.12927582015431
 20
213.25522480272849
 30
0.0
 40
11.0
  0
CIRCLE
  5
DA
  8
0
 10
233.12927582015431
 20
213.25522480272849
 30
0.0
 40
11.0
  0
LINE
  5
DB
  8
0
 10
235.62927582015459
 20
214.69860047570239
 30
0.0
 11
235.62927582015411
 21
211.81184912975471
 31
0.0
  0
LINE
  5
DC
  8
0
 10
233.12927582015431
 20
216.1419761486768
 30
0.0
 11
235.62927582015459
 21
214.69860047570239
 31
0.0
  0
LINE
  5
DD
  8
0
 10
230.62927582015431
 20
214.69860047570319
 30
0.0
 11
233.12927582015431
 21
216.1419761486768
 31
0.0
  0
LINE
  5
DE
  8
0
 10
230.62927582015431
 20
211.81184912975471
 30
0.0
 11
230.62927582015431
 21
214.69860047570319
 31
0.0
  0
LINE
  5
DF
  8
0
 10
233.12927582015411
 20
210.36847345678049
 30
0.0
 11
230.62927582015431
 21
211.81184912975471
 31
0.0
  0
LINE
  5
E0
  8
0
 10
235.62927582015411
 20
211.81184912975471
 30
0.0
 11
233.12927582015411
 21
210.36847345678049
 31
0.0
  0
CIRCLE
  5
E1
  8
0
 10
233.12927582015431
 20
213.25522480272849
 30
0.0
 40
2.8867513459478138
  0
LINE
  5
E2
  8
1
 10
180.12927582015431
 20
213.25522480272849
 30
0.0
 11
126.12927582015431
 21
213.25522480272849
 31
0.0
  0
LINE
  5
E3
  8
1
 10
153.12927582015431
 20
240.25522480272849
 30
0.0
 11
153.12927582015431
 21
186.25522480272849
 31
0.0
  0
LINE
  5
E4
  8
1
 10
260.12927582015442
 20
213.25522480272849
 30
0.0
 11
206.12927582015431
 21
213.25522480272849
 31
0.0
  0
LINE
  5
E5
  8
1
 10
233.12927582015431
 20
240.25522480272849
 30
0.0
 11
233.12927582015431
 21
186.25522480272849
 31
0.0
  0
LINE
  5
E6
  8
1
 10
134.12927582015431
 20
214.4052248027285
 30
0.0
 11
122.12927582015431
 21
214.4052248027285
 31
0.0
  0
LINE
  5
E7
  8
1
 10
128.12927582015431
 20
220.4052248027285
 30
0.0
 11
128.12927582015431
 21
208.4052248027285
 31
0.0
  0
CIRCLE
  5
E8
  8
0
 10
128.12927582015431
 20
214.4052248027285
 30
0.0
 40
3.5
  0
CIRCLE
  5
E9
  8
0
 10
133.12927582015431
 20
201.50522480272861
 30
0.0
 40
3.5
  0
LINE
  5
EA
  8
1
 10
133.12927582015431
 20
207.9052248027285
 30
0.0
 11
133.12927582015431
 21
195.1052248027286
 31
0.0
  0
LINE
  5
EB
  8
1
 10
126.7292758201546
 20
201.50522480272861
 30
0.0
 11
139.52927582015471
 21
201.50522480272861
 31
0.0
  0
CIRCLE
  5
EC
  8
0
 10
253.12927582015431
 20
201.50522480272849
 30
0.0
 40
3.5
  0
LINE
  5
ED
  8
1
 10
253.12927582015431
 20
207.50522480272849
 30
0.0
 11
253.12927582015431
 21
195.50522480272849
 31
0.0
  0
LINE
  5
EE
  8
1
 10
259.12927582015431
 20
201.50522480272849
 30
0.0
 11
247.12927582015431
 21
201.50522480272849
 31
0.0
  0
CIRCLE
  5
EF
  8
0
 10
258.12927582015442
 20
214.40522480272861
 30
0.0
 40
3.5
  0
LINE
  5
F0
  8
1
 10
258.12927582015442
 20
220.40522480272861
 30
0.0
 11
258.12927582015442
 21
208.40522480272861
 31
0.0
  0
LINE
  5
F1
  8
1
 10
264.12927582015442
 20
214.40522480272861
 30
0.0
 11
252.12927582015431
 21
214.40522480272861
 31
0.0
  0
LINE
  5
F2
  8
0
 10
501.90417859223322
 20
183.50522480272849
 30
0.0
 11
501.904178592233
 21
241.50522480272849
 31
0.0
  0
LINE
  5
F3
  8
0
 10
641.90417859223305
 20
183.50522480272849
 30
0.0
 11
641.90417859223305
 21
241.50522480272861
 31
0.0
  0
LINE
  5
F4
  8
0
 10
501.904178592233
 20
241.50522480272849
 30
0.0
 11
641.90417859223305
 21
241.50522480272861
 31
0.0
  0
LINE
  5
F5
  8
0
 10
501.90417859223322
 20
183.50522480272849
 30
0.0
 11
641.90417859223305
 21
183.50522480272849
 31
0.0
  0
LINE
  5
F6
  8
0
 10
501.90417859223322
 20
197.50522480272849
 30
0.0
 11
641.90417859223305
 21
197.50522480272849
 31
0.0
  0
LINE
  5
F7
  8
0
 10
501.90417859223322
 20
205.50522480272861
 30
0.0
 11
641.90417859223305
 21
205.50522480272861
 31
0.0
  0
CIRCLE
  5
F8
  8
0
 10
506.90417859223322
 20
214.4052248027285
 30
0.0
 40
2.8500000000000001
  0
CIRCLE
  5
F9
  8
0
 10
636.90417859223305
 20
214.40522480272861
 30
0.0
 40
2.8500000000000001
  0
LINE
  5
FA
  8
1
 10
642.25417859223319
 20
214.40522480272861
 30
0.0
 11
631.55417859223314
 21
214.40522480272861
 31
0.0
  0
LINE
  5
FB
  8
1
 10
636.90417859223305
 20
219.75522480272861
 30
0.0
 11
636.90417859223305
 21
209.05522480272859
 31
0.0
  0
LINE
  5
FC
  8
1
 10
512.25417859223307
 20
214.4052248027285
 30
0.0
 11
501.55417859223309
 21
214.4052248027285
 31
0.0
  0
LINE
  5
FD
  8
1
 10
506.90417859223322
 20
219.75522480272849
 30
0.0
 11
506.90417859223322
 21
209.05522480272859
 31
0.0
  0
LINE
  5
FE
  8
1
 10
621.90417859223305
 20
201.50522480272861
 30
0.0
 11
641.90417859223305
 21
201.50522480272861
 31
0.0
  0
ARC
  5
FF
  8
0
 10
631.90417859223305
 20
201.50522480272861
 30
0.0
 40
7.4999999999999849
 50
327.76904736449802
 51
32.230952635502327
  0
CIRCLE
  5
100
  8
3
 10
631.90417859223305
 20
201.50522480272861
 30
0.0
 40
3.3235000000000001
  0
CIRCLE
  5
101
  8
0
 10
631.90417859223305
 20
201.50522480272861
 30
0.0
 40
4.0
  0
ARC
  5
102
  8
0
 10
631.90417859223305
 20
201.50522480272861
 30
0.0
 40
7.4999999999999849
 50
147.7690473644976
 51
212.23095263550209
  0
LINE
  5
103
  8
1
 10
521.90417859223328
 20
201.50522480272861
 30
0.0
 11
501.90417859223328
 21
201.50522480272861
 31
0.0
  0
ARC
  5
104
  8
0
 10
511.90417859223322
 20
201.50522480272861
 30
0.0
 40
7.4999999999999849
 50
327.76904736449802
 51
32.230952635502327
  0
CIRCLE
  5
105
  8
0
 10
511.90417859223322
 20
201.50522480272861
 30
0.0
 40
4.0
  0
CIRCLE
  5
106
  8
3
 10
511.90417859223322
 20
201.50522480272861
 30
0.0
 40
3.3235000000000001
  0
ARC
  5
107
  8
0
 10
511.90417859223322
 20
201.50522480272861
 30
0.0
 40
7.4999999999999849
 50
147.7690473644976
 51
212.23095263550209
  0
LINE
  5
108
  8
1
 10
631.90417859223305
 20
211.50522480272849
 30
0.0
 11
631.90417859223305
 21
191.50522480272849
 31
0.0
  0
LINE
  5
109
  8
1
 10
511.90417859223322
 20
211.50522480272849
 30
0.0
 11
511.90417859223322
 21
191.50522480272849
 31
0.0
  0
LINE
  5
10A
  8
1
 10
363.91512539672112
 20
192.38636471843381
 30
0.0
 11
363.91512539672112
 21
234.62408488702309
 31
0.0
  0
LINE
  5
10B
  8
1
 10
374.91512539672112
 20
474.0737410071942
 30
0.0
 11
374.91512539672112
 21
324.07374100719431
 31
0.0
  0
TEXT
  5
1FF
  8
0
 62
     3
 10
0.0
 20
0.0
 30
0.0
 40
10.0
  1
DE-DB14-C
  7
STANDARD1
  0
ENDSEC
  0
EOF
