  0
SECTION
  2
HEADER
  9
$ACADVER
  1
AC1009
  9
$INSBASE
 10
0.0
 20
0.0
 30
0.0
  9
$EXTMIN
 10
0.0
 20
-2.960436562073669
 30
0.0
  9
$EXTMAX
 10
268.90960122555327
 20
193.8825358014987
 30
0.0
  9
$LIMMIN
 10
0.0
 20
0.0
  9
$LIMMAX
 10
270.0
 20
175.0
  9
$ORTHOMODE
 70
     0
  9
$REGENMODE
 70
     1
  9
$FILLMODE
 70
     1
  9
$QTEXTMODE
 70
     0
  9
$MIRRTEXT
 70
     0
  9
$DRAGMODE
 70
     2
  9
$LTSCALE
 40
10.0
  9
$OSMODE
 70
  3071
  9
$ATTMODE
 70
     1
  9
$TEXTSIZE
 40
0.2
  9
$TRACEWID
 40
0.05
  9
$TEXTSTYLE
  7
STANDARD
  9
$CLAYER
  8
4
  9
$CELTYPE
  6
BYLAYER
  9
$CECOLOR
 62
   256
  9
$DIMSCALE
 40
1.0
  9
$DIMASZ
 40
3.0
  9
$DIMEXO
 40
2.0
  9
$DIMDLI
 40
0.3799999999999999
  9
$DIMRND
 40
0.0
  9
$DIMDLE
 40
0.0
  9
$DIMEXE
 40
2.0
  9
$DIMTP
 40
0.0
  9
$DIMTM
 40
0.0
  9
$DIMTXT
 40
3.2000000000000002
  9
$DIMCEN
 40
0.09
  9
$DIMTSZ
 40
0.0
  9
$DIMTOL
 70
     0
  9
$DIMLIM
 70
     0
  9
$DIMTIH
 70
     0
  9
$DIMTOH
 70
     0
  9
$DIMSE1
 70
     0
  9
$DIMSE2
 70
     0
  9
$DIMTAD
 70
     1
  9
$DIMZIN
 70
     0
  9
$DIMBLK
  1

  9
$DIMASO
 70
     0
  9
$DIMSHO
 70
     0
  9
$DIMPOST
  1

  9
$DIMAPOST
  1

  9
$DIMALT
 70
     0
  9
$DIMALTD
 70
     2
  9
$DIMALTF
 40
25.399999999999999
  9
$DIMLFAC
 40
1.0
  9
$DIMTOFL
 70
     0
  9
$DIMTVP
 40
1.6000000000000001
  9
$DIMTIX
 70
     1
  9
$DIMSOXD
 70
     0
  9
$DIMSAH
 70
     0
  9
$DIMBLK1
  1

  9
$DIMBLK2
  1

  9
$DIMSTYLE
  2
STANDARD
  9
$DIMCLRD
 70
     0
  9
$DIMCLRE
 70
     0
  9
$DIMCLRT
 70
     0
  9
$DIMTFAC
 40
1.0
  9
$DIMGAP
 40
0.09
  9
$LUNITS
 70
     2
  9
$LUPREC
 70
     4
  9
$SKETCHINC
 40
0.1
  9
$FILLETRAD
 40
2.0
  9
$AUNITS
 70
     0
  9
$AUPREC
 70
     0
  9
$MENU
  1
ACAD
  9
$ELEVATION
 40
0.0
  9
$PELEVATION
 40
0.0
  9
$THICKNESS
 40
0.0
  9
$LIMCHECK
 70
     0
  9
$BLIPMODE
 70
     0
  9
$CHAMFERA
 40
0.0
  9
$CHAMFERB
 40
0.0
  9
$SKPOLY
 70
     0
  9
$TDCREATE
 40
2448280.4738524309
  9
$TDUPDATE
 40
2456598.6014391552
  9
$TDINDWG
 40
0.0025196875
  9
$TDUSRTIMER
 40
0.0025196875
  9
$USRTIMER
 70
     1
  9
$ANGBASE
 50
0.0
  9
$ANGDIR
 70
     0
  9
$PDMODE
 70
     0
  9
$PDSIZE
 40
0.0
  9
$PLINEWID
 40
0.0
  9
$COORDS
 70
     1
  9
$SPLFRAME
 70
     0
  9
$SPLINETYPE
 70
     6
  9
$SPLINESEGS
 70
     8
  9
$ATTDIA
 70
     0
  9
$ATTREQ
 70
     1
  9
$HANDLING
 70
     1
  9
$HANDSEED
  5
340
  9
$SURFTAB1
 70
     6
  9
$SURFTAB2
 70
     6
  9
$SURFTYPE
 70
     6
  9
$SURFU
 70
     6
  9
$SURFV
 70
     6
  9
$UCSNAME
  2

  9
$UCSORG
 10
0.0
 20
0.0
 30
0.0
  9
$UCSXDIR
 10
1.0
 20
0.0
 30
0.0
  9
$UCSYDIR
 10
0.0
 20
1.0
 30
0.0
  9
$PUCSNAME
  2

  9
$PUCSORG
 10
0.0
 20
0.0
 30
0.0
  9
$PUCSXDIR
 10
1.0
 20
0.0
 30
0.0
  9
$PUCSYDIR
 10
0.0
 20
1.0
 30
0.0
  9
$USERI1
 70
     0
  9
$USERI2
 70
     1
  9
$USERI3
 70
     0
  9
$USERI4
 70
     0
  9
$USERI5
 70
     0
  9
$USERR1
 40
0.0
  9
$USERR2
 40
0.0
  9
$USERR3
 40
0.0
  9
$USERR4
 40
0.0
  9
$USERR5
 40
0.0
  9
$WORLDVIEW
 70
     1
  9
$SHADEDGE
 70
     3
  9
$SHADEDIF
 70
    70
  9
$TILEMODE
 70
     1
  9
$MAXACTVP
 70
    16
  9
$PLIMCHECK
 70
     0
  9
$PEXTMIN
 10
1.0000000000000000E+020
 20
1.0000000000000000E+020
 30
1.0000000000000000E+020
  9
$PEXTMAX
 10
-1.0000000000000000E+020
 20
-1.0000000000000000E+020
 30
-1.0000000000000000E+020
  9
$PLIMMIN
 10
0.0
 20
0.0
  9
$PLIMMAX
 10
12.0
 20
9.0
  9
$UNITMODE
 70
     0
  9
$VISRETAIN
 70
     0
  9
$PLINEGEN
 70
     1
  9
$PSLTSCALE
 70
     0
  0
ENDSEC
  0
SECTION
  2
TABLES
  0
TABLE
  2
VPORT
 70
     1
  0
VPORT
  2
*ACTIVE
 70
     0
 10
0.0
 20
0.0
 11
1.0
 21
1.0
 12
140.4504584607842
 22
95.462061992096466
 13
0.0
 23
0.0
 14
10.0
 24
10.0
 15
10.0
 25
10.0
 16
0.0
 26
0.0
 36
1.0
 17
0.0
 27
0.0
 37
0.0
 40
198.6182779767588
 41
1.831871345029239
 42
50.0
 43
0.0
 44
0.0
 50
0.0
 51
0.0
 71
     0
 72
   500
 73
     1
 74
     0
 75
     0
 76
     0
 77
     0
 78
     1
  0
ENDTAB
  0
TABLE
  2
LTYPE
 70
     4
  0
LTYPE
  2
CONTINUOUS
 70
     0
  3
Solid Line
 72
    65
 73
     0
 40
0.0
  0
LTYPE
  2
CENTER
 70
     0
  3
____ _ ____ _ ____ _ ____ _ ____ _ ____ _ ____
 72
    65
 73
     4
 40
2.0
 49
1.25
 49
-0.25
 49
0.25
 49
-0.25
  0
LTYPE
  2
HIDDEN
 70
     0
  3
_ _ _ _ _ _ _ _ _ _ _ _ _ _ _ _ _ _ _ _ _ _ _
 72
    65
 73
     2
 40
0.375
 49
0.25
 49
-0.125
  0
LTYPE
  2
PHANTOM2
 70
     0
  3
___ _ _ ___ _ _ ___ _ _ ___ _ _
 72
    65
 73
     6
 40
1.25
 49
0.625
 49
-0.125
 49
0.125
 49
-0.125
 49
0.125
 49
-0.125
  0
ENDTAB
  0
TABLE
  2
LAYER
 70
     4
  0
LAYER
  2
0
 70
     0
 62
     7
  6
CONTINUOUS
  0
LAYER
  2
1
 70
     0
 62
     1
  6
CENTER
  0
LAYER
  2
4
 70
     0
 62
     4
  6
CONTINUOUS
  0
LAYER
  2
2
 70
     0
 62
     2
  6
HIDDEN
  0
ENDTAB
  0
TABLE
  2
STYLE
 70
     2
  0
STYLE
  2
STANDARD
 70
     0
 40
0.0
 41
1.0
 50
0.0
 71
     0
 42
0.2
  3
TXT
  4
BIGFONT
  0
STYLE
  2
STANDARD1
 70
     0
 40
0.0
 41
1.0
 50
0.0
 71
     0
 42
3.0
  3
txt
  4

  0
ENDTAB
  0
TABLE
  2
VIEW
 70
     1
  0
VIEW
  2
ALL
 70
     0
 40
179.5384664489153
 10
135.0
 20
89.769233224457665
 41
0.0
 11
0.0
 21
0.0
 31
1.0
 12
0.0
 22
0.0
 32
0.0
 42
0.0
 43
0.0
 44
0.0
 50
0.0
 71
     0
  0
ENDTAB
  0
TABLE
  2
UCS
 70
     0
  0
ENDTAB
  0
TABLE
  2
APPID
 70
     3
  0
APPID
  2
ACAD
 70
     0
  0
APPID
  2
ACAD_MLEADERVER
 70
     0
  0
APPID
  2
ACAD_NAV_VCDISPLAY
 70
     0
  0
ENDTAB
  0
TABLE
  2
DIMSTYLE
 70
     1
  0
DIMSTYLE
  2
STANDARD
 70
     0
  3

  4

  5

  6

  7

 40
1.0
 41
0.18
 42
0.0625
 43
0.38
 44
0.18
 45
0.0
 46
0.0
 47
0.0
 48
0.0
140
0.18
141
0.09
142
0.0
143
25.399999999999999
144
1.0
145
0.0
146
1.0
147
0.09
 71
     0
 72
     0
 73
     1
 74
     1
 75
     0
 76
     0
 77
     0
 78
     0
170
     0
171
     2
172
     0
173
     0
174
     0
175
     0
176
     0
177
     0
178
     0
  0
ENDTAB
  0
ENDSEC
  0
SECTION
  2
BLOCKS
  0
BLOCK
  8
0
  2
$MODEL_SPACE
 70
     0
 10
0.0
 20
0.0
 30
0.0
  3
$MODEL_SPACE
  1

  0
ENDBLK
  5
1ED
  8
0
  0
BLOCK
 67
     1
  8
0
  2
$PAPER_SPACE
 70
     0
 10
0.0
 20
0.0
 30
0.0
  3
$PAPER_SPACE
  1

  0
ENDBLK
  5
1EB
 67
     1
  8
0
  0
ENDSEC
  0
SECTION
  2
ENTITIES
  0
CIRCLE
  5
BD
  8
0
 10
107.49985464975801
 20
149.8825358014987
 30
0.0
 40
34.899999999999999
  0
LINE
  5
BE
  8
2
 10
240.4096012255537
 20
114.9825358014987
 30
0.0
 11
243.4096012255537
 21
114.9825358014987
 31
0.0
  0
LINE
  5
BF
  8
0
 10
240.4096012255537
 20
185.8825358014987
 30
0.0
 11
240.4096012255537
 21
113.882532497874
 31
0.0
  0
LINE
  5
C0
  8
0
 10
243.4096012255537
 20
188.8825358014987
 30
0.0
 11
243.4096012255537
 21
110.8825358014988
 31
0.0
  0
LINE
  5
C1
  8
0
 10
263.90960122555367
 20
187.68253580149869
 30
0.0
 11
263.90960122555367
 21
112.08253580149881
 31
0.0
  0
LINE
  5
C2
  8
2
 10
245.9096012255537
 20
183.1825358014986
 30
0.0
 11
245.9096012255537
 21
116.58253580149881
 31
0.0
  0
LINE
  5
C3
  8
0
 10
263.90960122555367
 20
112.08253580149881
 30
0.0
 11
243.4096012255537
 21
112.08253580149881
 31
0.0
  0
LINE
  5
C4
  8
2
 10
263.90960122555367
 20
114.58253580149881
 30
0.0
 11
247.9096012255537
 21
114.58253580149881
 31
0.0
  0
LINE
  5
C5
  8
0
 10
243.4096012255537
 20
187.48253580149861
 30
0.0
 11
243.4096012255537
 21
188.8825358014987
 31
0.0
  0
LINE
  5
C6
  8
2
 10
263.90960122555367
 20
185.18253580149869
 30
0.0
 11
247.9096012255537
 21
185.1825358014986
 31
0.0
  0
LINE
  5
C7
  8
0
 10
263.90960122555367
 20
187.68253580149869
 30
0.0
 11
243.4096012255537
 21
187.68253580149869
 31
0.0
  0
LINE
  5
C8
  8
2
 10
240.4096012255537
 20
184.7825358014988
 30
0.0
 11
243.4096012255537
 21
184.7825358014988
 31
0.0
  0
LINE
  5
CA
  8
1
 10
235.4096012255537
 20
149.8825358014987
 30
0.0
 11
268.90960122555327
 21
149.8825358014987
 31
0.0
  0
ARC
  5
F3
  8
2
 10
247.9096012255537
 20
116.58253580149881
 30
0.0
 40
2.0
 50
180.0
 51
269.99999999999989
  0
ARC
  5
F4
  8
2
 10
247.9096012255537
 20
183.1825358014986
 30
0.0
 40
2.0
 50
90.0
 51
179.99999999999989
  0
CIRCLE
  5
F5
  8
0
 10
107.49985464975801
 20
149.8825358014987
 30
0.0
 40
39.0
  0
LINE
  5
F6
  8
1
 10
151.49985464975799
 20
149.8825358014987
 30
0.0
 11
63.499854649757992
 21
149.8825358014987
 31
0.0
  0
LINE
  5
F7
  8
1
 10
107.49985464975801
 20
193.8825358014987
 30
0.0
 11
107.49985464975801
 21
105.8825358014988
 31
0.0
  0
LINE
  5
F8
  8
0
 10
243.4096012255537
 20
188.8825358014987
 30
0.0
 11
243.4096012255537
 21
188.8825358014987
 31
0.0
  0
ARC
  5
F9
  8
0
 10
243.4096012255537
 20
185.8825358014987
 30
0.0
 40
3.0
 50
90.0
 51
179.99999999999989
  0
ARC
  5
FA
  8
0
 10
243.4096012255537
 20
113.8825358014988
 30
0.0
 40
3.0
 50
180.0
 51
270.0
  0
LINE
  5
FB
  8
0
 10
243.4096012255537
 20
112.08253580149881
 30
0.0
 11
243.4096012255537
 21
110.8825358014988
 31
0.0
  0
LINE
  5
11D
  8
2
 10
243.20960122555371
 20
184.3825358014987
 30
0.0
 11
243.4096012255537
 21
184.3825358014987
 31
0.0
  0
LINE
  5
11E
  8
2
 10
243.2096012255536
 20
115.3825358014987
 30
0.0
 11
243.20960122555371
 21
184.3825358014987
 31
0.0
  0
LINE
  5
120
  8
2
 10
243.20960122555371
 20
115.3825358014987
 30
0.0
 11
243.4096012255537
 21
115.3825358014987
 31
0.0
  0
CIRCLE
  5
122
  8
0
 10
107.49985464975791
 20
149.8825358014987
 30
0.0
 40
34.5
  0
TEXT
  5
2AF
  8
0
 62
     3
 10
0.0
 20
0.0
 30
0.0
 40
10.0
  1
D75C
  7
STANDARD1
  0
ENDSEC
  0
EOF
