  0
SECTION
  2
HEADER
  9
$ACADVER
  1
AC1009
  9
$INSBASE
 10
0.0
 20
0.0
 30
0.0
  9
$EXTMIN
 10
0.0
 20
-2.960436562073669
 30
0.0
  9
$EXTMAX
 10
157.51592815167291
 20
104.67073195551509
 30
0.0
  9
$LIMMIN
 10
0.0
 20
0.0
  9
$LIMMAX
 10
187.5
 20
135.0
  9
$ORTHOMODE
 70
     1
  9
$REGENMODE
 70
     1
  9
$FILLMODE
 70
     1
  9
$QTEXTMODE
 70
     0
  9
$MIRRTEXT
 70
     0
  9
$DRAGMODE
 70
     2
  9
$LTSCALE
 40
5.0
  9
$OSMODE
 70
  3071
  9
$ATTMODE
 70
     1
  9
$TEXTSIZE
 40
5.0
  9
$TRACEWID
 40
0.05
  9
$TEXTSTYLE
  7
STANDARD
  9
$CLAYER
  8
0
  9
$CELTYPE
  6
BYLAYER
  9
$CECOLOR
 62
   256
  9
$DIMSCALE
 40
0.5
  9
$DIMASZ
 40
3.0
  9
$DIMEXO
 40
2.0
  9
$DIMDLI
 40
0.3799999999999999
  9
$DIMRND
 40
0.0
  9
$DIMDLE
 40
0.0
  9
$DIMEXE
 40
2.0
  9
$DIMTP
 40
0.0
  9
$DIMTM
 40
0.0
  9
$DIMTXT
 40
3.2000000000000002
  9
$DIMCEN
 40
0.09
  9
$DIMTSZ
 40
0.0
  9
$DIMTOL
 70
     0
  9
$DIMLIM
 70
     0
  9
$DIMTIH
 70
     0
  9
$DIMTOH
 70
     0
  9
$DIMSE1
 70
     0
  9
$DIMSE2
 70
     0
  9
$DIMTAD
 70
     1
  9
$DIMZIN
 70
     0
  9
$DIMBLK
  1

  9
$DIMASO
 70
     0
  9
$DIMSHO
 70
     0
  9
$DIMPOST
  1

  9
$DIMAPOST
  1

  9
$DIMALT
 70
     0
  9
$DIMALTD
 70
     2
  9
$DIMALTF
 40
25.399999999999999
  9
$DIMLFAC
 40
1.0
  9
$DIMTOFL
 70
     1
  9
$DIMTVP
 40
1.6000000000000001
  9
$DIMTIX
 70
     1
  9
$DIMSOXD
 70
     0
  9
$DIMSAH
 70
     0
  9
$DIMBLK1
  1

  9
$DIMBLK2
  1

  9
$DIMSTYLE
  2
STANDARD
  9
$DIMCLRD
 70
     0
  9
$DIMCLRE
 70
     0
  9
$DIMCLRT
 70
     0
  9
$DIMTFAC
 40
1.0
  9
$DIMGAP
 40
0.09
  9
$LUNITS
 70
     2
  9
$LUPREC
 70
     4
  9
$SKETCHINC
 40
0.1
  9
$FILLETRAD
 40
0.0
  9
$AUNITS
 70
     0
  9
$AUPREC
 70
     0
  9
$MENU
  1
E:\r13\win\SUPPORT\ACAD
  9
$ELEVATION
 40
0.0
  9
$PELEVATION
 40
0.0
  9
$THICKNESS
 40
0.0
  9
$LIMCHECK
 70
     0
  9
$BLIPMODE
 70
     0
  9
$CHAMFERA
 40
0.0
  9
$CHAMFERB
 40
0.0
  9
$SKPOLY
 70
     0
  9
$TDCREATE
 40
2449839.7772106482
  9
$TDUPDATE
 40
2456598.5038935421
  9
$TDINDWG
 40
0.0365965741
  9
$TDUSRTIMER
 40
0.0365965741
  9
$USRTIMER
 70
     1
  9
$ANGBASE
 50
0.0
  9
$ANGDIR
 70
     0
  9
$PDMODE
 70
     0
  9
$PDSIZE
 40
0.0
  9
$PLINEWID
 40
0.0
  9
$COORDS
 70
     1
  9
$SPLFRAME
 70
     0
  9
$SPLINETYPE
 70
     6
  9
$SPLINESEGS
 70
     8
  9
$ATTDIA
 70
     0
  9
$ATTREQ
 70
     1
  9
$HANDLING
 70
     1
  9
$HANDSEED
  5
12FE
  9
$SURFTAB1
 70
     6
  9
$SURFTAB2
 70
     6
  9
$SURFTYPE
 70
     6
  9
$SURFU
 70
     6
  9
$SURFV
 70
     6
  9
$UCSNAME
  2

  9
$UCSORG
 10
0.0
 20
0.0
 30
0.0
  9
$UCSXDIR
 10
1.0
 20
0.0
 30
0.0
  9
$UCSYDIR
 10
0.0
 20
1.0
 30
0.0
  9
$PUCSNAME
  2

  9
$PUCSORG
 10
0.0
 20
0.0
 30
0.0
  9
$PUCSXDIR
 10
1.0
 20
0.0
 30
0.0
  9
$PUCSYDIR
 10
0.0
 20
1.0
 30
0.0
  9
$USERI1
 70
     0
  9
$USERI2
 70
     1
  9
$USERI3
 70
     0
  9
$USERI4
 70
     0
  9
$USERI5
 70
     0
  9
$USERR1
 40
0.0
  9
$USERR2
 40
0.0
  9
$USERR3
 40
0.0
  9
$USERR4
 40
0.0
  9
$USERR5
 40
0.0
  9
$WORLDVIEW
 70
     1
  9
$SHADEDGE
 70
     3
  9
$SHADEDIF
 70
    70
  9
$TILEMODE
 70
     1
  9
$MAXACTVP
 70
    16
  9
$PLIMCHECK
 70
     0
  9
$PEXTMIN
 10
1.0000000000000000E+020
 20
1.0000000000000000E+020
 30
1.0000000000000000E+020
  9
$PEXTMAX
 10
-1.0000000000000000E+020
 20
-1.0000000000000000E+020
 30
-1.0000000000000000E+020
  9
$PLIMMIN
 10
0.0
 20
0.0
  9
$PLIMMAX
 10
12.0
 20
9.0
  9
$UNITMODE
 70
     0
  9
$VISRETAIN
 70
     0
  9
$PLINEGEN
 70
     0
  9
$PSLTSCALE
 70
     0
  0
ENDSEC
  0
SECTION
  2
TABLES
  0
TABLE
  2
VPORT
 70
     1
  0
VPORT
  2
*ACTIVE
 70
     0
 10
0.0
 20
0.0
 11
1.0
 21
1.0
 12
97.570150770051072
 22
66.014785922033241
 13
0.0
 23
0.0
 14
5.0
 24
5.0
 15
5.0
 25
5.0
 16
0.0
 26
0.0
 36
1.0
 17
0.0
 27
0.0
 37
0.0
 40
139.20783109903601
 41
1.831871345029239
 42
50.0
 43
0.0
 44
0.0
 50
0.0
 51
0.0
 71
     0
 72
   500
 73
     1
 74
     0
 75
     0
 76
     0
 77
     0
 78
     2
  0
ENDTAB
  0
TABLE
  2
LTYPE
 70
     4
  0
LTYPE
  2
CONTINUOUS
 70
     0
  3
Solid Line
 72
    65
 73
     0
 40
0.0
  0
LTYPE
  2
CENTER
 70
     0
  3
____ _ ____ _ ____ _ ____ _ ____ _ ____ _ ____
 72
    65
 73
     4
 40
2.0
 49
1.25
 49
-0.25
 49
0.25
 49
-0.25
  0
LTYPE
  2
HIDDEN
 70
     0
  3
_ _ _ _ _ _ _ _ _ _ _ _ _ _ _ _ _ _ _ _ _ _ _
 72
    65
 73
     2
 40
0.375
 49
0.25
 49
-0.125
  0
LTYPE
  2
PHANTOM2
 70
     0
  3
___ _ _ ___ _ _ ___ _ _ ___ _ _
 72
    65
 73
     6
 40
1.25
 49
0.625
 49
-0.125
 49
0.125
 49
-0.125
 49
0.125
 49
-0.125
  0
ENDTAB
  0
TABLE
  2
LAYER
 70
     6
  0
LAYER
  2
0
 70
     0
 62
     7
  6
CONTINUOUS
  0
LAYER
  2
1
 70
     0
 62
     1
  6
CENTER
  0
LAYER
  2
2
 70
     0
 62
     2
  6
HIDDEN
  0
LAYER
  2
11
 70
     0
 62
     3
  6
CONTINUOUS
  0
LAYER
  2
4
 70
     0
 62
     4
  6
CONTINUOUS
  0
LAYER
  2
ASM-FROZEN
 70
     5
 62
     2
  6
CONTINUOUS
  0
ENDTAB
  0
TABLE
  2
STYLE
 70
     2
  0
STYLE
  2
STANDARD
 70
     0
 40
0.0
 41
1.0
 50
0.0
 71
     0
 42
5.0
  3
TXT
  4
BIGFONT
  0
STYLE
  2
STANDARD1
 70
     0
 40
0.0
 41
1.0
 50
0.0
 71
     0
 42
3.0
  3
txt
  4

  0
ENDTAB
  0
TABLE
  2
VIEW
 70
     1
  0
VIEW
  2
ALL
 70
     0
 40
135.0
 10
110.4957983193277
 20
67.5
 41
0.0
 11
0.0
 21
0.0
 31
1.0
 12
0.0
 22
0.0
 32
0.0
 42
0.0
 43
0.0
 44
0.0
 50
0.0
 71
     0
  0
ENDTAB
  0
TABLE
  2
UCS
 70
     0
  0
ENDTAB
  0
TABLE
  2
APPID
 70
    15
  0
APPID
  2
ACAD
 70
     0
  0
APPID
  2
GENIUS_GENODEF_13
 70
     0
  0
APPID
  2
GENIUS_GENOBJ-N-FIL_13
 70
     0
  0
APPID
  2
ASM_BASE
 70
     0
  0
APPID
  2
ASM_EXPLO_VER_2_00
 70
     0
  0
APPID
  2
ASM_CADM_VER_12_00
 70
     0
  0
APPID
  2
ASM_BASEFORO
 70
     0
  0
APPID
  2
ASM_BASETRAVI
 70
     0
  0
APPID
  2
ASM_BASETRAVI1
 70
     0
  0
APPID
  2
ASM_GRUPPI
 70
     0
  0
APPID
  2
ASM_CADM_ALBERO
 70
     0
  0
APPID
  2
ASM_GOLE
 70
     0
  0
APPID
  2
_CALL_MAC$
 70
     0
  0
APPID
  2
ACAD_MLEADERVER
 70
     0
  0
APPID
  2
ACAD_NAV_VCDISPLAY
 70
     0
  0
ENDTAB
  0
TABLE
  2
DIMSTYLE
 70
     1
  0
DIMSTYLE
  2
STANDARD
 70
     0
  3

  4

  5

  6

  7

 40
1.0
 41
0.18
 42
0.0625
 43
0.38
 44
0.18
 45
0.0
 46
0.0
 47
0.0
 48
0.0
140
0.18
141
0.09
142
0.0
143
25.399999999999999
144
1.0
145
0.0
146
1.0
147
0.09
 71
     0
 72
     0
 73
     1
 74
     1
 75
     0
 76
     0
 77
     0
 78
     0
170
     0
171
     2
172
     0
173
     0
174
     0
175
     0
176
     0
177
     0
178
     0
  0
ENDTAB
  0
ENDSEC
  0
SECTION
  2
BLOCKS
  0
BLOCK
  8
0
  2
$MODEL_SPACE
 70
     0
 10
0.0
 20
0.0
 30
0.0
  3
$MODEL_SPACE
  1

  0
ENDBLK
  5
11AE
  8
0
  0
BLOCK
 67
     1
  8
0
  2
$PAPER_SPACE
 70
     0
 10
0.0
 20
0.0
 30
0.0
  3
$PAPER_SPACE
  1

  0
ENDBLK
  5
11AC
 67
     1
  8
0
  0
BLOCK
  8
0
  2
STDGX5
 70
     0
 10
0.0
 20
0.0
 30
0.0
  3
STDGX5
  1

  0
ENDBLK
  5
E7
  8
0
  0
BLOCK
  8
0
  2
ASM_CONF
 70
     2
 10
0.0
 20
0.0
 30
0.0
  3
ASM_CONF
  1

  0
TEXT
  5
E9
  8
ASM-FROZEN
 62
     2
 10
0.2691493051770522
 20
3.823340699625839
 30
0.0
 40
0.9599999999999999
  1
Configurazione
 41
0.8
  0
TEXT
  5
EA
  8
ASM-FROZEN
 62
     2
 10
3.1079403731114592
 20
0.9470077007992722
 30
0.0
 40
1.1999999999999991
  1
CadMEC 
 41
0.8
  0
LINE
  5
EB
  8
ASM-FROZEN
 62
     2
 10
0.0
 20
0.0
 30
0.0
 11
10.0
 21
0.0
 31
0.0
  0
LINE
  5
EC
  8
ASM-FROZEN
 62
     2
 10
0.0
 20
5.0
 30
0.0
 11
10.0
 21
5.0
 31
0.0
  0
LINE
  5
ED
  8
ASM-FROZEN
 62
     2
 10
2.0
 20
7.0
 30
0.0
 11
12.0
 21
7.0
 31
0.0
  0
LINE
  5
EE
  8
ASM-FROZEN
 62
     2
 10
1.0
 20
6.0
 30
0.0
 11
11.0
 21
6.0
 31
0.0
  0
LINE
  5
EF
  8
ASM-FROZEN
 62
     2
 10
0.0
 20
0.0
 30
0.0
 11
0.0
 21
5.0
 31
0.0
  0
LINE
  5
F0
  8
ASM-FROZEN
 62
     2
 10
0.9999999999999996
 20
5.0
 30
0.0
 11
1.0
 21
6.0
 31
0.0
  0
LINE
  5
F1
  8
ASM-FROZEN
 62
     2
 10
2.0
 20
6.0
 30
0.0
 11
2.0
 21
7.0
 31
0.0
  0
LINE
  5
F2
  8
ASM-FROZEN
 62
     2
 10
10.0
 20
0.0
 30
0.0
 11
10.0
 21
5.0
 31
0.0
  0
LINE
  5
F3
  8
ASM-FROZEN
 62
     2
 10
11.0
 20
1.0
 30
0.0
 11
11.0
 21
6.0
 31
0.0
  0
LINE
  5
F4
  8
ASM-FROZEN
 62
     2
 10
10.0
 20
1.0
 30
0.0
 11
11.0
 21
1.0
 31
0.0
  0
LINE
  5
F5
  8
ASM-FROZEN
 62
     2
 10
11.0
 20
2.0
 30
0.0
 11
12.0
 21
2.0
 31
0.0
  0
LINE
  5
F6
  8
ASM-FROZEN
 62
     2
 10
12.0
 20
2.0
 30
0.0
 11
12.0
 21
7.0
 31
0.0
  0
ATTDEF
  5
F7
  8
ASM-FROZEN
 62
     2
 10
12.0
 20
7.0
 30
0.0
 40
0.2
  1
ASSE1|1|ASSI1
  3

  2
ASSE1
 70
     1
  0
ATTDEF
  5
F8
  8
ASM-FROZEN
 62
     2
 10
12.0
 20
6.6666666666666661
 30
0.0
 40
0.2
  1
ASSE2|1|ASSI2
  3

  2
ASSE2
 70
     1
  0
ATTDEF
  5
F9
  8
ASM-FROZEN
 62
     2
 10
12.0
 20
6.3333333333333321
 30
0.0
 40
0.2
  1
ASSE3|1|ASSI3
  3

  2
ASSE3
 70
     1
  0
ATTDEF
  5
FA
  8
ASM-FROZEN
 62
     2
 10
12.0
 20
6.0
 30
0.0
 40
0.2
  1
CONFINE|5|CONFINE
  3

  2
CONFINE
 70
     1
  0
ATTDEF
  5
FB
  8
ASM-FROZEN
 62
     2
 10
12.0
 20
5.6666666666666661
 30
0.0
 40
0.2
  1
CONTORNO|7|CONTINUOUS
  3

  2
CONTORNO
 70
     1
  0
ATTDEF
  5
FC
  8
ASM-FROZEN
 62
     2
 10
12.0
 20
5.333333333333333
 30
0.0
 40
0.2
  1
DISTINTA|6|CONTINUOUS
  3

  2
DISTINTA
 70
     1
  0
ATTDEF
  5
FD
  8
ASM-FROZEN
 62
     2
 10
12.0
 20
5.0
 30
0.0
 40
0.2
  1
GRUPPO1|7|CONTINUOUS
  3

  2
GRUPPO1
 70
     1
  0
ATTDEF
  5
FE
  8
ASM-FROZEN
 62
     2
 10
12.0
 20
4.6666666666666661
 30
0.0
 40
0.2
  1
GRUPPO2|7|CONTINUOUS
  3

  2
GRUPPO2
 70
     1
  0
ATTDEF
  5
FF
  8
ASM-FROZEN
 62
     2
 10
12.0
 20
4.333333333333333
 30
0.0
 40
0.2
  1
GRUPPO3|7|CONTINUOUS
  3

  2
GRUPPO3
 70
     1
  0
ATTDEF
  5
100
  8
ASM-FROZEN
 62
     2
 10
12.0
 20
3.9999999999999978
 30
0.0
 40
0.2
  1
GRUPPO4|7|CONTINUOUS
  3

  2
GRUPPO4
 70
     1
  0
ATTDEF
  5
101
  8
ASM-FROZEN
 62
     2
 10
12.0
 20
3.6666666666666661
 30
0.0
 40
0.2
  1
IMPOST|7|CONTINUOUS
  3

  2
IMPOST
 70
     1
  0
ATTDEF
  5
102
  8
ASM-FROZEN
 62
     2
 10
12.0
 20
3.333333333333333
 30
0.0
 40
0.2
  1
LINEAFIN|4|CONTINUOUS
  3

  2
LINEAFINE
 70
     1
  0
ATTDEF
  5
103
  8
ASM-FROZEN
 62
     2
 10
12.0
 20
3.0
 30
0.0
 40
0.2
  1
QUOTA|3|CONTINUOUS
  3

  2
QUOTA
 70
     1
  0
ATTDEF
  5
104
  8
ASM-FROZEN
 62
     2
 10
12.0
 20
2.666666666666667
 30
0.0
 40
0.2
  1
SALDATUR|3|CONTINUOUS
  3

  2
SALDATURA
 70
     1
  0
ATTDEF
  5
105
  8
ASM-FROZEN
  6
BYBLOCK
 62
     2
 10
12.0
 20
2.333333333333333
 30
0.0
 40
0.2
  1
SIMBPNEU|7|CONTINUOUS
  3

  2
SIMBPNEU
 70
     1
  0
ATTDEF
  5
106
  8
ASM-FROZEN
 62
     2
 10
12.0
 20
2.0
 30
0.0
 40
0.2
  1
TABELLA|4|CONTINUOUS
  3

  2
TABELLA
 70
     1
  0
ATTDEF
  5
107
  8
ASM-FROZEN
 62
     2
 10
12.0
 20
1.6666666666666681
 30
0.0
 40
0.2
  1
TESTO|7|CONTINUOUS
  3

  2
TESTO
 70
     1
  0
ATTDEF
  5
108
  8
ASM-FROZEN
 62
     2
 10
12.0
 20
1.3333333333333339
 30
0.0
 40
0.2
  1
TRATTI1|2|TRATTI1
  3

  2
TRATTI1
 70
     1
  0
ATTDEF
  5
109
  8
ASM-FROZEN
 62
     2
 10
12.0
 20
1.0
 30
0.0
 40
0.2
  1
TRATTI2|2|TRATTI2
  3

  2
TRATTI2
 70
     1
  0
ATTDEF
  5
10A
  8
ASM-FROZEN
 62
     2
 10
12.0
 20
0.6666666666666679
 30
0.0
 40
0.2
  1
TRATTI3|2|TRATTI3
  3

  2
TRATTI3
 70
     1
  0
ATTDEF
  5
10B
  8
ASM-FROZEN
 62
     2
 10
12.0
 20
0.3333333333333357
 30
0.0
 40
0.2
  1
TRATTI1F|4|TRATTI1
  3

  2
TRATTI1F
 70
     1
  0
ATTDEF
  5
10C
  8
ASM-FROZEN
  6
BYBLOCK
 62
     2
 10
12.0
 20
0.0000000000000027
 30
0.0
 40
0.2
  1
TRATTI2F|4|TRATTI2
  3

  2
TRATTI2F
 70
     1
  0
ATTDEF
  5
10D
  8
ASM-FROZEN
 62
     2
 10
12.0
 20
-0.3333333333333313
 30
0.0
 40
0.2
  1
TRATTI3F|4|TRATTI3
  3

  2
TRATTI3F
 70
     1
  0
ATTDEF
  5
10E
  8
ASM-FROZEN
  6
BYBLOCK
 62
     2
 10
12.0
 20
-0.6666666666666652
 30
0.0
 40
0.2
  1
TRATTEGG|4|CONTINUOUS
  3

  2
TRATTEGGIO
 70
     1
  0
ENDBLK
  5
110
  8
0
  0
ENDSEC
  0
SECTION
  2
ENTITIES
  0
INSERT
  5
300
  8
4
  2
STDGX5
 10
0.0
 20
0.0
 30
0.0
  0
INSERT
  5
301
  8
4
  2
STDGX5
 10
849.39938216754217
 20
673.90014405715556
 30
0.0
  0
INSERT
  5
302
  8
4
  2
STDGX5
 10
912.76488255413835
 20
710.08270440528338
 30
0.0
  0
INSERT
  5
303
  8
4
  2
STDGX5
 10
1922.391200164634
 20
834.38374615418059
 30
0.0
  0
INSERT
  5
304
  8
4
  2
STDGX5
 10
1839.108083670332
 20
483.94171570502562
 30
0.0
  0
INSERT
  5
305
  8
4
  2
STDGX5
 10
2688.507465837874
 20
1157.841859762181
 30
0.0
  0
INSERT
  5
306
  8
4
  2
STDGX5
 10
2751.8729662244709
 20
1194.0244201103089
 30
0.0
  0
INSERT
  5
307
  8
4
  2
STDGX5
 10
3761.4992838349672
 20
1318.3254618592059
 30
0.0
  0
INSERT
  5
308
  8
4
  2
STDGX5
 10
487.78533134715678
 20
1076.8092806328109
 30
0.0
  0
INSERT
  5
309
  8
4
  2
STDGX5
 10
515.97148901487344
 20
1155.4665778311251
 30
0.0
  0
INSERT
  5
30A
  8
4
  2
STDGX5
 10
503.33050603982178
 20
1149.1545470675289
 30
0.0
  0
INSERT
  5
30B
  8
4
  2
STDGX5
 10
2775.0
 20
125.000215
 30
0.0
  0
INSERT
  5
30C
  8
4
  2
STDGX5
 10
3624.3993821675422
 20
798.90035905715558
 30
0.0
  0
INSERT
  5
30D
  8
4
  2
STDGX5
 10
3687.7648825541378
 20
835.08291940528352
 30
0.0
  0
INSERT
  5
30E
  8
4
  2
STDGX5
 10
4697.3912001646331
 20
959.38396115418084
 30
0.0
  0
INSERT
  5
30F
  8
4
  2
STDGX5
 10
4614.1080836703313
 20
608.94193070502558
 30
0.0
  0
INSERT
  5
310
  8
4
  2
STDGX5
 10
5463.5074658378744
 20
1282.842074762181
 30
0.0
  0
INSERT
  5
311
  8
4
  2
STDGX5
 10
5526.8729662244696
 20
1319.024635110309
 30
0.0
  0
INSERT
  5
312
  8
4
  2
STDGX5
 10
6536.4992838349672
 20
1443.3256768592059
 30
0.0
  0
INSERT
  5
313
  8
4
  2
STDGX5
 10
3262.785331347156
 20
1201.8094956328109
 30
0.0
  0
INSERT
  5
314
  8
4
  2
STDGX5
 10
3290.971489014873
 20
1280.4667928311251
 30
0.0
  0
INSERT
  5
315
  8
4
  2
STDGX5
 10
3278.330506039822
 20
1274.154762067529
 30
0.0
  0
INSERT
  5
32C
  8
0
  2
STDGX5
 10
65.280617860159964
 20
74.80410399576067
 30
0.0
  0
INSERT
  5
32D
  8
0
  2
STDGX5
 10
65.280617860159964
 20
74.80410399576067
 30
0.0
  0
INSERT
  5
32E
  8
0
  2
STDGX5
 10
340.28061786016002
 20
74.80410399576067
 30
0.0
  0
INSERT
  5
32F
  8
0
  2
STDGX5
 10
340.28061786016002
 20
74.80410399576067
 30
0.0
  0
INSERT
  5
330
  8
ASM-FROZEN
 66
     1
  2
ASM_CONF
 10
122.7114677857934
 20
113.2363324043755
 30
0.0
1001
ASM_BASE
1002
{
1040
12.0
1070
     1
1010
0.0
1020
0.0
1030
0.0
1000
A
1000
ASM_CADM
1000
Fe37a
1000
null
1070
     0
1040
6.0
1040
6.0
1040
6.0
1070
    13
1040
1.7599999999999989
1000
0
1000
CADMEC_1-1
1002
}
1001
ASM_EXPLO_VER_2_00
1002
{
1040
2.0
1010
-0.57735026919
1020
-0.57735026919
1030
0.57735026919
1010
0.0
1020
0.0
1030
0.0
1002
}
  0
ATTRIB
  5
331
  8
ASM-FROZEN
 62
     2
 10
134.71146778579339
 20
120.2363324043755
 30
0.0
 40
0.2
  1
ASSE1|1|ASSI1
  2
ASSE1
 70
     1
  0
ATTRIB
  5
332
  8
ASM-FROZEN
 62
     2
 10
134.71146778579339
 20
119.9029990710421
 30
0.0
 40
0.2
  1
ASSE2|1|ASSI2
  2
ASSE2
 70
     1
  0
ATTRIB
  5
333
  8
ASM-FROZEN
 62
     2
 10
134.71146778579339
 20
119.5696657377088
 30
0.0
 40
0.2
  1
ASSE3|1|ASSI3
  2
ASSE3
 70
     1
  0
ATTRIB
  5
334
  8
ASM-FROZEN
 62
     2
 10
134.71146778579339
 20
119.2363324043755
 30
0.0
 40
0.2
  1
CONFINE|5|CONFINE
  2
CONFINE
 70
     1
  0
ATTRIB
  5
335
  8
ASM-FROZEN
 62
     2
 10
134.71146778579339
 20
118.9029990710421
 30
0.0
 40
0.2
  1
CONTORNO|7|CONTINUOUS
  2
CONTORNO
 70
     1
  0
ATTRIB
  5
336
  8
ASM-FROZEN
 62
     2
 10
134.71146778579339
 20
118.5696657377088
 30
0.0
 40
0.2
  1
DISTINTA|6|CONTINUOUS
  2
DISTINTA
 70
     1
  0
ATTRIB
  5
337
  8
ASM-FROZEN
 62
     2
 10
134.71146778579339
 20
118.2363324043755
 30
0.0
 40
0.2
  1
GRUPPO1|7|CONTINUOUS
  2
GRUPPO1
 70
     1
  0
ATTRIB
  5
338
  8
ASM-FROZEN
 62
     2
 10
134.71146778579339
 20
117.9029990710421
 30
0.0
 40
0.2
  1
GRUPPO2|7|CONTINUOUS
  2
GRUPPO2
 70
     1
  0
ATTRIB
  5
339
  8
ASM-FROZEN
 62
     2
 10
134.71146778579339
 20
117.5696657377088
 30
0.0
 40
0.2
  1
GRUPPO3|7|CONTINUOUS
  2
GRUPPO3
 70
     1
  0
ATTRIB
  5
33A
  8
ASM-FROZEN
 62
     2
 10
134.71146778579339
 20
117.2363324043755
 30
0.0
 40
0.2
  1
GRUPPO4|7|CONTINUOUS
  2
GRUPPO4
 70
     1
  0
ATTRIB
  5
33B
  8
ASM-FROZEN
 62
     2
 10
134.71146778579339
 20
116.9029990710421
 30
0.0
 40
0.2
  1
IMPOST|7|CONTINUOUS
  2
IMPOST
 70
     1
  0
ATTRIB
  5
33C
  8
ASM-FROZEN
 62
     2
 10
134.71146778579339
 20
116.5696657377088
 30
0.0
 40
0.2
  1
LINEAFIN|4|CONTINUOUS
  2
LINEAFINE
 70
     1
  0
ATTRIB
  5
33D
  8
ASM-FROZEN
 62
     2
 10
134.71146778579339
 20
116.2363324043755
 30
0.0
 40
0.2
  1
QUOTA|3|CONTINUOUS
  2
QUOTA
 70
     1
  0
ATTRIB
  5
33E
  8
ASM-FROZEN
 62
     2
 10
134.71146778579339
 20
115.9029990710422
 30
0.0
 40
0.2
  1
SALDATUR|3|CONTINUOUS
  2
SALDATURA
 70
     1
  0
ATTRIB
  5
33F
  8
ASM-FROZEN
  6
BYBLOCK
 62
     2
 10
134.71146778579339
 20
115.5696657377088
 30
0.0
 40
0.2
  1
SIMBPNEU|7|CONTINUOUS
  2
SIMBPNEU
 70
     1
  0
ATTRIB
  5
340
  8
ASM-FROZEN
 62
     2
 10
134.71146778579339
 20
115.2363324043755
 30
0.0
 40
0.2
  1
TABELLA|4|CONTINUOUS
  2
TABELLA
 70
     1
  0
ATTRIB
  5
341
  8
ASM-FROZEN
 62
     2
 10
134.71146778579339
 20
114.9029990710422
 30
0.0
 40
0.2
  1
TESTO|7|CONTINUOUS
  2
TESTO
 70
     1
  0
ATTRIB
  5
342
  8
ASM-FROZEN
 62
     2
 10
134.71146778579339
 20
114.5696657377088
 30
0.0
 40
0.2
  1
TRATTI1|2|TRATTI1
  2
TRATTI1
 70
     1
  0
ATTRIB
  5
343
  8
ASM-FROZEN
 62
     2
 10
134.71146778579339
 20
114.2363324043755
 30
0.0
 40
0.2
  1
TRATTI2|2|TRATTI2
  2
TRATTI2
 70
     1
  0
ATTRIB
  5
344
  8
ASM-FROZEN
 62
     2
 10
134.71146778579339
 20
113.9029990710421
 30
0.0
 40
0.2
  1
TRATTI3|2|TRATTI3
  2
TRATTI3
 70
     1
  0
ATTRIB
  5
345
  8
ASM-FROZEN
 62
     2
 10
134.71146778579339
 20
113.5696657377088
 30
0.0
 40
0.2
  1
TRATTI1F|4|TRATTI1
  2
TRATTI1F
 70
     1
  0
ATTRIB
  5
346
  8
ASM-FROZEN
  6
BYBLOCK
 62
     2
 10
134.71146778579339
 20
113.2363324043755
 30
0.0
 40
0.2
  1
TRATTI2F|4|TRATTI2
  2
TRATTI2F
 70
     1
  0
ATTRIB
  5
347
  8
ASM-FROZEN
 62
     2
 10
134.71146778579339
 20
112.9029990710421
 30
0.0
 40
0.2
  1
TRATTI3F|4|TRATTI3
  2
TRATTI3F
 70
     1
  0
ATTRIB
  5
348
  8
ASM-FROZEN
  6
BYBLOCK
 62
     2
 10
134.71146778579339
 20
112.5696657377088
 30
0.0
 40
0.2
  1
TRATTEGG|4|CONTINUOUS
  2
TRATTEGGIO
 70
     1
  0
SEQEND
  5
349
  8
ASM-FROZEN
  0
INSERT
  5
34A
  8
ASM-FROZEN
 66
     1
  2
ASM_CONF
 10
127.2995882839825
 20
121.4112469763037
 30
0.0
1001
ASM_BASE
1002
{
1040
12.0
1070
     1
1010
0.0
1020
0.0
1030
0.0
1000
A
1000
ASM_CADM
1000
Fe37a
1000
null
1070
     0
1040
6.0
1040
6.0
1040
6.0
1070
    13
1040
1.7599999999999989
1000
0
1000
CADMEC_1-1
1002
}
1001
ASM_EXPLO_VER_2_00
1002
{
1040
2.0
1010
-0.57735026919
1020
-0.57735026919
1030
0.57735026919
1010
0.0
1020
0.0
1030
0.0
1002
}
  0
ATTRIB
  5
34B
  8
ASM-FROZEN
 62
     2
 10
139.2995882839825
 20
128.41124697630369
 30
0.0
 40
0.2
  1
ASSE1|1|ASSI1
  2
ASSE1
 70
     1
  0
ATTRIB
  5
34C
  8
ASM-FROZEN
 62
     2
 10
139.2995882839825
 20
128.07791364297029
 30
0.0
 40
0.2
  1
ASSE2|1|ASSI2
  2
ASSE2
 70
     1
  0
ATTRIB
  5
34D
  8
ASM-FROZEN
 62
     2
 10
139.2995882839825
 20
127.744580309637
 30
0.0
 40
0.2
  1
ASSE3|1|ASSI3
  2
ASSE3
 70
     1
  0
ATTRIB
  5
34E
  8
ASM-FROZEN
 62
     2
 10
139.2995882839825
 20
127.4112469763037
 30
0.0
 40
0.2
  1
CONFINE|5|CONFINE
  2
CONFINE
 70
     1
  0
ATTRIB
  5
34F
  8
ASM-FROZEN
 62
     2
 10
139.2995882839825
 20
127.0779136429703
 30
0.0
 40
0.2
  1
CONTORNO|7|CONTINUOUS
  2
CONTORNO
 70
     1
  0
ATTRIB
  5
350
  8
ASM-FROZEN
 62
     2
 10
139.2995882839825
 20
126.744580309637
 30
0.0
 40
0.2
  1
DISTINTA|6|CONTINUOUS
  2
DISTINTA
 70
     1
  0
ATTRIB
  5
351
  8
ASM-FROZEN
 62
     2
 10
139.2995882839825
 20
126.4112469763037
 30
0.0
 40
0.2
  1
GRUPPO1|7|CONTINUOUS
  2
GRUPPO1
 70
     1
  0
ATTRIB
  5
352
  8
ASM-FROZEN
 62
     2
 10
139.2995882839825
 20
126.0779136429703
 30
0.0
 40
0.2
  1
GRUPPO2|7|CONTINUOUS
  2
GRUPPO2
 70
     1
  0
ATTRIB
  5
353
  8
ASM-FROZEN
 62
     2
 10
139.2995882839825
 20
125.744580309637
 30
0.0
 40
0.2
  1
GRUPPO3|7|CONTINUOUS
  2
GRUPPO3
 70
     1
  0
ATTRIB
  5
354
  8
ASM-FROZEN
 62
     2
 10
139.2995882839825
 20
125.4112469763037
 30
0.0
 40
0.2
  1
GRUPPO4|7|CONTINUOUS
  2
GRUPPO4
 70
     1
  0
ATTRIB
  5
355
  8
ASM-FROZEN
 62
     2
 10
139.2995882839825
 20
125.0779136429703
 30
0.0
 40
0.2
  1
IMPOST|7|CONTINUOUS
  2
IMPOST
 70
     1
  0
ATTRIB
  5
356
  8
ASM-FROZEN
 62
     2
 10
139.2995882839825
 20
124.744580309637
 30
0.0
 40
0.2
  1
LINEAFIN|4|CONTINUOUS
  2
LINEAFINE
 70
     1
  0
ATTRIB
  5
357
  8
ASM-FROZEN
 62
     2
 10
139.2995882839825
 20
124.4112469763037
 30
0.0
 40
0.2
  1
QUOTA|3|CONTINUOUS
  2
QUOTA
 70
     1
  0
ATTRIB
  5
358
  8
ASM-FROZEN
 62
     2
 10
139.2995882839825
 20
124.0779136429703
 30
0.0
 40
0.2
  1
SALDATUR|3|CONTINUOUS
  2
SALDATURA
 70
     1
  0
ATTRIB
  5
359
  8
ASM-FROZEN
  6
BYBLOCK
 62
     2
 10
139.2995882839825
 20
123.744580309637
 30
0.0
 40
0.2
  1
SIMBPNEU|7|CONTINUOUS
  2
SIMBPNEU
 70
     1
  0
ATTRIB
  5
35A
  8
ASM-FROZEN
 62
     2
 10
139.2995882839825
 20
123.4112469763037
 30
0.0
 40
0.2
  1
TABELLA|4|CONTINUOUS
  2
TABELLA
 70
     1
  0
ATTRIB
  5
35B
  8
ASM-FROZEN
 62
     2
 10
139.2995882839825
 20
123.0779136429703
 30
0.0
 40
0.2
  1
TESTO|7|CONTINUOUS
  2
TESTO
 70
     1
  0
ATTRIB
  5
35C
  8
ASM-FROZEN
 62
     2
 10
139.2995882839825
 20
122.744580309637
 30
0.0
 40
0.2
  1
TRATTI1|2|TRATTI1
  2
TRATTI1
 70
     1
  0
ATTRIB
  5
35D
  8
ASM-FROZEN
 62
     2
 10
139.2995882839825
 20
122.4112469763037
 30
0.0
 40
0.2
  1
TRATTI2|2|TRATTI2
  2
TRATTI2
 70
     1
  0
ATTRIB
  5
35E
  8
ASM-FROZEN
 62
     2
 10
139.2995882839825
 20
122.0779136429703
 30
0.0
 40
0.2
  1
TRATTI3|2|TRATTI3
  2
TRATTI3
 70
     1
  0
ATTRIB
  5
35F
  8
ASM-FROZEN
 62
     2
 10
139.2995882839825
 20
121.744580309637
 30
0.0
 40
0.2
  1
TRATTI1F|4|TRATTI1
  2
TRATTI1F
 70
     1
  0
ATTRIB
  5
360
  8
ASM-FROZEN
  6
BYBLOCK
 62
     2
 10
139.2995882839825
 20
121.4112469763037
 30
0.0
 40
0.2
  1
TRATTI2F|4|TRATTI2
  2
TRATTI2F
 70
     1
  0
ATTRIB
  5
361
  8
ASM-FROZEN
 62
     2
 10
139.2995882839825
 20
121.0779136429703
 30
0.0
 40
0.2
  1
TRATTI3F|4|TRATTI3
  2
TRATTI3F
 70
     1
  0
ATTRIB
  5
362
  8
ASM-FROZEN
  6
BYBLOCK
 62
     2
 10
139.2995882839825
 20
120.744580309637
 30
0.0
 40
0.2
  1
TRATTEGG|4|CONTINUOUS
  2
TRATTEGGIO
 70
     1
  0
SEQEND
  5
363
  8
ASM-FROZEN
  0
INSERT
  5
364
  8
ASM-FROZEN
 66
     1
  2
ASM_CONF
 10
115.5034729517635
 20
111.0541037838846
 30
0.0
1001
ASM_BASE
1002
{
1040
12.0
1070
     1
1010
0.0
1020
0.0
1030
0.0
1000
A
1000
ASM_CADM
1000
Fe37a
1000
null
1070
     0
1040
6.0
1040
6.0
1040
6.0
1070
    13
1040
1.7599999999999989
1000
0
1000
CADMEC_1-1
1002
}
1001
ASM_EXPLO_VER_2_00
1002
{
1040
2.0
1010
-0.57735026919
1020
-0.57735026919
1030
0.57735026919
1010
0.0
1020
0.0
1030
0.0
1002
}
  0
ATTRIB
  5
365
  8
ASM-FROZEN
 62
     2
 10
127.5034729517635
 20
118.0541037838847
 30
0.0
 40
0.2
  1
ASSE1|1|ASSI1
  2
ASSE1
 70
     1
  0
ATTRIB
  5
366
  8
ASM-FROZEN
 62
     2
 10
127.5034729517635
 20
117.7207704505513
 30
0.0
 40
0.2
  1
ASSE2|1|ASSI2
  2
ASSE2
 70
     1
  0
ATTRIB
  5
367
  8
ASM-FROZEN
 62
     2
 10
127.5034729517635
 20
117.387437117218
 30
0.0
 40
0.2
  1
ASSE3|1|ASSI3
  2
ASSE3
 70
     1
  0
ATTRIB
  5
368
  8
ASM-FROZEN
 62
     2
 10
127.5034729517635
 20
117.0541037838846
 30
0.0
 40
0.2
  1
CONFINE|5|CONFINE
  2
CONFINE
 70
     1
  0
ATTRIB
  5
369
  8
ASM-FROZEN
 62
     2
 10
127.5034729517635
 20
116.7207704505513
 30
0.0
 40
0.2
  1
CONTORNO|7|CONTINUOUS
  2
CONTORNO
 70
     1
  0
ATTRIB
  5
36A
  8
ASM-FROZEN
 62
     2
 10
127.5034729517635
 20
116.387437117218
 30
0.0
 40
0.2
  1
DISTINTA|6|CONTINUOUS
  2
DISTINTA
 70
     1
  0
ATTRIB
  5
36B
  8
ASM-FROZEN
 62
     2
 10
127.5034729517635
 20
116.0541037838846
 30
0.0
 40
0.2
  1
GRUPPO1|7|CONTINUOUS
  2
GRUPPO1
 70
     1
  0
ATTRIB
  5
36C
  8
ASM-FROZEN
 62
     2
 10
127.5034729517635
 20
115.7207704505513
 30
0.0
 40
0.2
  1
GRUPPO2|7|CONTINUOUS
  2
GRUPPO2
 70
     1
  0
ATTRIB
  5
36D
  8
ASM-FROZEN
 62
     2
 10
127.5034729517635
 20
115.387437117218
 30
0.0
 40
0.2
  1
GRUPPO3|7|CONTINUOUS
  2
GRUPPO3
 70
     1
  0
ATTRIB
  5
36E
  8
ASM-FROZEN
 62
     2
 10
127.5034729517635
 20
115.0541037838846
 30
0.0
 40
0.2
  1
GRUPPO4|7|CONTINUOUS
  2
GRUPPO4
 70
     1
  0
ATTRIB
  5
36F
  8
ASM-FROZEN
 62
     2
 10
127.5034729517635
 20
114.7207704505513
 30
0.0
 40
0.2
  1
IMPOST|7|CONTINUOUS
  2
IMPOST
 70
     1
  0
ATTRIB
  5
370
  8
ASM-FROZEN
 62
     2
 10
127.5034729517635
 20
114.387437117218
 30
0.0
 40
0.2
  1
LINEAFIN|4|CONTINUOUS
  2
LINEAFINE
 70
     1
  0
ATTRIB
  5
371
  8
ASM-FROZEN
 62
     2
 10
127.5034729517635
 20
114.0541037838846
 30
0.0
 40
0.2
  1
QUOTA|3|CONTINUOUS
  2
QUOTA
 70
     1
  0
ATTRIB
  5
372
  8
ASM-FROZEN
 62
     2
 10
127.5034729517635
 20
113.7207704505513
 30
0.0
 40
0.2
  1
SALDATUR|3|CONTINUOUS
  2
SALDATURA
 70
     1
  0
ATTRIB
  5
373
  8
ASM-FROZEN
  6
BYBLOCK
 62
     2
 10
127.5034729517635
 20
113.387437117218
 30
0.0
 40
0.2
  1
SIMBPNEU|7|CONTINUOUS
  2
SIMBPNEU
 70
     1
  0
ATTRIB
  5
374
  8
ASM-FROZEN
 62
     2
 10
127.5034729517635
 20
113.0541037838846
 30
0.0
 40
0.2
  1
TABELLA|4|CONTINUOUS
  2
TABELLA
 70
     1
  0
ATTRIB
  5
375
  8
ASM-FROZEN
 62
     2
 10
127.5034729517635
 20
112.7207704505513
 30
0.0
 40
0.2
  1
TESTO|7|CONTINUOUS
  2
TESTO
 70
     1
  0
ATTRIB
  5
376
  8
ASM-FROZEN
 62
     2
 10
127.5034729517635
 20
112.387437117218
 30
0.0
 40
0.2
  1
TRATTI1|2|TRATTI1
  2
TRATTI1
 70
     1
  0
ATTRIB
  5
377
  8
ASM-FROZEN
 62
     2
 10
127.5034729517635
 20
112.0541037838846
 30
0.0
 40
0.2
  1
TRATTI2|2|TRATTI2
  2
TRATTI2
 70
     1
  0
ATTRIB
  5
378
  8
ASM-FROZEN
 62
     2
 10
127.5034729517635
 20
111.7207704505513
 30
0.0
 40
0.2
  1
TRATTI3|2|TRATTI3
  2
TRATTI3
 70
     1
  0
ATTRIB
  5
379
  8
ASM-FROZEN
 62
     2
 10
127.5034729517635
 20
111.387437117218
 30
0.0
 40
0.2
  1
TRATTI1F|4|TRATTI1
  2
TRATTI1F
 70
     1
  0
ATTRIB
  5
37A
  8
ASM-FROZEN
  6
BYBLOCK
 62
     2
 10
127.5034729517635
 20
111.0541037838846
 30
0.0
 40
0.2
  1
TRATTI2F|4|TRATTI2
  2
TRATTI2F
 70
     1
  0
ATTRIB
  5
37B
  8
ASM-FROZEN
 62
     2
 10
127.5034729517635
 20
110.7207704505513
 30
0.0
 40
0.2
  1
TRATTI3F|4|TRATTI3
  2
TRATTI3F
 70
     1
  0
ATTRIB
  5
37C
  8
ASM-FROZEN
  6
BYBLOCK
 62
     2
 10
127.5034729517635
 20
110.387437117218
 30
0.0
 40
0.2
  1
TRATTEGG|4|CONTINUOUS
  2
TRATTEGGIO
 70
     1
  0
SEQEND
  5
37D
  8
ASM-FROZEN
  0
INSERT
  5
37E
  8
ASM-FROZEN
 66
     1
  2
ASM_CONF
 10
154.8238576316329
 20
127.8398180509725
 30
0.0
1001
ASM_BASE
1002
{
1040
12.0
1070
     1
1010
0.0
1020
0.0
1030
0.0
1000
A
1000
ASM_CADM
1000
Fe37a
1000
null
1070
     0
1040
6.0
1040
6.0
1040
6.0
1070
    13
1040
1.7599999999999989
1000
0
1000
CADMEC_1-1
1002
}
1001
ASM_EXPLO_VER_2_00
1002
{
1040
2.0
1010
-0.57735026919
1020
-0.57735026919
1030
0.57735026919
1010
0.0
1020
0.0
1030
0.0
1002
}
  0
ATTRIB
  5
37F
  8
ASM-FROZEN
 62
     2
 10
166.8238576316329
 20
134.8398180509725
 30
0.0
 40
0.2
  1
ASSE1|1|ASSI1
  2
ASSE1
 70
     1
  0
ATTRIB
  5
380
  8
ASM-FROZEN
 62
     2
 10
166.8238576316329
 20
134.50648471763921
 30
0.0
 40
0.2
  1
ASSE2|1|ASSI2
  2
ASSE2
 70
     1
  0
ATTRIB
  5
381
  8
ASM-FROZEN
 62
     2
 10
166.8238576316329
 20
134.17315138430581
 30
0.0
 40
0.2
  1
ASSE3|1|ASSI3
  2
ASSE3
 70
     1
  0
ATTRIB
  5
382
  8
ASM-FROZEN
 62
     2
 10
166.8238576316329
 20
133.8398180509725
 30
0.0
 40
0.2
  1
CONFINE|5|CONFINE
  2
CONFINE
 70
     1
  0
ATTRIB
  5
383
  8
ASM-FROZEN
 62
     2
 10
166.8238576316329
 20
133.50648471763921
 30
0.0
 40
0.2
  1
CONTORNO|7|CONTINUOUS
  2
CONTORNO
 70
     1
  0
ATTRIB
  5
384
  8
ASM-FROZEN
 62
     2
 10
166.8238576316329
 20
133.1731513843059
 30
0.0
 40
0.2
  1
DISTINTA|6|CONTINUOUS
  2
DISTINTA
 70
     1
  0
ATTRIB
  5
385
  8
ASM-FROZEN
 62
     2
 10
166.8238576316329
 20
132.8398180509725
 30
0.0
 40
0.2
  1
GRUPPO1|7|CONTINUOUS
  2
GRUPPO1
 70
     1
  0
ATTRIB
  5
386
  8
ASM-FROZEN
 62
     2
 10
166.8238576316329
 20
132.50648471763921
 30
0.0
 40
0.2
  1
GRUPPO2|7|CONTINUOUS
  2
GRUPPO2
 70
     1
  0
ATTRIB
  5
387
  8
ASM-FROZEN
 62
     2
 10
166.8238576316329
 20
132.1731513843059
 30
0.0
 40
0.2
  1
GRUPPO3|7|CONTINUOUS
  2
GRUPPO3
 70
     1
  0
ATTRIB
  5
388
  8
ASM-FROZEN
 62
     2
 10
166.8238576316329
 20
131.8398180509725
 30
0.0
 40
0.2
  1
GRUPPO4|7|CONTINUOUS
  2
GRUPPO4
 70
     1
  0
ATTRIB
  5
389
  8
ASM-FROZEN
 62
     2
 10
166.8238576316329
 20
131.50648471763921
 30
0.0
 40
0.2
  1
IMPOST|7|CONTINUOUS
  2
IMPOST
 70
     1
  0
ATTRIB
  5
38A
  8
ASM-FROZEN
 62
     2
 10
166.8238576316329
 20
131.1731513843059
 30
0.0
 40
0.2
  1
LINEAFIN|4|CONTINUOUS
  2
LINEAFINE
 70
     1
  0
ATTRIB
  5
38B
  8
ASM-FROZEN
 62
     2
 10
166.8238576316329
 20
130.8398180509725
 30
0.0
 40
0.2
  1
QUOTA|3|CONTINUOUS
  2
QUOTA
 70
     1
  0
ATTRIB
  5
38C
  8
ASM-FROZEN
 62
     2
 10
166.8238576316329
 20
130.50648471763921
 30
0.0
 40
0.2
  1
SALDATUR|3|CONTINUOUS
  2
SALDATURA
 70
     1
  0
ATTRIB
  5
38D
  8
ASM-FROZEN
  6
BYBLOCK
 62
     2
 10
166.8238576316329
 20
130.1731513843059
 30
0.0
 40
0.2
  1
SIMBPNEU|7|CONTINUOUS
  2
SIMBPNEU
 70
     1
  0
ATTRIB
  5
38E
  8
ASM-FROZEN
 62
     2
 10
166.8238576316329
 20
129.8398180509725
 30
0.0
 40
0.2
  1
TABELLA|4|CONTINUOUS
  2
TABELLA
 70
     1
  0
ATTRIB
  5
38F
  8
ASM-FROZEN
 62
     2
 10
166.8238576316329
 20
129.50648471763921
 30
0.0
 40
0.2
  1
TESTO|7|CONTINUOUS
  2
TESTO
 70
     1
  0
ATTRIB
  5
390
  8
ASM-FROZEN
 62
     2
 10
166.8238576316329
 20
129.1731513843059
 30
0.0
 40
0.2
  1
TRATTI1|2|TRATTI1
  2
TRATTI1
 70
     1
  0
ATTRIB
  5
391
  8
ASM-FROZEN
 62
     2
 10
166.8238576316329
 20
128.8398180509725
 30
0.0
 40
0.2
  1
TRATTI2|2|TRATTI2
  2
TRATTI2
 70
     1
  0
ATTRIB
  5
392
  8
ASM-FROZEN
 62
     2
 10
166.8238576316329
 20
128.50648471763921
 30
0.0
 40
0.2
  1
TRATTI3|2|TRATTI3
  2
TRATTI3
 70
     1
  0
ATTRIB
  5
393
  8
ASM-FROZEN
 62
     2
 10
166.8238576316329
 20
128.1731513843059
 30
0.0
 40
0.2
  1
TRATTI1F|4|TRATTI1
  2
TRATTI1F
 70
     1
  0
ATTRIB
  5
394
  8
ASM-FROZEN
  6
BYBLOCK
 62
     2
 10
166.8238576316329
 20
127.8398180509725
 30
0.0
 40
0.2
  1
TRATTI2F|4|TRATTI2
  2
TRATTI2F
 70
     1
  0
ATTRIB
  5
395
  8
ASM-FROZEN
 62
     2
 10
166.8238576316329
 20
127.5064847176392
 30
0.0
 40
0.2
  1
TRATTI3F|4|TRATTI3
  2
TRATTI3F
 70
     1
  0
ATTRIB
  5
396
  8
ASM-FROZEN
  6
BYBLOCK
 62
     2
 10
166.8238576316329
 20
127.1731513843059
 30
0.0
 40
0.2
  1
TRATTEGG|4|CONTINUOUS
  2
TRATTEGGIO
 70
     1
  0
SEQEND
  5
397
  8
ASM-FROZEN
  0
INSERT
  5
398
  8
0
  2
STDGX5
 10
555.0
 20
32.000043000000012
 30
0.0
  0
INSERT
  5
399
  8
0
  2
STDGX5
 10
555.0
 20
32.000043000000012
 30
0.0
  0
INSERT
  5
39A
  8
0
  2
STDGX5
 10
555.0
 20
427.00004300000001
 30
0.0
  0
INSERT
  5
39B
  8
0
  2
STDGX5
 10
555.0
 20
427.00004300000001
 30
0.0
  0
INSERT
  5
39C
  8
0
  2
STDGX5
 10
940.0
 20
57.000086202416931
 30
0.0
  0
INSERT
  5
39D
  8
0
  2
STDGX5
 10
940.0
 20
57.000086202416931
 30
0.0
  0
INSERT
  5
39E
  8
0
  2
STDGX5
 10
1215.0
 20
57.000086202416931
 30
0.0
  0
INSERT
  5
39F
  8
0
  2
STDGX5
 10
1215.0
 20
57.000086202416931
 30
0.0
  0
INSERT
  5
3A0
  8
0
  2
STDGX5
 10
1221.1206569324661
 20
83.266816627908213
 30
0.0
  0
INSERT
  5
3A1
  8
0
  2
STDGX5
 10
1221.1206569324661
 20
83.266816627908213
 30
0.0
  0
INSERT
  5
3A2
  8
0
  2
STDGX5
 10
725.64223099915762
 20
423.67906139574842
 30
0.0
  0
INSERT
  5
3A3
  8
0
  2
STDGX5
 10
725.64223099915762
 20
423.67906139574842
 30
0.0
  0
INSERT
  5
3A4
  8
0
  2
STDGX5
 10
641.42464250349155
 20
486.30137065081061
 30
0.0
  0
INSERT
  5
3A5
  8
0
  2
STDGX5
 10
641.42464250349155
 20
486.30137065081061
 30
0.0
  0
INSERT
  5
3A6
  8
0
  2
STDGX5
 10
805.94271854229191
 20
472.60274013746778
 30
0.0
  0
INSERT
  5
3A7
  8
0
  2
STDGX5
 10
805.94271854229191
 20
472.60274013746778
 30
0.0
  0
INSERT
  5
3A8
  8
0
  2
STDGX5
 10
711.51652994597225
 20
515.1864474315073
 30
0.0
  0
INSERT
  5
3A9
  8
0
  2
STDGX5
 10
711.51652994597225
 20
515.1864474315073
 30
0.0
  0
INSERT
  5
3AA
  8
4
  2
STDGX5
 10
1213.320813405702
 20
208.41487235738171
 30
0.0
  0
INSERT
  5
3AB
  8
4
  2
STDGX5
 10
1178.066938726173
 20
161.44814015807279
 30
0.0
  0
INSERT
  5
3AC
  8
4
  2
STDGX5
 10
1176.108392977344
 20
106.65362002320219
 30
0.0
  0
INSERT
  5
3AD
  8
4
  2
STDGX5
 10
1246.6161377031151
 20
304.30528373988909
 30
0.0
  0
INSERT
  5
3AE
  8
4
  2
STDGX5
 10
1248.5746873904529
 20
531.31115450790185
 30
0.0
  0
INSERT
  5
3AF
  8
11
  2
STDGX5
 10
1774.719630991231
 20
428.5714271744431
 30
0.0
 41
0.5
 42
0.5
 43
0.5
  0
INSERT
  5
3B0
  8
11
  2
STDGX5
 10
1734.7196309912299
 20
528.5714271744431
 30
0.0
  0
INSERT
  5
3B1
  8
11
  2
STDGX5
 10
1979.493353946265
 20
442.41558382512397
 30
0.0
 41
0.5
 42
0.5
 43
0.5
  0
INSERT
  5
3B2
  8
11
  2
STDGX5
 10
1939.493353946265
 20
542.41558382512403
 30
0.0
  0
INSERT
  5
3B3
  8
11
  2
STDGX5
 10
1649.4741117272119
 20
696.11635035372683
 30
0.0
 41
0.5
 42
0.5
 43
0.5
  0
INSERT
  5
3B4
  8
11
  2
STDGX5
 10
1609.474111727211
 20
796.11635035372683
 30
0.0
  0
INSERT
  5
3B5
  8
11
  2
STDGX5
 10
1799.474111727211
 20
696.11635035372683
 30
0.0
 41
0.5
 42
0.5
 43
0.5
  0
INSERT
  5
3B6
  8
11
  2
STDGX5
 10
1759.474111727211
 20
796.11635035372683
 30
0.0
  0
INSERT
  5
3B7
  8
4
  2
STDGX5
 10
2402.123843341104
 20
828.37516165887109
 30
0.0
  0
INSERT
  5
3B8
  8
4
  2
STDGX5
 10
2402.123843341104
 20
828.37516165887109
 30
0.0
  0
INSERT
  5
3B9
  8
4
  2
STDGX5
 10
2558.0266348865098
 20
809.54437487867881
 30
0.0
  0
INSERT
  5
3BA
  8
4
  2
STDGX5
 10
1422.077588589985
 20
230.26683498937609
 30
0.0
  0
INSERT
  5
3BB
  8
4
  2
STDGX5
 10
1453.6407113307041
 20
452.76567703021232
 30
0.0
  0
INSERT
  5
3BC
  8
0
  2
STDGX5
 10
0.0
 20
0.0
 30
0.0
 41
2.0
 42
2.0
 43
2.0
  0
INSERT
  5
3BD
  8
0
  2
STDGX5
 10
0.0
 20
0.0
 30
0.0
 41
2.0
 42
2.0
 43
2.0
  0
INSERT
  5
3BE
  8
0
  2
STDGX5
 10
550.0
 20
0.0
 30
0.0
 41
2.0
 42
2.0
 43
2.0
  0
INSERT
  5
3BF
  8
0
  2
STDGX5
 10
550.0
 20
0.0
 30
0.0
 41
2.0
 42
2.0
 43
2.0
  0
INSERT
  5
3C0
  8
0
  2
STDGX5
 10
0.0
 20
0.0
 30
0.0
  0
INSERT
  5
3C1
  8
0
  2
STDGX5
 10
0.0
 20
0.0
 30
0.0
  0
INSERT
  5
3C2
  8
0
  2
STDGX5
 10
275.0
 20
0.0
 30
0.0
  0
INSERT
  5
3C3
  8
0
  2
STDGX5
 10
275.0
 20
0.0
 30
0.0
  0
INSERT
  5
3C4
  8
0
  2
STDGX5
 10
0.0
 20
0.0
 30
0.0
 41
2.0
 42
2.0
 43
2.0
  0
INSERT
  5
3C5
  8
0
  2
STDGX5
 10
0.0
 20
0.0
 30
0.0
 41
2.0
 42
2.0
 43
2.0
  0
INSERT
  5
3C6
  8
0
  2
STDGX5
 10
550.0
 20
0.0
 30
0.0
 41
2.0
 42
2.0
 43
2.0
  0
INSERT
  5
3C7
  8
0
  2
STDGX5
 10
550.0
 20
0.0
 30
0.0
 41
2.0
 42
2.0
 43
2.0
  0
INSERT
  5
3C8
  8
0
  2
STDGX5
 10
0.0
 20
0.0
 30
0.0
  0
INSERT
  5
3C9
  8
0
  2
STDGX5
 10
0.0
 20
0.0
 30
0.0
  0
INSERT
  5
3CA
  8
0
  2
STDGX5
 10
275.0
 20
0.0
 30
0.0
  0
INSERT
  5
3CB
  8
0
  2
STDGX5
 10
275.0
 20
0.0
 30
0.0
  0
INSERT
  5
3CC
  8
0
  2
STDGX5
 10
0.0
 20
0.0
 30
0.0
 41
2.0
 42
2.0
 43
2.0
  0
INSERT
  5
3CD
  8
0
  2
STDGX5
 10
0.0
 20
0.0
 30
0.0
 41
2.0
 42
2.0
 43
2.0
  0
INSERT
  5
3CE
  8
0
  2
STDGX5
 10
550.0
 20
0.0
 30
0.0
 41
2.0
 42
2.0
 43
2.0
  0
INSERT
  5
3CF
  8
0
  2
STDGX5
 10
550.0
 20
0.0
 30
0.0
 41
2.0
 42
2.0
 43
2.0
  0
INSERT
  5
3D0
  8
0
  2
STDGX5
 10
0.0
 20
0.0
 30
0.0
  0
INSERT
  5
3D1
  8
0
  2
STDGX5
 10
0.0
 20
0.0
 30
0.0
  0
INSERT
  5
3D2
  8
0
  2
STDGX5
 10
275.0
 20
0.0
 30
0.0
  0
INSERT
  5
3D3
  8
0
  2
STDGX5
 10
275.0
 20
0.0
 30
0.0
  0
INSERT
  5
3D4
  8
0
  2
STDGX5
 10
0.0
 20
0.0
 30
0.0
  0
INSERT
  5
3D5
  8
0
  2
STDGX5
 10
0.0
 20
0.0
 30
0.0
  0
INSERT
  5
3D6
  8
0
  2
STDGX5
 10
275.0
 20
0.0
 30
0.0
  0
INSERT
  5
3D7
  8
0
  2
STDGX5
 10
275.0
 20
0.0
 30
0.0
  0
INSERT
  5
3D8
  8
0
  2
STDGX5
 10
0.0
 20
0.0
 30
0.0
  0
INSERT
  5
3D9
  8
0
  2
STDGX5
 10
0.0
 20
0.0
 30
0.0
  0
INSERT
  5
3DA
  8
0
  2
STDGX5
 10
275.0
 20
0.0
 30
0.0
  0
INSERT
  5
3DB
  8
0
  2
STDGX5
 10
275.0
 20
0.0
 30
0.0
  0
INSERT
  5
3DC
  8
0
  2
STDGX5
 10
0.0
 20
0.0
 30
0.0
  0
INSERT
  5
3DD
  8
0
  2
STDGX5
 10
0.0
 20
0.0
 30
0.0
  0
INSERT
  5
3DE
  8
0
  2
STDGX5
 10
275.0
 20
0.0
 30
0.0
  0
INSERT
  5
3DF
  8
0
  2
STDGX5
 10
275.0
 20
0.0
 30
0.0
  0
INSERT
  5
3E0
  8
0
  2
STDGX5
 10
0.0
 20
0.0
 30
0.0
  0
INSERT
  5
3E1
  8
0
  2
STDGX5
 10
0.0
 20
0.0
 30
0.0
  0
INSERT
  5
3E2
  8
0
  2
STDGX5
 10
275.0
 20
0.0
 30
0.0
  0
INSERT
  5
3E3
  8
0
  2
STDGX5
 10
275.0
 20
0.0
 30
0.0
  0
INSERT
  5
3E4
  8
4
  2
STDGX5
 10
1679.136663562706
 20
1203.6320286689679
 30
0.0
  0
INSERT
  5
40E
  8
4
  2
STDGX5
 10
2267.3662359356881
 20
2118.9156237583429
 30
0.0
  0
INSERT
  5
40F
  8
4
  2
STDGX5
 10
2287.977648220804
 20
2110.1789849434831
 30
0.0
  0
INSERT
  5
410
  8
4
  2
STDGX5
 10
2231.1401274657128
 20
2133.8927139619032
 30
0.0
  0
INSERT
  5
411
  8
4
  2
STDGX5
 10
2355.7389441016089
 20
1841.403922469437
 30
0.0
  0
INSERT
  5
412
  8
4
  2
STDGX5
 10
2887.521985280257
 20
2101.7475360572498
 30
0.0
  0
INSERT
  5
413
  8
4
  2
STDGX5
 10
2887.521985280257
 20
2276.7475360572498
 30
0.0
  0
INSERT
  5
414
  8
4
  2
STDGX5
 10
3187.0429677293582
 20
2060.4975567810602
 30
0.0
  0
INSERT
  5
415
  8
4
  2
STDGX5
 10
2233.9291483487032
 20
2390.4738073443532
 30
0.0
  0
INSERT
  5
416
  8
4
  2
STDGX5
 10
2158.4256636618888
 20
2395.617297030466
 30
0.0
  0
INSERT
  5
417
  8
4
  2
STDGX5
 10
2403.8119713681258
 20
2246.4560245409862
 30
0.0
  0
INSERT
  5
418
  8
4
  2
STDGX5
 10
2442.7175683847308
 20
2588.7347301199652
 30
0.0
  0
INSERT
  5
419
  8
4
  2
STDGX5
 10
2701.0921258266162
 20
2242.4189385635132
 30
0.0
  0
INSERT
  5
41A
  8
0
  2
STDGX5
 10
2109.8182041779728
 20
1317.515669550721
 30
0.0
  0
INSERT
  5
41B
  8
0
  2
STDGX5
 10
2109.8182041779728
 20
1317.515669550721
 30
0.0
  0
INSERT
  5
41C
  8
0
  2
STDGX5
 10
2109.8182041779728
 20
1317.515669550721
 30
0.0
  0
INSERT
  5
41D
  8
0
  2
STDGX5
 10
2109.8182041779728
 20
1317.515669550721
 30
0.0
  0
INSERT
  5
41E
  8
0
  2
STDGX5
 10
2109.8182041779728
 20
1317.515669550721
 30
0.0
  0
INSERT
  5
41F
  8
0
  2
STDGX5
 10
2499.8182041779728
 20
1317.515669550721
 30
0.0
  0
INSERT
  5
420
  8
0
  2
STDGX5
 10
2499.8182041779728
 20
1317.515669550721
 30
0.0
  0
INSERT
  5
421
  8
0
  2
STDGX5
 10
2889.8182041779728
 20
1317.515669550721
 30
0.0
  0
INSERT
  5
422
  8
0
  2
STDGX5
 10
2889.8182041779728
 20
1317.515669550721
 30
0.0
  0
INSERT
  5
423
  8
0
  2
STDGX5
 10
2889.8182041779728
 20
1317.515669550721
 30
0.0
  0
INSERT
  5
424
  8
0
  2
STDGX5
 10
2889.8182041779728
 20
1317.515669550721
 30
0.0
  0
INSERT
  5
425
  8
0
  2
STDGX5
 10
2889.8182041779728
 20
1317.515669550721
 30
0.0
  0
INSERT
  5
426
  8
0
  2
STDGX5
 10
2889.8182041779728
 20
1317.515669550721
 30
0.0
  0
INSERT
  5
427
  8
0
  2
STDGX5
 10
3164.8182041779728
 20
1317.515669550721
 30
0.0
  0
INSERT
  5
428
  8
0
  2
STDGX5
 10
3164.8182041779728
 20
1317.515669550721
 30
0.0
  0
INSERT
  5
429
  8
0
  2
STDGX5
 10
3164.8182041779728
 20
1317.515669550721
 30
0.0
  0
INSERT
  5
42A
  8
0
  2
STDGX5
 10
3164.8182041779728
 20
1317.515669550721
 30
0.0
  0
INSERT
  5
42B
  8
0
  2
STDGX5
 10
3164.8182041779728
 20
1317.515669550721
 30
0.0
  0
INSERT
  5
42C
  8
0
  2
STDGX5
 10
3164.8182041779728
 20
1317.515669550721
 30
0.0
  0
INSERT
  5
42D
  8
0
  2
STDGX5
 10
3164.8182041779728
 20
1317.515669550721
 30
0.0
  0
INSERT
  5
42E
  8
0
  2
STDGX5
 10
3164.8182041779728
 20
1317.515669550721
 30
0.0
  0
INSERT
  5
42F
  8
0
  2
STDGX5
 10
3164.8182041779728
 20
1317.515669550721
 30
0.0
  0
INSERT
  5
430
  8
0
  2
STDGX5
 10
3164.8182041779728
 20
1317.515669550721
 30
0.0
  0
INSERT
  5
431
  8
0
  2
STDGX5
 10
3164.8182041779728
 20
1317.515669550721
 30
0.0
  0
INSERT
  5
432
  8
0
  2
STDGX5
 10
3164.8182041779728
 20
1317.515669550721
 30
0.0
  0
INSERT
  5
433
  8
0
  2
STDGX5
 10
3164.8182041779728
 20
1317.515669550721
 30
0.0
  0
INSERT
  5
434
  8
0
  2
STDGX5
 10
3164.8182041779728
 20
1317.515669550721
 30
0.0
  0
INSERT
  5
435
  8
0
  2
STDGX5
 10
2889.8182041779728
 20
1317.515669550721
 30
0.0
  0
INSERT
  5
436
  8
0
  2
STDGX5
 10
2889.8182041779728
 20
1317.515669550721
 30
0.0
  0
INSERT
  5
437
  8
0
  2
STDGX5
 10
3164.8182041779728
 20
1317.515669550721
 30
0.0
  0
INSERT
  5
438
  8
0
  2
STDGX5
 10
3164.8182041779728
 20
1317.515669550721
 30
0.0
  0
INSERT
  5
439
  8
0
  2
STDGX5
 10
3164.8182041779728
 20
1317.515669550721
 30
0.0
  0
INSERT
  5
43A
  8
0
  2
STDGX5
 10
3164.8182041779728
 20
1317.515669550721
 30
0.0
  0
INSERT
  5
43B
  8
0
  2
STDGX5
 10
3164.8182041779728
 20
1317.515669550721
 30
0.0
  0
INSERT
  5
43C
  8
0
  2
STDGX5
 10
3164.8182041779728
 20
1317.515669550721
 30
0.0
  0
INSERT
  5
43D
  8
0
  2
STDGX5
 10
3164.8182041779728
 20
1317.515669550721
 30
0.0
  0
INSERT
  5
43E
  8
0
  2
STDGX5
 10
3164.8182041779728
 20
1317.515669550721
 30
0.0
  0
INSERT
  5
43F
  8
0
  2
STDGX5
 10
3164.8182041779728
 20
1317.515669550721
 30
0.0
  0
INSERT
  5
440
  8
0
  2
STDGX5
 10
3164.8182041779728
 20
1317.515669550721
 30
0.0
  0
INSERT
  5
441
  8
0
  2
STDGX5
 10
3164.8182041779728
 20
1317.515669550721
 30
0.0
  0
INSERT
  5
442
  8
0
  2
STDGX5
 10
3164.8182041779728
 20
1317.515669550721
 30
0.0
  0
INSERT
  5
443
  8
0
  2
STDGX5
 10
3164.8182041779728
 20
1317.515669550721
 30
0.0
  0
INSERT
  5
444
  8
0
  2
STDGX5
 10
3164.8182041779728
 20
1317.515669550721
 30
0.0
  0
INSERT
  5
445
  8
11
  2
STDGX5
 10
2109.8182041779728
 20
1317.515669550721
 30
0.0
  0
INSERT
  5
446
  8
0
  2
STDGX5
 10
2386.7939314301771
 20
1354.8048103837859
 30
0.0
  0
INSERT
  5
447
  8
0
  2
STDGX5
 10
2386.7939314301771
 20
1354.8048103837859
 30
0.0
  0
INSERT
  5
448
  8
0
  2
STDGX5
 10
2386.7939314301771
 20
1354.8048103837859
 30
0.0
  0
INSERT
  5
449
  8
0
  2
STDGX5
 10
2386.7939314301771
 20
1354.8048103837859
 30
0.0
  0
INSERT
  5
44A
  8
0
  2
STDGX5
 10
2386.7939314301771
 20
1354.8048103837859
 30
0.0
  0
INSERT
  5
44B
  8
0
  2
STDGX5
 10
2776.7939314301771
 20
1354.8048103837859
 30
0.0
  0
INSERT
  5
44C
  8
0
  2
STDGX5
 10
2776.7939314301771
 20
1354.8048103837859
 30
0.0
  0
INSERT
  5
44D
  8
0
  2
STDGX5
 10
3166.793931430178
 20
1354.8048103837859
 30
0.0
  0
INSERT
  5
44E
  8
0
  2
STDGX5
 10
3166.793931430178
 20
1354.8048103837859
 30
0.0
  0
INSERT
  5
44F
  8
0
  2
STDGX5
 10
3166.793931430178
 20
1354.8048103837859
 30
0.0
  0
INSERT
  5
450
  8
0
  2
STDGX5
 10
3166.793931430178
 20
1354.8048103837859
 30
0.0
  0
INSERT
  5
451
  8
0
  2
STDGX5
 10
3166.793931430178
 20
1354.8048103837859
 30
0.0
  0
INSERT
  5
452
  8
0
  2
STDGX5
 10
3166.793931430178
 20
1354.8048103837859
 30
0.0
  0
INSERT
  5
453
  8
0
  2
STDGX5
 10
3441.7939314301771
 20
1354.8048103837859
 30
0.0
  0
INSERT
  5
454
  8
0
  2
STDGX5
 10
3441.7939314301771
 20
1354.8048103837859
 30
0.0
  0
INSERT
  5
455
  8
0
  2
STDGX5
 10
3441.7939314301771
 20
1354.8048103837859
 30
0.0
  0
INSERT
  5
456
  8
0
  2
STDGX5
 10
3441.7939314301771
 20
1354.8048103837859
 30
0.0
  0
INSERT
  5
457
  8
0
  2
STDGX5
 10
3441.7939314301771
 20
1354.8048103837859
 30
0.0
  0
INSERT
  5
458
  8
0
  2
STDGX5
 10
3441.7939314301771
 20
1354.8048103837859
 30
0.0
  0
INSERT
  5
459
  8
0
  2
STDGX5
 10
3441.7939314301771
 20
1354.8048103837859
 30
0.0
  0
INSERT
  5
45A
  8
0
  2
STDGX5
 10
3441.7939314301771
 20
1354.8048103837859
 30
0.0
  0
INSERT
  5
45B
  8
0
  2
STDGX5
 10
3441.7939314301771
 20
1354.8048103837859
 30
0.0
  0
INSERT
  5
45C
  8
0
  2
STDGX5
 10
3441.7939314301771
 20
1354.8048103837859
 30
0.0
  0
INSERT
  5
45D
  8
0
  2
STDGX5
 10
3441.7939314301771
 20
1354.8048103837859
 30
0.0
  0
INSERT
  5
45E
  8
0
  2
STDGX5
 10
3441.7939314301771
 20
1354.8048103837859
 30
0.0
  0
INSERT
  5
45F
  8
0
  2
STDGX5
 10
3441.7939314301771
 20
1354.8048103837859
 30
0.0
  0
INSERT
  5
460
  8
0
  2
STDGX5
 10
3441.7939314301771
 20
1354.8048103837859
 30
0.0
  0
INSERT
  5
461
  8
0
  2
STDGX5
 10
3166.793931430178
 20
1354.8048103837859
 30
0.0
  0
INSERT
  5
462
  8
0
  2
STDGX5
 10
3166.793931430178
 20
1354.8048103837859
 30
0.0
  0
INSERT
  5
463
  8
0
  2
STDGX5
 10
3441.7939314301771
 20
1354.8048103837859
 30
0.0
  0
INSERT
  5
464
  8
0
  2
STDGX5
 10
3441.7939314301771
 20
1354.8048103837859
 30
0.0
  0
INSERT
  5
465
  8
0
  2
STDGX5
 10
3441.7939314301771
 20
1354.8048103837859
 30
0.0
  0
INSERT
  5
466
  8
0
  2
STDGX5
 10
3441.7939314301771
 20
1354.8048103837859
 30
0.0
  0
INSERT
  5
467
  8
0
  2
STDGX5
 10
3441.7939314301771
 20
1354.8048103837859
 30
0.0
  0
INSERT
  5
468
  8
0
  2
STDGX5
 10
3441.7939314301771
 20
1354.8048103837859
 30
0.0
  0
INSERT
  5
469
  8
0
  2
STDGX5
 10
3441.7939314301771
 20
1354.8048103837859
 30
0.0
  0
INSERT
  5
46A
  8
0
  2
STDGX5
 10
3441.7939314301771
 20
1354.8048103837859
 30
0.0
  0
INSERT
  5
46B
  8
0
  2
STDGX5
 10
3441.7939314301771
 20
1354.8048103837859
 30
0.0
  0
INSERT
  5
46C
  8
0
  2
STDGX5
 10
3441.7939314301771
 20
1354.8048103837859
 30
0.0
  0
INSERT
  5
46D
  8
0
  2
STDGX5
 10
3441.7939314301771
 20
1354.8048103837859
 30
0.0
  0
INSERT
  5
46E
  8
0
  2
STDGX5
 10
3441.7939314301771
 20
1354.8048103837859
 30
0.0
  0
INSERT
  5
46F
  8
0
  2
STDGX5
 10
3441.7939314301771
 20
1354.8048103837859
 30
0.0
  0
INSERT
  5
470
  8
0
  2
STDGX5
 10
3441.7939314301771
 20
1354.8048103837859
 30
0.0
  0
INSERT
  5
471
  8
11
  2
STDGX5
 10
2386.7939314301771
 20
1354.8048103837859
 30
0.0
  0
INSERT
  5
472
  8
11
  2
STDGX5
 10
2661.7939314301771
 20
1379.8048533837859
 30
0.0
  0
INSERT
  5
473
  8
4
  2
STDGX5
 10
390.0
 20
25.000043000000002
 30
0.0
  0
INSERT
  5
47F
  8
4
  2
STDGX5
 10
275.0
 20
200.00004300000001
 30
0.0
  0
INSERT
  5
4C9
  8
0
  2
STDGX5
 10
0.0
 20
0.0
 30
0.0
 41
0.5
 42
0.5
 43
0.5
  0
INSERT
  5
4CA
  8
0
  2
STDGX5
 10
0.0
 20
0.0
 30
0.0
 41
0.5
 42
0.5
 43
0.5
  0
INSERT
  5
4CB
  8
0
  2
STDGX5
 10
137.5
 20
0.0
 30
0.0
 41
0.5
 42
0.5
 43
0.5
  0
INSERT
  5
4CC
  8
0
  2
STDGX5
 10
137.5
 20
0.0
 30
0.0
 41
0.5
 42
0.5
 43
0.5
  0
INSERT
  5
6D6
  8
0
  2
STDGX5
 10
204.8813237729332
 20
3.446691009166102
 30
0.0
  0
INSERT
  5
6D7
  8
0
  2
STDGX5
 10
204.8813237729332
 20
3.446691009166102
 30
0.0
  0
INSERT
  5
6D8
  8
0
  2
STDGX5
 10
479.88132377293317
 20
28.4467340091661
 30
0.0
  0
INSERT
  5
6D9
  8
0
  2
STDGX5
 10
479.88132377293317
 20
28.4467340091661
 30
0.0
  0
INSERT
  5
6DA
  8
0
  2
STDGX5
 10
521.92382917752229
 20
240.8964899961473
 30
0.0
  0
INSERT
  5
6DB
  8
0
  2
STDGX5
 10
521.92382917752229
 20
240.8964899961473
 30
0.0
  0
INSERT
  5
6DC
  8
0
  2
STDGX5
 10
539.00694458656699
 20
179.65150995587291
 30
0.0
  0
INSERT
  5
6DD
  8
0
  2
STDGX5
 10
539.00694458656699
 20
179.65150995587291
 30
0.0
  0
INSERT
  5
6DE
  8
0
  2
STDGX5
 10
561.11450508396365
 20
194.7117509323883
 30
0.0
  0
INSERT
  5
6DF
  8
0
  2
STDGX5
 10
561.11450508396365
 20
194.7117509323883
 30
0.0
  0
INSERT
  5
6E0
  8
4
  2
STDGX5
 10
618.30239991008773
 20
376.26427489014822
 30
0.0
  0
INSERT
  5
6E1
  8
4
  2
STDGX5
 10
478.70250075267938
 20
299.7715483107242
 30
0.0
  0
INSERT
  5
6E2
  8
0
  2
STDGX5
 10
640.50074300706456
 20
270.01295577089593
 30
0.0
  0
INSERT
  5
6E3
  8
0
  2
STDGX5
 10
640.50074300706456
 20
270.01295577089593
 30
0.0
  0
INSERT
  5
6E4
  8
4
  2
STDGX5
 10
478.68495421592559
 20
254.66192662874701
 30
0.0
  0
INSERT
  5
6E6
  8
4
  2
STDGX5
 10
479.88132377293317
 20
28.446734211583038
 30
0.0
  0
INSERT
  5
6E7
  8
0
  2
STDGX5
 10
479.88132377293317
 20
28.446734211583038
 30
0.0
  0
INSERT
  5
6E8
  8
0
  2
STDGX5
 10
479.88132377293317
 20
28.446734211583038
 30
0.0
  0
INSERT
  5
6E9
  8
0
  2
STDGX5
 10
754.88132377293323
 20
53.446777211583033
 30
0.0
  0
INSERT
  5
6EA
  8
0
  2
STDGX5
 10
754.88132377293323
 20
53.446777211583033
 30
0.0
  0
INSERT
  5
6EB
  8
0
  2
STDGX5
 10
796.92382917752229
 20
265.8965331985641
 30
0.0
  0
INSERT
  5
6EC
  8
0
  2
STDGX5
 10
796.92382917752229
 20
265.8965331985641
 30
0.0
  0
INSERT
  5
6ED
  8
0
  2
STDGX5
 10
814.00694458656699
 20
204.6515531582898
 30
0.0
  0
INSERT
  5
6EE
  8
0
  2
STDGX5
 10
814.00694458656699
 20
204.6515531582898
 30
0.0
  0
INSERT
  5
6EF
  8
0
  2
STDGX5
 10
836.11450508396365
 20
219.71179413480519
 30
0.0
  0
INSERT
  5
6F0
  8
0
  2
STDGX5
 10
836.11450508396365
 20
219.71179413480519
 30
0.0
  0
INSERT
  5
6F1
  8
4
  2
STDGX5
 10
893.30239991008784
 20
401.26431809256508
 30
0.0
  0
INSERT
  5
6F2
  8
4
  2
STDGX5
 10
753.7025007526795
 20
324.77159151314112
 30
0.0
  0
INSERT
  5
6F3
  8
0
  2
STDGX5
 10
915.50074300706444
 20
295.01299897331279
 30
0.0
  0
INSERT
  5
6F4
  8
0
  2
STDGX5
 10
915.50074300706444
 20
295.01299897331279
 30
0.0
  0
INSERT
  5
6F5
  8
4
  2
STDGX5
 10
753.6849542159257
 20
279.6619698311639
 30
0.0
  0
INSERT
  5
6F7
  8
0
  2
STDGX5
 10
630.94127642589001
 20
76.062195521984805
 30
0.0
  0
INSERT
  5
6F8
  8
0
  2
STDGX5
 10
630.94127642589001
 20
76.062195521984805
 30
0.0
  0
INSERT
  5
6F9
  8
0
  2
STDGX5
 10
905.9412764258899
 20
101.0622385219848
 30
0.0
  0
INSERT
  5
6FA
  8
0
  2
STDGX5
 10
905.9412764258899
 20
101.0622385219848
 30
0.0
  0
INSERT
  5
6FB
  8
0
  2
STDGX5
 10
947.98378183047896
 20
313.51199450896593
 30
0.0
  0
INSERT
  5
6FC
  8
0
  2
STDGX5
 10
947.98378183047896
 20
313.51199450896593
 30
0.0
  0
INSERT
  5
6FD
  8
0
  2
STDGX5
 10
965.06689723952366
 20
252.2670144686916
 30
0.0
  0
INSERT
  5
6FE
  8
0
  2
STDGX5
 10
965.06689723952366
 20
252.2670144686916
 30
0.0
  0
INSERT
  5
6FF
  8
0
  2
STDGX5
 10
987.17445773692043
 20
267.32725544520702
 30
0.0
  0
INSERT
  5
700
  8
0
  2
STDGX5
 10
987.17445773692043
 20
267.32725544520702
 30
0.0
  0
INSERT
  5
701
  8
4
  2
STDGX5
 10
1044.3623525630439
 20
448.87977940296679
 30
0.0
  0
INSERT
  5
702
  8
4
  2
STDGX5
 10
904.76245340563617
 20
372.38705282354277
 30
0.0
  0
INSERT
  5
703
  8
0
  2
STDGX5
 10
1066.5606956600211
 20
342.62846028371462
 30
0.0
  0
INSERT
  5
704
  8
0
  2
STDGX5
 10
1066.5606956600211
 20
342.62846028371462
 30
0.0
  0
INSERT
  5
705
  8
4
  2
STDGX5
 10
904.74490686888248
 20
327.27743114156573
 30
0.0
  0
INSERT
  5
707
  8
0
  2
STDGX5
 10
869.88132377293323
 20
298.44673421158302
 30
0.0
  0
INSERT
  5
708
  8
0
  2
STDGX5
 10
869.88132377293323
 20
298.44673421158302
 30
0.0
  0
INSERT
  5
709
  8
0
  2
STDGX5
 10
1144.881323772933
 20
323.44677721158303
 30
0.0
  0
INSERT
  5
70A
  8
0
  2
STDGX5
 10
1144.881323772933
 20
323.44677721158303
 30
0.0
  0
INSERT
  5
70B
  8
0
  2
STDGX5
 10
1186.9238291775221
 20
535.89653319856416
 30
0.0
  0
INSERT
  5
70C
  8
0
  2
STDGX5
 10
1186.9238291775221
 20
535.89653319856416
 30
0.0
  0
INSERT
  5
70D
  8
0
  2
STDGX5
 10
1204.006944586567
 20
474.65155315828991
 30
0.0
  0
INSERT
  5
70E
  8
0
  2
STDGX5
 10
1204.006944586567
 20
474.65155315828991
 30
0.0
  0
INSERT
  5
70F
  8
0
  2
STDGX5
 10
1226.1145050839641
 20
489.71179413480519
 30
0.0
  0
INSERT
  5
710
  8
0
  2
STDGX5
 10
1226.1145050839641
 20
489.71179413480519
 30
0.0
  0
INSERT
  5
711
  8
4
  2
STDGX5
 10
1283.3023999100881
 20
671.26431809256508
 30
0.0
  0
INSERT
  5
712
  8
4
  2
STDGX5
 10
1143.702500752679
 20
594.77159151314095
 30
0.0
  0
INSERT
  5
713
  8
0
  2
STDGX5
 10
1305.5007430070641
 20
565.01299897331285
 30
0.0
  0
INSERT
  5
714
  8
0
  2
STDGX5
 10
1305.5007430070641
 20
565.01299897331285
 30
0.0
  0
INSERT
  5
715
  8
4
  2
STDGX5
 10
1143.684954215925
 20
549.6619698311639
 30
0.0
  0
INSERT
  5
717
  8
0
  2
STDGX5
 10
869.88132377293323
 20
298.44673421158302
 30
0.0
  0
INSERT
  5
718
  8
0
  2
STDGX5
 10
869.88132377293323
 20
298.44673421158302
 30
0.0
  0
INSERT
  5
719
  8
0
  2
STDGX5
 10
1144.881323772933
 20
323.44677721158303
 30
0.0
  0
INSERT
  5
71A
  8
0
  2
STDGX5
 10
1144.881323772933
 20
323.44677721158303
 30
0.0
  0
INSERT
  5
71B
  8
0
  2
STDGX5
 10
1186.9238291775221
 20
535.89653319856416
 30
0.0
  0
INSERT
  5
71C
  8
0
  2
STDGX5
 10
1186.9238291775221
 20
535.89653319856416
 30
0.0
  0
INSERT
  5
71D
  8
0
  2
STDGX5
 10
1204.006944586567
 20
474.65155315828991
 30
0.0
  0
INSERT
  5
71E
  8
0
  2
STDGX5
 10
1204.006944586567
 20
474.65155315828991
 30
0.0
  0
INSERT
  5
71F
  8
0
  2
STDGX5
 10
1226.1145050839641
 20
489.71179413480519
 30
0.0
  0
INSERT
  5
720
  8
0
  2
STDGX5
 10
1226.1145050839641
 20
489.71179413480519
 30
0.0
  0
INSERT
  5
721
  8
4
  2
STDGX5
 10
1283.3023999100881
 20
671.26431809256508
 30
0.0
  0
INSERT
  5
722
  8
4
  2
STDGX5
 10
1143.702500752679
 20
594.77159151314095
 30
0.0
  0
INSERT
  5
723
  8
0
  2
STDGX5
 10
1305.5007430070641
 20
565.01299897331285
 30
0.0
  0
INSERT
  5
724
  8
0
  2
STDGX5
 10
1305.5007430070641
 20
565.01299897331285
 30
0.0
  0
INSERT
  5
725
  8
4
  2
STDGX5
 10
1143.684954215925
 20
549.6619698311639
 30
0.0
  0
INSERT
  5
727
  8
0
  2
STDGX5
 10
869.88132377293323
 20
53.44677721158304
 30
0.0
  0
INSERT
  5
728
  8
0
  2
STDGX5
 10
869.88132377293323
 20
53.44677721158304
 30
0.0
  0
INSERT
  5
729
  8
0
  2
STDGX5
 10
1144.881323772933
 20
78.446820211583031
 30
0.0
  0
INSERT
  5
72A
  8
0
  2
STDGX5
 10
1144.881323772933
 20
78.446820211583031
 30
0.0
  0
INSERT
  5
72B
  8
0
  2
STDGX5
 10
1186.9238291775221
 20
290.89657619856411
 30
0.0
  0
INSERT
  5
72C
  8
0
  2
STDGX5
 10
1186.9238291775221
 20
290.89657619856411
 30
0.0
  0
INSERT
  5
72D
  8
0
  2
STDGX5
 10
1204.006944586567
 20
229.65159615828981
 30
0.0
  0
INSERT
  5
72E
  8
0
  2
STDGX5
 10
1204.006944586567
 20
229.65159615828981
 30
0.0
  0
INSERT
  5
72F
  8
0
  2
STDGX5
 10
1226.1145050839641
 20
244.71183713480519
 30
0.0
  0
INSERT
  5
730
  8
0
  2
STDGX5
 10
1226.1145050839641
 20
244.71183713480519
 30
0.0
  0
INSERT
  5
731
  8
4
  2
STDGX5
 10
1283.3023999100881
 20
426.26436109256508
 30
0.0
  0
INSERT
  5
732
  8
4
  2
STDGX5
 10
1143.702500752679
 20
349.77163451314112
 30
0.0
  0
INSERT
  5
733
  8
0
  2
STDGX5
 10
1305.5007430070641
 20
320.0130419733128
 30
0.0
  0
INSERT
  5
734
  8
0
  2
STDGX5
 10
1305.5007430070641
 20
320.0130419733128
 30
0.0
  0
INSERT
  5
736
  8
4
  2
STDGX5
 10
1143.684954215925
 20
304.66201283116391
 30
0.0
  0
INSERT
  5
73A
  8
4
  2
STDGX5
 10
869.88132377293323
 20
53.446777211583033
 30
0.0
  0
INSERT
  5
73D
  8
0
  2
STDGX5
 10
204.8813237729332
 20
3.446691009166102
 30
0.0
  0
INSERT
  5
73E
  8
0
  2
STDGX5
 10
204.8813237729332
 20
3.446691009166102
 30
0.0
  0
INSERT
  5
75A
  8
0
  2
STDGX5
 10
479.88132377293317
 20
28.4467340091661
 30
0.0
  0
INSERT
  5
75B
  8
0
  2
STDGX5
 10
479.88132377293317
 20
28.4467340091661
 30
0.0
  0
INSERT
  5
75C
  8
0
  2
STDGX5
 10
521.92382917752229
 20
240.8964899961473
 30
0.0
  0
INSERT
  5
75D
  8
0
  2
STDGX5
 10
521.92382917752229
 20
240.8964899961473
 30
0.0
  0
INSERT
  5
75E
  8
0
  2
STDGX5
 10
539.00694458656699
 20
179.65150995587291
 30
0.0
  0
INSERT
  5
75F
  8
0
  2
STDGX5
 10
539.00694458656699
 20
179.65150995587291
 30
0.0
  0
INSERT
  5
760
  8
0
  2
STDGX5
 10
561.11450508396365
 20
194.7117509323883
 30
0.0
  0
INSERT
  5
761
  8
0
  2
STDGX5
 10
561.11450508396365
 20
194.7117509323883
 30
0.0
  0
INSERT
  5
762
  8
4
  2
STDGX5
 10
618.30239991008773
 20
376.26427489014822
 30
0.0
  0
INSERT
  5
763
  8
4
  2
STDGX5
 10
478.70250075267938
 20
299.7715483107242
 30
0.0
  0
INSERT
  5
764
  8
0
  2
STDGX5
 10
640.50074300706456
 20
270.01295577089593
 30
0.0
  0
INSERT
  5
765
  8
0
  2
STDGX5
 10
640.50074300706456
 20
270.01295577089593
 30
0.0
  0
INSERT
  5
767
  8
4
  2
STDGX5
 10
478.68495421592559
 20
254.66192662874701
 30
0.0
  0
INSERT
  5
776
  8
4
  2
STDGX5
 10
479.88132377293317
 20
28.446734211583038
 30
0.0
  0
INSERT
  5
7E5
  8
0
  2
STDGX5
 10
479.88132377293317
 20
28.446734211583038
 30
0.0
  0
INSERT
  5
7E6
  8
0
  2
STDGX5
 10
479.88132377293317
 20
28.446734211583038
 30
0.0
  0
INSERT
  5
7E7
  8
0
  2
STDGX5
 10
754.88132377293323
 20
53.446777211583033
 30
0.0
  0
INSERT
  5
7E8
  8
0
  2
STDGX5
 10
754.88132377293323
 20
53.446777211583033
 30
0.0
  0
INSERT
  5
7E9
  8
0
  2
STDGX5
 10
796.92382917752229
 20
265.8965331985641
 30
0.0
  0
INSERT
  5
7EA
  8
0
  2
STDGX5
 10
796.92382917752229
 20
265.8965331985641
 30
0.0
  0
INSERT
  5
7EB
  8
0
  2
STDGX5
 10
814.00694458656699
 20
204.6515531582898
 30
0.0
  0
INSERT
  5
7EC
  8
0
  2
STDGX5
 10
814.00694458656699
 20
204.6515531582898
 30
0.0
  0
INSERT
  5
7ED
  8
0
  2
STDGX5
 10
836.11450508396365
 20
219.71179413480519
 30
0.0
  0
INSERT
  5
7EE
  8
0
  2
STDGX5
 10
836.11450508396365
 20
219.71179413480519
 30
0.0
  0
INSERT
  5
7EF
  8
4
  2
STDGX5
 10
893.30239991008784
 20
401.26431809256508
 30
0.0
  0
INSERT
  5
7F0
  8
4
  2
STDGX5
 10
753.7025007526795
 20
324.77159151314112
 30
0.0
  0
INSERT
  5
7F1
  8
0
  2
STDGX5
 10
915.50074300706444
 20
295.01299897331279
 30
0.0
  0
INSERT
  5
7F2
  8
0
  2
STDGX5
 10
915.50074300706444
 20
295.01299897331279
 30
0.0
  0
INSERT
  5
7F3
  8
4
  2
STDGX5
 10
753.6849542159257
 20
279.6619698311639
 30
0.0
  0
INSERT
  5
7F5
  8
0
  2
STDGX5
 10
630.94127642589001
 20
76.062195521984805
 30
0.0
  0
INSERT
  5
7F6
  8
0
  2
STDGX5
 10
630.94127642589001
 20
76.062195521984805
 30
0.0
  0
INSERT
  5
7F7
  8
0
  2
STDGX5
 10
905.9412764258899
 20
101.0622385219848
 30
0.0
  0
INSERT
  5
7F8
  8
0
  2
STDGX5
 10
905.9412764258899
 20
101.0622385219848
 30
0.0
  0
INSERT
  5
7F9
  8
0
  2
STDGX5
 10
947.98378183047896
 20
313.51199450896593
 30
0.0
  0
INSERT
  5
7FA
  8
0
  2
STDGX5
 10
947.98378183047896
 20
313.51199450896593
 30
0.0
  0
INSERT
  5
7FB
  8
0
  2
STDGX5
 10
965.06689723952366
 20
252.2670144686916
 30
0.0
  0
INSERT
  5
7FC
  8
0
  2
STDGX5
 10
965.06689723952366
 20
252.2670144686916
 30
0.0
  0
INSERT
  5
7FD
  8
0
  2
STDGX5
 10
987.17445773692043
 20
267.32725544520702
 30
0.0
  0
INSERT
  5
7FE
  8
0
  2
STDGX5
 10
987.17445773692043
 20
267.32725544520702
 30
0.0
  0
INSERT
  5
7FF
  8
4
  2
STDGX5
 10
1044.3623525630439
 20
448.87977940296679
 30
0.0
  0
INSERT
  5
800
  8
4
  2
STDGX5
 10
904.76245340563617
 20
372.38705282354277
 30
0.0
  0
INSERT
  5
801
  8
0
  2
STDGX5
 10
1066.5606956600211
 20
342.62846028371462
 30
0.0
  0
INSERT
  5
802
  8
0
  2
STDGX5
 10
1066.5606956600211
 20
342.62846028371462
 30
0.0
  0
INSERT
  5
803
  8
4
  2
STDGX5
 10
904.74490686888248
 20
327.27743114156573
 30
0.0
  0
INSERT
  5
805
  8
0
  2
STDGX5
 10
869.88132377293323
 20
298.44673421158302
 30
0.0
  0
INSERT
  5
806
  8
0
  2
STDGX5
 10
869.88132377293323
 20
298.44673421158302
 30
0.0
  0
INSERT
  5
807
  8
0
  2
STDGX5
 10
1144.881323772933
 20
323.44677721158303
 30
0.0
  0
INSERT
  5
808
  8
0
  2
STDGX5
 10
1144.881323772933
 20
323.44677721158303
 30
0.0
  0
INSERT
  5
809
  8
0
  2
STDGX5
 10
1186.9238291775221
 20
535.89653319856416
 30
0.0
  0
INSERT
  5
80A
  8
0
  2
STDGX5
 10
1186.9238291775221
 20
535.89653319856416
 30
0.0
  0
INSERT
  5
80B
  8
0
  2
STDGX5
 10
1204.006944586567
 20
474.65155315828991
 30
0.0
  0
INSERT
  5
80C
  8
0
  2
STDGX5
 10
1204.006944586567
 20
474.65155315828991
 30
0.0
  0
INSERT
  5
80D
  8
0
  2
STDGX5
 10
1226.1145050839641
 20
489.71179413480519
 30
0.0
  0
INSERT
  5
80E
  8
0
  2
STDGX5
 10
1226.1145050839641
 20
489.71179413480519
 30
0.0
  0
INSERT
  5
80F
  8
4
  2
STDGX5
 10
1283.3023999100881
 20
671.26431809256508
 30
0.0
  0
INSERT
  5
810
  8
4
  2
STDGX5
 10
1143.702500752679
 20
594.77159151314095
 30
0.0
  0
INSERT
  5
811
  8
0
  2
STDGX5
 10
1305.5007430070641
 20
565.01299897331285
 30
0.0
  0
INSERT
  5
812
  8
0
  2
STDGX5
 10
1305.5007430070641
 20
565.01299897331285
 30
0.0
  0
INSERT
  5
813
  8
4
  2
STDGX5
 10
1143.684954215925
 20
549.6619698311639
 30
0.0
  0
INSERT
  5
815
  8
0
  2
STDGX5
 10
869.88132377293323
 20
298.44673421158302
 30
0.0
  0
INSERT
  5
816
  8
0
  2
STDGX5
 10
869.88132377293323
 20
298.44673421158302
 30
0.0
  0
INSERT
  5
817
  8
0
  2
STDGX5
 10
1144.881323772933
 20
323.44677721158303
 30
0.0
  0
INSERT
  5
818
  8
0
  2
STDGX5
 10
1144.881323772933
 20
323.44677721158303
 30
0.0
  0
INSERT
  5
819
  8
0
  2
STDGX5
 10
1186.9238291775221
 20
535.89653319856416
 30
0.0
  0
INSERT
  5
81A
  8
0
  2
STDGX5
 10
1186.9238291775221
 20
535.89653319856416
 30
0.0
  0
INSERT
  5
81B
  8
0
  2
STDGX5
 10
1204.006944586567
 20
474.65155315828991
 30
0.0
  0
INSERT
  5
81C
  8
0
  2
STDGX5
 10
1204.006944586567
 20
474.65155315828991
 30
0.0
  0
INSERT
  5
81D
  8
0
  2
STDGX5
 10
1226.1145050839641
 20
489.71179413480519
 30
0.0
  0
INSERT
  5
81E
  8
0
  2
STDGX5
 10
1226.1145050839641
 20
489.71179413480519
 30
0.0
  0
INSERT
  5
81F
  8
4
  2
STDGX5
 10
1283.3023999100881
 20
671.26431809256508
 30
0.0
  0
INSERT
  5
820
  8
4
  2
STDGX5
 10
1143.702500752679
 20
594.77159151314095
 30
0.0
  0
INSERT
  5
821
  8
0
  2
STDGX5
 10
1305.5007430070641
 20
565.01299897331285
 30
0.0
  0
INSERT
  5
822
  8
0
  2
STDGX5
 10
1305.5007430070641
 20
565.01299897331285
 30
0.0
  0
INSERT
  5
823
  8
4
  2
STDGX5
 10
1143.684954215925
 20
549.6619698311639
 30
0.0
  0
INSERT
  5
825
  8
0
  2
STDGX5
 10
869.88132377293323
 20
53.44677721158304
 30
0.0
  0
INSERT
  5
826
  8
0
  2
STDGX5
 10
869.88132377293323
 20
53.44677721158304
 30
0.0
  0
INSERT
  5
827
  8
0
  2
STDGX5
 10
1144.881323772933
 20
78.446820211583031
 30
0.0
  0
INSERT
  5
828
  8
0
  2
STDGX5
 10
1144.881323772933
 20
78.446820211583031
 30
0.0
  0
INSERT
  5
829
  8
0
  2
STDGX5
 10
1186.9238291775221
 20
290.89657619856411
 30
0.0
  0
INSERT
  5
82A
  8
0
  2
STDGX5
 10
1186.9238291775221
 20
290.89657619856411
 30
0.0
  0
INSERT
  5
82B
  8
0
  2
STDGX5
 10
1204.006944586567
 20
229.65159615828981
 30
0.0
  0
INSERT
  5
82C
  8
0
  2
STDGX5
 10
1204.006944586567
 20
229.65159615828981
 30
0.0
  0
INSERT
  5
82D
  8
0
  2
STDGX5
 10
1226.1145050839641
 20
244.71183713480519
 30
0.0
  0
INSERT
  5
82E
  8
0
  2
STDGX5
 10
1226.1145050839641
 20
244.71183713480519
 30
0.0
  0
INSERT
  5
82F
  8
4
  2
STDGX5
 10
1283.3023999100881
 20
426.26436109256508
 30
0.0
  0
INSERT
  5
830
  8
4
  2
STDGX5
 10
1143.702500752679
 20
349.77163451314112
 30
0.0
  0
INSERT
  5
831
  8
0
  2
STDGX5
 10
1305.5007430070641
 20
320.0130419733128
 30
0.0
  0
INSERT
  5
832
  8
0
  2
STDGX5
 10
1305.5007430070641
 20
320.0130419733128
 30
0.0
  0
INSERT
  5
834
  8
4
  2
STDGX5
 10
1143.684954215925
 20
304.66201283116391
 30
0.0
  0
INSERT
  5
836
  8
4
  2
STDGX5
 10
869.88132377293323
 20
53.446777211583033
 30
0.0
  0
INSERT
  5
9D9
  8
0
  2
STDGX5
 10
199.36263560255259
 20
20.26654363527587
 30
0.0
  0
INSERT
  5
9DA
  8
0
  2
STDGX5
 10
199.36263560255259
 20
20.26654363527587
 30
0.0
  0
INSERT
  5
9F6
  8
0
  2
STDGX5
 10
474.36263560255259
 20
45.266586635275857
 30
0.0
  0
INSERT
  5
9F7
  8
0
  2
STDGX5
 10
474.36263560255259
 20
45.266586635275857
 30
0.0
  0
INSERT
  5
9F8
  8
0
  2
STDGX5
 10
516.40514100714165
 20
257.716342622257
 30
0.0
  0
INSERT
  5
9F9
  8
0
  2
STDGX5
 10
516.40514100714165
 20
257.716342622257
 30
0.0
  0
INSERT
  5
9FA
  8
0
  2
STDGX5
 10
533.48825641618635
 20
196.4713625819827
 30
0.0
  0
INSERT
  5
9FB
  8
0
  2
STDGX5
 10
533.48825641618635
 20
196.4713625819827
 30
0.0
  0
INSERT
  5
9FC
  8
0
  2
STDGX5
 10
555.59581691358301
 20
211.53160355849809
 30
0.0
  0
INSERT
  5
9FD
  8
0
  2
STDGX5
 10
555.59581691358301
 20
211.53160355849809
 30
0.0
  0
INSERT
  5
9FE
  8
4
  2
STDGX5
 10
612.78371173970709
 20
393.08412751625792
 30
0.0
  0
INSERT
  5
A00
  8
4
  2
STDGX5
 10
473.1838125822988
 20
316.59140093683391
 30
0.0
  0
INSERT
  5
A04
  8
0
  2
STDGX5
 10
634.98205483668391
 20
286.83280839700569
 30
0.0
  0
INSERT
  5
A05
  8
0
  2
STDGX5
 10
634.98205483668391
 20
286.83280839700569
 30
0.0
  0
INSERT
  5
A08
  8
4
  2
STDGX5
 10
473.166266045545
 20
271.4817792548568
 30
0.0
  0
INSERT
  5
A19
  8
4
  2
STDGX5
 10
474.36263560255259
 20
45.266586837692792
 30
0.0
  0
INSERT
  5
A7F
  8
0
  2
STDGX5
 10
474.36263560255259
 20
45.266586837692792
 30
0.0
  0
INSERT
  5
A80
  8
0
  2
STDGX5
 10
474.36263560255259
 20
45.266586837692792
 30
0.0
  0
INSERT
  5
A81
  8
0
  2
STDGX5
 10
749.36263560255259
 20
70.26662983769279
 30
0.0
  0
INSERT
  5
A82
  8
0
  2
STDGX5
 10
749.36263560255259
 20
70.26662983769279
 30
0.0
  0
INSERT
  5
A83
  8
0
  2
STDGX5
 10
791.40514100714165
 20
282.71638582467392
 30
0.0
  0
INSERT
  5
A84
  8
0
  2
STDGX5
 10
791.40514100714165
 20
282.71638582467392
 30
0.0
  0
INSERT
  5
A85
  8
0
  2
STDGX5
 10
808.48825641618635
 20
221.47140578439959
 30
0.0
  0
INSERT
  5
A86
  8
0
  2
STDGX5
 10
808.48825641618635
 20
221.47140578439959
 30
0.0
  0
INSERT
  5
A87
  8
0
  2
STDGX5
 10
830.59581691358312
 20
236.53164676091501
 30
0.0
  0
INSERT
  5
A88
  8
0
  2
STDGX5
 10
830.59581691358312
 20
236.53164676091501
 30
0.0
  0
INSERT
  5
A89
  8
4
  2
STDGX5
 10
887.7837117397072
 20
418.08417071867478
 30
0.0
  0
INSERT
  5
A8A
  8
4
  2
STDGX5
 10
748.18381258229886
 20
341.59144413925083
 30
0.0
  0
INSERT
  5
A8B
  8
0
  2
STDGX5
 10
909.98205483668391
 20
311.83285159942261
 30
0.0
  0
INSERT
  5
A8C
  8
0
  2
STDGX5
 10
909.98205483668391
 20
311.83285159942261
 30
0.0
  0
INSERT
  5
A8D
  8
4
  2
STDGX5
 10
748.16626604554494
 20
296.48182245727361
 30
0.0
  0
INSERT
  5
A8F
  8
0
  2
STDGX5
 10
625.42258825550925
 20
92.882048148094569
 30
0.0
  0
INSERT
  5
A90
  8
0
  2
STDGX5
 10
625.42258825550925
 20
92.882048148094569
 30
0.0
  0
INSERT
  5
A91
  8
0
  2
STDGX5
 10
900.42258825550925
 20
117.8820911480946
 30
0.0
  0
INSERT
  5
A92
  8
0
  2
STDGX5
 10
900.42258825550925
 20
117.8820911480946
 30
0.0
  0
INSERT
  5
A93
  8
0
  2
STDGX5
 10
942.46509366009843
 20
330.33184713507569
 30
0.0
  0
INSERT
  5
A94
  8
0
  2
STDGX5
 10
942.46509366009843
 20
330.33184713507569
 30
0.0
  0
INSERT
  5
A95
  8
0
  2
STDGX5
 10
959.54820906914313
 20
269.08686709480139
 30
0.0
  0
INSERT
  5
A96
  8
0
  2
STDGX5
 10
959.54820906914313
 20
269.08686709480139
 30
0.0
  0
INSERT
  5
A97
  8
0
  2
STDGX5
 10
981.65576956653979
 20
284.14710807131678
 30
0.0
  0
INSERT
  5
A98
  8
0
  2
STDGX5
 10
981.65576956653979
 20
284.14710807131678
 30
0.0
  0
INSERT
  5
A99
  8
4
  2
STDGX5
 10
1038.8436643926641
 20
465.6996320290765
 30
0.0
  0
INSERT
  5
A9A
  8
4
  2
STDGX5
 10
899.24376523525564
 20
389.2069054496526
 30
0.0
  0
INSERT
  5
A9B
  8
0
  2
STDGX5
 10
1061.0420074896399
 20
359.44831290982438
 30
0.0
  0
INSERT
  5
A9C
  8
0
  2
STDGX5
 10
1061.0420074896399
 20
359.44831290982438
 30
0.0
  0
INSERT
  5
A9D
  8
4
  2
STDGX5
 10
899.22621869850173
 20
344.09728376767538
 30
0.0
  0
INSERT
  5
A9F
  8
0
  2
STDGX5
 10
864.36263560255259
 20
315.26658683769278
 30
0.0
  0
INSERT
  5
AA0
  8
0
  2
STDGX5
 10
864.36263560255259
 20
315.26658683769278
 30
0.0
  0
INSERT
  5
AA1
  8
0
  2
STDGX5
 10
1139.362635602552
 20
340.26662983769279
 30
0.0
  0
INSERT
  5
AA2
  8
0
  2
STDGX5
 10
1139.362635602552
 20
340.26662983769279
 30
0.0
  0
INSERT
  5
AA3
  8
0
  2
STDGX5
 10
1181.4051410071411
 20
552.71638582467392
 30
0.0
  0
INSERT
  5
AA4
  8
0
  2
STDGX5
 10
1181.4051410071411
 20
552.71638582467392
 30
0.0
  0
INSERT
  5
AA5
  8
0
  2
STDGX5
 10
1198.488256416186
 20
491.47140578439962
 30
0.0
  0
INSERT
  5
AA6
  8
0
  2
STDGX5
 10
1198.488256416186
 20
491.47140578439962
 30
0.0
  0
INSERT
  5
AA7
  8
0
  2
STDGX5
 10
1220.5958169135829
 20
506.5316467609149
 30
0.0
  0
INSERT
  5
AA8
  8
0
  2
STDGX5
 10
1220.5958169135829
 20
506.5316467609149
 30
0.0
  0
INSERT
  5
AA9
  8
4
  2
STDGX5
 10
1277.7837117397071
 20
688.08417071867484
 30
0.0
  0
INSERT
  5
AAA
  8
4
  2
STDGX5
 10
1138.1838125822981
 20
611.59144413925083
 30
0.0
  0
INSERT
  5
AAB
  8
0
  2
STDGX5
 10
1299.982054836684
 20
581.83285159942261
 30
0.0
  0
INSERT
  5
AAC
  8
0
  2
STDGX5
 10
1299.982054836684
 20
581.83285159942261
 30
0.0
  0
INSERT
  5
AAD
  8
4
  2
STDGX5
 10
1138.1662660455449
 20
566.48182245727355
 30
0.0
  0
INSERT
  5
AAF
  8
0
  2
STDGX5
 10
864.36263560255259
 20
315.26658683769278
 30
0.0
  0
INSERT
  5
AB0
  8
0
  2
STDGX5
 10
864.36263560255259
 20
315.26658683769278
 30
0.0
  0
INSERT
  5
AB1
  8
0
  2
STDGX5
 10
1139.362635602552
 20
340.26662983769279
 30
0.0
  0
INSERT
  5
AB2
  8
0
  2
STDGX5
 10
1139.362635602552
 20
340.26662983769279
 30
0.0
  0
INSERT
  5
AB3
  8
0
  2
STDGX5
 10
1181.4051410071411
 20
552.71638582467392
 30
0.0
  0
INSERT
  5
AB4
  8
0
  2
STDGX5
 10
1181.4051410071411
 20
552.71638582467392
 30
0.0
  0
INSERT
  5
AB5
  8
0
  2
STDGX5
 10
1198.488256416186
 20
491.47140578439962
 30
0.0
  0
INSERT
  5
AB6
  8
0
  2
STDGX5
 10
1198.488256416186
 20
491.47140578439962
 30
0.0
  0
INSERT
  5
AB7
  8
0
  2
STDGX5
 10
1220.5958169135829
 20
506.5316467609149
 30
0.0
  0
INSERT
  5
AB8
  8
0
  2
STDGX5
 10
1220.5958169135829
 20
506.5316467609149
 30
0.0
  0
INSERT
  5
AB9
  8
4
  2
STDGX5
 10
1277.7837117397071
 20
688.08417071867484
 30
0.0
  0
INSERT
  5
ABA
  8
4
  2
STDGX5
 10
1138.1838125822981
 20
611.59144413925083
 30
0.0
  0
INSERT
  5
ABB
  8
0
  2
STDGX5
 10
1299.982054836684
 20
581.83285159942261
 30
0.0
  0
INSERT
  5
ABC
  8
0
  2
STDGX5
 10
1299.982054836684
 20
581.83285159942261
 30
0.0
  0
INSERT
  5
ABD
  8
4
  2
STDGX5
 10
1138.1662660455449
 20
566.48182245727355
 30
0.0
  0
INSERT
  5
ABF
  8
0
  2
STDGX5
 10
864.36263560255259
 20
70.266629837692804
 30
0.0
  0
INSERT
  5
AC0
  8
0
  2
STDGX5
 10
864.36263560255259
 20
70.266629837692804
 30
0.0
  0
INSERT
  5
AC1
  8
0
  2
STDGX5
 10
1139.362635602552
 20
95.266672837692795
 30
0.0
  0
INSERT
  5
AC2
  8
0
  2
STDGX5
 10
1139.362635602552
 20
95.266672837692795
 30
0.0
  0
INSERT
  5
AC3
  8
0
  2
STDGX5
 10
1181.4051410071411
 20
307.71642882467393
 30
0.0
  0
INSERT
  5
AC4
  8
0
  2
STDGX5
 10
1181.4051410071411
 20
307.71642882467393
 30
0.0
  0
INSERT
  5
AC5
  8
0
  2
STDGX5
 10
1198.488256416186
 20
246.4714487843996
 30
0.0
  0
INSERT
  5
AC6
  8
0
  2
STDGX5
 10
1198.488256416186
 20
246.4714487843996
 30
0.0
  0
INSERT
  5
AC7
  8
0
  2
STDGX5
 10
1220.5958169135829
 20
261.53168976091501
 30
0.0
  0
INSERT
  5
AC8
  8
0
  2
STDGX5
 10
1220.5958169135829
 20
261.53168976091501
 30
0.0
  0
INSERT
  5
AC9
  8
4
  2
STDGX5
 10
1277.7837117397071
 20
443.08421371867479
 30
0.0
  0
INSERT
  5
ACA
  8
4
  2
STDGX5
 10
1138.1838125822981
 20
366.59148713925077
 30
0.0
  0
INSERT
  5
ACB
  8
0
  2
STDGX5
 10
1299.982054836684
 20
336.83289459942262
 30
0.0
  0
INSERT
  5
ACC
  8
0
  2
STDGX5
 10
1299.982054836684
 20
336.83289459942262
 30
0.0
  0
INSERT
  5
ACE
  8
4
  2
STDGX5
 10
1138.1662660455449
 20
321.48186545727373
 30
0.0
  0
INSERT
  5
AD0
  8
4
  2
STDGX5
 10
864.36263560255259
 20
70.26662983769279
 30
0.0
  0
INSERT
  5
C8C
  8
0
  2
STDGX5
 10
200.46637385780471
 20
10.064337268071769
 30
0.0
  0
INSERT
  5
C8D
  8
0
  2
STDGX5
 10
200.46637385780471
 20
10.064337268071769
 30
0.0
  0
INSERT
  5
CA9
  8
0
  2
STDGX5
 10
475.46637385780463
 20
35.064380268071773
 30
0.0
  0
INSERT
  5
CAA
  8
0
  2
STDGX5
 10
475.46637385780463
 20
35.064380268071773
 30
0.0
  0
INSERT
  5
CAB
  8
0
  2
STDGX5
 10
517.50887926239375
 20
247.5141362550529
 30
0.0
  0
INSERT
  5
CAC
  8
0
  2
STDGX5
 10
517.50887926239375
 20
247.5141362550529
 30
0.0
  0
INSERT
  5
CAD
  8
0
  2
STDGX5
 10
534.59199467143844
 20
186.2691562147786
 30
0.0
  0
INSERT
  5
CAE
  8
0
  2
STDGX5
 10
534.59199467143844
 20
186.2691562147786
 30
0.0
  0
INSERT
  5
CAF
  8
0
  2
STDGX5
 10
556.6995551688351
 20
201.32939719129399
 30
0.0
  0
INSERT
  5
CB0
  8
0
  2
STDGX5
 10
556.6995551688351
 20
201.32939719129399
 30
0.0
  0
INSERT
  5
CB1
  8
4
  2
STDGX5
 10
613.8874499949593
 20
382.88192114905382
 30
0.0
  0
INSERT
  5
CB2
  8
4
  2
STDGX5
 10
474.2875508375509
 20
306.38919456962981
 30
0.0
  0
INSERT
  5
CB3
  8
0
  2
STDGX5
 10
636.08579309193601
 20
276.63060202980159
 30
0.0
  0
INSERT
  5
CB4
  8
0
  2
STDGX5
 10
636.08579309193601
 20
276.63060202980159
 30
0.0
  0
INSERT
  5
CC3
  8
4
  2
STDGX5
 10
474.2700043007971
 20
261.27957288765259
 30
0.0
  0
INSERT
  5
D08
  8
0
  2
STDGX5
 10
475.46637385780463
 20
35.0643804704887
 30
0.0
  0
INSERT
  5
D09
  8
0
  2
STDGX5
 10
475.46637385780463
 20
35.0643804704887
 30
0.0
  0
INSERT
  5
D0A
  8
0
  2
STDGX5
 10
750.46637385780457
 20
60.064423470488698
 30
0.0
  0
INSERT
  5
D0B
  8
0
  2
STDGX5
 10
750.46637385780457
 20
60.064423470488698
 30
0.0
  0
INSERT
  5
D0C
  8
0
  2
STDGX5
 10
792.50887926239375
 20
272.51417945746982
 30
0.0
  0
INSERT
  5
D0D
  8
0
  2
STDGX5
 10
792.50887926239375
 20
272.51417945746982
 30
0.0
  0
INSERT
  5
D0E
  8
0
  2
STDGX5
 10
809.59199467143856
 20
211.26919941719549
 30
0.0
  0
INSERT
  5
D0F
  8
0
  2
STDGX5
 10
809.59199467143856
 20
211.26919941719549
 30
0.0
  0
INSERT
  5
D10
  8
0
  2
STDGX5
 10
831.69955516883499
 20
226.32944039371091
 30
0.0
  0
INSERT
  5
D11
  8
0
  2
STDGX5
 10
831.69955516883499
 20
226.32944039371091
 30
0.0
  0
INSERT
  5
D12
  8
4
  2
STDGX5
 10
888.88744999495918
 20
407.88196435147069
 30
0.0
  0
INSERT
  5
D13
  8
4
  2
STDGX5
 10
749.28755083755095
 20
331.38923777204673
 30
0.0
  0
INSERT
  5
D14
  8
0
  2
STDGX5
 10
911.08579309193601
 20
301.63064523221851
 30
0.0
  0
INSERT
  5
D15
  8
0
  2
STDGX5
 10
911.08579309193601
 20
301.63064523221851
 30
0.0
  0
INSERT
  5
D16
  8
4
  2
STDGX5
 10
749.27000430079715
 20
286.27961609006962
 30
0.0
  0
INSERT
  5
D18
  8
0
  2
STDGX5
 10
626.52632651076135
 20
82.67984178089047
 30
0.0
  0
INSERT
  5
D19
  8
0
  2
STDGX5
 10
626.52632651076135
 20
82.67984178089047
 30
0.0
  0
INSERT
  5
D1A
  8
0
  2
STDGX5
 10
901.52632651076135
 20
107.6798847808905
 30
0.0
  0
INSERT
  5
D1B
  8
0
  2
STDGX5
 10
901.52632651076135
 20
107.6798847808905
 30
0.0
  0
INSERT
  5
D1C
  8
0
  2
STDGX5
 10
943.56883191535064
 20
320.12964076787159
 30
0.0
  0
INSERT
  5
D1D
  8
0
  2
STDGX5
 10
943.56883191535064
 20
320.12964076787159
 30
0.0
  0
INSERT
  5
D1E
  8
0
  2
STDGX5
 10
960.65194732439522
 20
258.88466072759729
 30
0.0
  0
INSERT
  5
D1F
  8
0
  2
STDGX5
 10
960.65194732439522
 20
258.88466072759729
 30
0.0
  0
INSERT
  5
D20
  8
0
  2
STDGX5
 10
982.75950782179189
 20
273.94490170411268
 30
0.0
  0
INSERT
  5
D21
  8
0
  2
STDGX5
 10
982.75950782179189
 20
273.94490170411268
 30
0.0
  0
INSERT
  5
D22
  8
4
  2
STDGX5
 10
1039.9474026479161
 20
455.49742566187251
 30
0.0
  0
INSERT
  5
D23
  8
4
  2
STDGX5
 10
900.34750349050773
 20
379.0046990824485
 30
0.0
  0
INSERT
  5
D24
  8
0
  2
STDGX5
 10
1062.145745744893
 20
349.24610654262028
 30
0.0
  0
INSERT
  5
D25
  8
0
  2
STDGX5
 10
1062.145745744893
 20
349.24610654262028
 30
0.0
  0
INSERT
  5
D26
  8
4
  2
STDGX5
 10
900.32995695375394
 20
333.89507740047128
 30
0.0
  0
INSERT
  5
D28
  8
0
  2
STDGX5
 10
865.46637385780468
 20
305.06438047048869
 30
0.0
  0
INSERT
  5
D29
  8
0
  2
STDGX5
 10
865.46637385780468
 20
305.06438047048869
 30
0.0
  0
INSERT
  5
D2A
  8
0
  2
STDGX5
 10
1140.4663738578049
 20
330.06442347048869
 30
0.0
  0
INSERT
  5
D2B
  8
0
  2
STDGX5
 10
1140.4663738578049
 20
330.06442347048869
 30
0.0
  0
INSERT
  5
D2C
  8
0
  2
STDGX5
 10
1182.5088792623931
 20
542.51417945746982
 30
0.0
  0
INSERT
  5
D2D
  8
0
  2
STDGX5
 10
1182.5088792623931
 20
542.51417945746982
 30
0.0
  0
INSERT
  5
D2E
  8
0
  2
STDGX5
 10
1199.591994671438
 20
481.26919941719552
 30
0.0
  0
INSERT
  5
D2F
  8
0
  2
STDGX5
 10
1199.591994671438
 20
481.26919941719552
 30
0.0
  0
INSERT
  5
D30
  8
0
  2
STDGX5
 10
1221.6995551688351
 20
496.3294403937108
 30
0.0
  0
INSERT
  5
D31
  8
0
  2
STDGX5
 10
1221.6995551688351
 20
496.3294403937108
 30
0.0
  0
INSERT
  5
D32
  8
4
  2
STDGX5
 10
1278.8874499949591
 20
677.88196435147074
 30
0.0
  0
INSERT
  5
D33
  8
4
  2
STDGX5
 10
1139.287550837551
 20
601.38923777204673
 30
0.0
  0
INSERT
  5
D34
  8
0
  2
STDGX5
 10
1301.085793091936
 20
571.63064523221851
 30
0.0
  0
INSERT
  5
D35
  8
0
  2
STDGX5
 10
1301.085793091936
 20
571.63064523221851
 30
0.0
  0
INSERT
  5
D36
  8
4
  2
STDGX5
 10
1139.2700043007969
 20
556.27961609006945
 30
0.0
  0
INSERT
  5
D38
  8
0
  2
STDGX5
 10
865.46637385780468
 20
305.06438047048869
 30
0.0
  0
INSERT
  5
D39
  8
0
  2
STDGX5
 10
865.46637385780468
 20
305.06438047048869
 30
0.0
  0
INSERT
  5
D3A
  8
0
  2
STDGX5
 10
1140.4663738578049
 20
330.06442347048869
 30
0.0
  0
INSERT
  5
D3B
  8
0
  2
STDGX5
 10
1140.4663738578049
 20
330.06442347048869
 30
0.0
  0
INSERT
  5
D3C
  8
0
  2
STDGX5
 10
1182.5088792623931
 20
542.51417945746982
 30
0.0
  0
INSERT
  5
D3D
  8
0
  2
STDGX5
 10
1182.5088792623931
 20
542.51417945746982
 30
0.0
  0
INSERT
  5
D3E
  8
0
  2
STDGX5
 10
1199.591994671438
 20
481.26919941719552
 30
0.0
  0
INSERT
  5
D3F
  8
0
  2
STDGX5
 10
1199.591994671438
 20
481.26919941719552
 30
0.0
  0
INSERT
  5
D40
  8
0
  2
STDGX5
 10
1221.6995551688351
 20
496.3294403937108
 30
0.0
  0
INSERT
  5
D41
  8
0
  2
STDGX5
 10
1221.6995551688351
 20
496.3294403937108
 30
0.0
  0
INSERT
  5
D42
  8
4
  2
STDGX5
 10
1278.8874499949591
 20
677.88196435147074
 30
0.0
  0
INSERT
  5
D43
  8
4
  2
STDGX5
 10
1139.287550837551
 20
601.38923777204673
 30
0.0
  0
INSERT
  5
D44
  8
0
  2
STDGX5
 10
1301.085793091936
 20
571.63064523221851
 30
0.0
  0
INSERT
  5
D45
  8
0
  2
STDGX5
 10
1301.085793091936
 20
571.63064523221851
 30
0.0
  0
INSERT
  5
D46
  8
4
  2
STDGX5
 10
1139.2700043007969
 20
556.27961609006945
 30
0.0
  0
INSERT
  5
D48
  8
0
  2
STDGX5
 10
865.46637385780468
 20
60.064423470488713
 30
0.0
  0
INSERT
  5
D49
  8
0
  2
STDGX5
 10
865.46637385780468
 20
60.064423470488713
 30
0.0
  0
INSERT
  5
D4A
  8
0
  2
STDGX5
 10
1140.4663738578049
 20
85.064466470488696
 30
0.0
  0
INSERT
  5
D4B
  8
0
  2
STDGX5
 10
1140.4663738578049
 20
85.064466470488696
 30
0.0
  0
INSERT
  5
D4C
  8
0
  2
STDGX5
 10
1182.5088792623931
 20
297.51422245746983
 30
0.0
  0
INSERT
  5
D4D
  8
0
  2
STDGX5
 10
1182.5088792623931
 20
297.51422245746983
 30
0.0
  0
INSERT
  5
D4E
  8
0
  2
STDGX5
 10
1199.591994671438
 20
236.2692424171955
 30
0.0
  0
INSERT
  5
D4F
  8
0
  2
STDGX5
 10
1199.591994671438
 20
236.2692424171955
 30
0.0
  0
INSERT
  5
D50
  8
0
  2
STDGX5
 10
1221.6995551688351
 20
251.32948339371089
 30
0.0
  0
INSERT
  5
D51
  8
0
  2
STDGX5
 10
1221.6995551688351
 20
251.32948339371089
 30
0.0
  0
INSERT
  5
D52
  8
4
  2
STDGX5
 10
1278.8874499949591
 20
432.88200735147069
 30
0.0
  0
INSERT
  5
D53
  8
4
  2
STDGX5
 10
1139.287550837551
 20
356.38928077204667
 30
0.0
  0
INSERT
  5
D54
  8
0
  2
STDGX5
 10
1301.085793091936
 20
326.63068823221852
 30
0.0
  0
INSERT
  5
D55
  8
0
  2
STDGX5
 10
1301.085793091936
 20
326.63068823221852
 30
0.0
  0
INSERT
  5
D57
  8
4
  2
STDGX5
 10
1139.2700043007969
 20
311.27965909006957
 30
0.0
  0
INSERT
  5
D85
  8
4
  2
STDGX5
 10
865.46637385780468
 20
60.064423470488698
 30
0.0
  0
INSERT
  5
D8D
  8
0
  2
STDGX5
 10
475.46637385780463
 20
35.0643804704887
 30
0.0
  0
INSERT
  5
D8E
  8
0
  2
STDGX5
 10
475.46637385780463
 20
35.0643804704887
 30
0.0
  0
INSERT
  5
D8F
  8
0
  2
STDGX5
 10
750.46637385780457
 20
60.064423470488698
 30
0.0
  0
INSERT
  5
D90
  8
0
  2
STDGX5
 10
750.46637385780457
 20
60.064423470488698
 30
0.0
  0
INSERT
  5
D91
  8
0
  2
STDGX5
 10
792.50887926239375
 20
272.51417945746982
 30
0.0
  0
INSERT
  5
D92
  8
0
  2
STDGX5
 10
792.50887926239375
 20
272.51417945746982
 30
0.0
  0
INSERT
  5
D93
  8
0
  2
STDGX5
 10
809.59199467143856
 20
211.26919941719549
 30
0.0
  0
INSERT
  5
D94
  8
0
  2
STDGX5
 10
809.59199467143856
 20
211.26919941719549
 30
0.0
  0
INSERT
  5
D95
  8
0
  2
STDGX5
 10
831.69955516883499
 20
226.32944039371091
 30
0.0
  0
INSERT
  5
D96
  8
0
  2
STDGX5
 10
831.69955516883499
 20
226.32944039371091
 30
0.0
  0
INSERT
  5
D97
  8
4
  2
STDGX5
 10
888.88744999495918
 20
407.88196435147069
 30
0.0
  0
INSERT
  5
D98
  8
4
  2
STDGX5
 10
749.28755083755095
 20
331.38923777204673
 30
0.0
  0
INSERT
  5
D99
  8
0
  2
STDGX5
 10
911.08579309193601
 20
301.63064523221851
 30
0.0
  0
INSERT
  5
D9A
  8
0
  2
STDGX5
 10
911.08579309193601
 20
301.63064523221851
 30
0.0
  0
INSERT
  5
D9B
  8
4
  2
STDGX5
 10
749.27000430079715
 20
286.27961609006962
 30
0.0
  0
INSERT
  5
FBB
  8
0
  2
STDGX5
 10
193.29207843797479
 20
18.060662009829681
 30
0.0
  0
INSERT
  5
FBC
  8
0
  2
STDGX5
 10
193.29207843797479
 20
18.060662009829681
 30
0.0
  0
INSERT
  5
FD8
  8
0
  2
STDGX5
 10
468.29207843797479
 20
43.060705009829682
 30
0.0
  0
INSERT
  5
FD9
  8
0
  2
STDGX5
 10
468.29207843797479
 20
43.060705009829682
 30
0.0
  0
INSERT
  5
FDA
  8
0
  2
STDGX5
 10
510.33458384256392
 20
255.51046099681079
 30
0.0
  0
INSERT
  5
FDB
  8
0
  2
STDGX5
 10
510.33458384256392
 20
255.51046099681079
 30
0.0
  0
INSERT
  5
FDC
  8
0
  2
STDGX5
 10
527.4176992516085
 20
194.26548095653649
 30
0.0
  0
INSERT
  5
FDD
  8
0
  2
STDGX5
 10
527.4176992516085
 20
194.26548095653649
 30
0.0
  0
INSERT
  5
FDE
  8
0
  2
STDGX5
 10
549.52525974900516
 20
209.32572193305191
 30
0.0
  0
INSERT
  5
FDF
  8
0
  2
STDGX5
 10
549.52525974900516
 20
209.32572193305191
 30
0.0
  0
INSERT
  5
FE0
  8
4
  2
STDGX5
 10
606.71315457512935
 20
390.8782458908118
 30
0.0
  0
INSERT
  5
FE1
  8
4
  2
STDGX5
 10
467.11325541772112
 20
314.38551931138772
 30
0.0
  0
INSERT
  5
FE2
  8
0
  2
STDGX5
 10
628.91149767210607
 20
284.62692677155951
 30
0.0
  0
INSERT
  5
FE3
  8
0
  2
STDGX5
 10
628.91149767210607
 20
284.62692677155951
 30
0.0
  0
INSERT
  5
FE5
  8
4
  2
STDGX5
 10
467.09570888096721
 20
269.27589762941051
 30
0.0
  0
CIRCLE
  5
FE6
  8
0
 10
44.03121464778576
 20
75.670731955512053
 30
0.0
 40
24.000000000003009
  0
CIRCLE
  5
FE7
  8
0
 10
44.03121464778576
 20
75.670731955512053
 30
0.0
 40
17.499999999999741
  0
ARC
  5
FE8
  8
0
 10
44.03121464778576
 20
74.79573195551211
 30
0.0
 40
15.875
 50
299.2283546710845
 51
240.7716453289149
  0
CIRCLE
  5
FE9
  8
0
 10
44.03121464778576
 20
75.670731955512053
 30
0.0
 40
7.5
  0
LINE
  5
FEA
  8
0
 10
49.85746569283048
 20
62.290092613364088
 30
0.0
 11
51.782843688660023
 21
60.941928426781153
 31
0.0
  0
CIRCLE
  5
FEB
  8
0
 10
48.710312820128358
 20
60.651788524786127
 30
0.0
 40
1.25
  0
ARC
  5
FEC
  8
0
 10
48.710312820128358
 20
60.651788524786127
 30
0.0
 40
2.0
 50
54.99993670022004
 51
190.00002690570111
  0
LINE
  5
FED
  8
0
 10
38.204963602741032
 20
62.290092613364088
 30
0.0
 11
36.279585606911503
 21
60.941928426781153
 31
0.0
  0
CIRCLE
  5
FEE
  8
0
 10
39.352116475443161
 20
60.651788524786127
 30
0.0
 40
1.25
  0
ARC
  5
FEF
  8
0
 10
39.352116475443161
 20
60.651788524786127
 30
0.0
 40
2.0
 50
349.99997309429892
 51
125.0000632997799
  0
LINE
  5
FF0
  8
0
 10
41.321731818379583
 20
60.304491244534681
 30
0.0
 11
40.9923715386144
 21
58.436596277798337
 31
0.0
  0
LINE
  5
FF1
  8
0
 10
46.740697477191929
 20
60.304491244534681
 30
0.0
 11
47.070057756957112
 21
58.436596277798337
 31
0.0
  0
LINE
  5
FFB
  8
1
 10
73.031214647788772
 20
75.670731955512053
 30
0.0
 11
15.03121464778274
 21
75.670731955512053
 31
0.0
  0
LINE
  5
FFC
  8
1
 10
44.03121464778576
 20
104.670731955515
 30
0.0
 11
44.03121464778576
 21
46.670731955509041
 31
0.0
  0
LINE
  5
FFD
  8
1
 10
98.515928151673066
 20
75.670731955515066
 30
0.0
 11
157.51592815167291
 21
75.670731955515066
 31
0.0
  0
LINE
  5
FFE
  8
1
 10
128.01592815167291
 20
104.67073195551509
 30
0.0
 11
128.01592815167291
 21
46.670731955515059
 31
0.0
  0
INSERT
  5
1034
  8
0
  2
STDGX5
 10
468.29207843797479
 20
43.06070521224661
 30
0.0
  0
INSERT
  5
1035
  8
0
  2
STDGX5
 10
468.29207843797479
 20
43.06070521224661
 30
0.0
  0
INSERT
  5
1036
  8
0
  2
STDGX5
 10
743.29207843797485
 20
68.060748212246608
 30
0.0
  0
INSERT
  5
1037
  8
0
  2
STDGX5
 10
743.29207843797485
 20
68.060748212246608
 30
0.0
  0
INSERT
  5
1038
  8
0
  2
STDGX5
 10
785.33458384256392
 20
280.51050419922768
 30
0.0
  0
INSERT
  5
1039
  8
0
  2
STDGX5
 10
785.33458384256392
 20
280.51050419922768
 30
0.0
  0
INSERT
  5
103A
  8
0
  2
STDGX5
 10
802.4176992516085
 20
219.26552415895341
 30
0.0
  0
INSERT
  5
103B
  8
0
  2
STDGX5
 10
802.4176992516085
 20
219.26552415895341
 30
0.0
  0
INSERT
  5
103C
  8
0
  2
STDGX5
 10
824.52525974900516
 20
234.3257651354688
 30
0.0
  0
INSERT
  5
103D
  8
0
  2
STDGX5
 10
824.52525974900516
 20
234.3257651354688
 30
0.0
  0
INSERT
  5
103E
  8
4
  2
STDGX5
 10
881.71315457512935
 20
415.8782890932286
 30
0.0
  0
INSERT
  5
103F
  8
4
  2
STDGX5
 10
742.11325541772112
 20
339.38556251380459
 30
0.0
  0
INSERT
  5
1040
  8
0
  2
STDGX5
 10
903.91149767210618
 20
309.62696997397637
 30
0.0
  0
INSERT
  5
1041
  8
0
  2
STDGX5
 10
903.91149767210618
 20
309.62696997397637
 30
0.0
  0
INSERT
  5
1042
  8
4
  2
STDGX5
 10
742.09570888096721
 20
294.27594083182748
 30
0.0
  0
INSERT
  5
1044
  8
0
  2
STDGX5
 10
619.35203109093163
 20
90.676166522648387
 30
0.0
  0
INSERT
  5
1045
  8
0
  2
STDGX5
 10
619.35203109093163
 20
90.676166522648387
 30
0.0
  0
INSERT
  5
1046
  8
0
  2
STDGX5
 10
894.35203109093175
 20
115.67620952264841
 30
0.0
  0
INSERT
  5
1047
  8
0
  2
STDGX5
 10
894.35203109093175
 20
115.67620952264841
 30
0.0
  0
INSERT
  5
1048
  8
0
  2
STDGX5
 10
936.39453649552058
 20
328.12596550962951
 30
0.0
  0
INSERT
  5
1049
  8
0
  2
STDGX5
 10
936.39453649552058
 20
328.12596550962951
 30
0.0
  0
INSERT
  5
104A
  8
0
  2
STDGX5
 10
953.47765190456528
 20
266.88098546935521
 30
0.0
  0
INSERT
  5
104B
  8
0
  2
STDGX5
 10
953.47765190456528
 20
266.88098546935521
 30
0.0
  0
INSERT
  5
104C
  8
0
  2
STDGX5
 10
975.58521240196205
 20
281.9412264458706
 30
0.0
  0
INSERT
  5
104D
  8
0
  2
STDGX5
 10
975.58521240196205
 20
281.9412264458706
 30
0.0
  0
INSERT
  5
104E
  8
4
  2
STDGX5
 10
1032.773107228086
 20
463.49375040363037
 30
0.0
  0
INSERT
  5
104F
  8
4
  2
STDGX5
 10
893.17320807067779
 20
387.00102382420641
 30
0.0
  0
INSERT
  5
1050
  8
0
  2
STDGX5
 10
1054.971450325063
 20
357.2424312843782
 30
0.0
  0
INSERT
  5
1051
  8
0
  2
STDGX5
 10
1054.971450325063
 20
357.2424312843782
 30
0.0
  0
INSERT
  5
1052
  8
4
  2
STDGX5
 10
893.1556615339241
 20
341.8914021422292
 30
0.0
  0
INSERT
  5
1054
  8
0
  2
STDGX5
 10
858.29207843797485
 20
313.0607052122466
 30
0.0
  0
INSERT
  5
1055
  8
0
  2
STDGX5
 10
858.29207843797485
 20
313.0607052122466
 30
0.0
  0
INSERT
  5
1056
  8
0
  2
STDGX5
 10
1133.2920784379751
 20
338.06074821224661
 30
0.0
  0
INSERT
  5
1057
  8
0
  2
STDGX5
 10
1133.2920784379751
 20
338.06074821224661
 30
0.0
  0
INSERT
  5
1058
  8
0
  2
STDGX5
 10
1175.3345838425639
 20
550.51050419922774
 30
0.0
  0
INSERT
  5
1059
  8
0
  2
STDGX5
 10
1175.3345838425639
 20
550.51050419922774
 30
0.0
  0
INSERT
  5
105A
  8
0
  2
STDGX5
 10
1192.4176992516079
 20
489.26552415895338
 30
0.0
  0
INSERT
  5
105B
  8
0
  2
STDGX5
 10
1192.4176992516079
 20
489.26552415895338
 30
0.0
  0
INSERT
  5
105C
  8
0
  2
STDGX5
 10
1214.525259749005
 20
504.32576513546883
 30
0.0
  0
INSERT
  5
105D
  8
0
  2
STDGX5
 10
1214.525259749005
 20
504.32576513546883
 30
0.0
  0
INSERT
  5
105E
  8
4
  2
STDGX5
 10
1271.713154575129
 20
685.87828909322855
 30
0.0
  0
INSERT
  5
105F
  8
4
  2
STDGX5
 10
1132.1132554177209
 20
609.38556251380464
 30
0.0
  0
INSERT
  5
1060
  8
0
  2
STDGX5
 10
1293.911497672106
 20
579.62696997397643
 30
0.0
  0
INSERT
  5
1061
  8
0
  2
STDGX5
 10
1293.911497672106
 20
579.62696997397643
 30
0.0
  0
INSERT
  5
1062
  8
4
  2
STDGX5
 10
1132.0957088809671
 20
564.27594083182748
 30
0.0
  0
INSERT
  5
1064
  8
0
  2
STDGX5
 10
858.29207843797485
 20
313.0607052122466
 30
0.0
  0
INSERT
  5
1065
  8
0
  2
STDGX5
 10
858.29207843797485
 20
313.0607052122466
 30
0.0
  0
INSERT
  5
1066
  8
0
  2
STDGX5
 10
1133.2920784379751
 20
338.06074821224661
 30
0.0
  0
INSERT
  5
1067
  8
0
  2
STDGX5
 10
1133.2920784379751
 20
338.06074821224661
 30
0.0
  0
INSERT
  5
1068
  8
0
  2
STDGX5
 10
1175.3345838425639
 20
550.51050419922774
 30
0.0
  0
INSERT
  5
1069
  8
0
  2
STDGX5
 10
1175.3345838425639
 20
550.51050419922774
 30
0.0
  0
INSERT
  5
106A
  8
0
  2
STDGX5
 10
1192.4176992516079
 20
489.26552415895338
 30
0.0
  0
INSERT
  5
106B
  8
0
  2
STDGX5
 10
1192.4176992516079
 20
489.26552415895338
 30
0.0
  0
INSERT
  5
106C
  8
0
  2
STDGX5
 10
1214.525259749005
 20
504.32576513546883
 30
0.0
  0
INSERT
  5
106D
  8
0
  2
STDGX5
 10
1214.525259749005
 20
504.32576513546883
 30
0.0
  0
INSERT
  5
106E
  8
4
  2
STDGX5
 10
1271.713154575129
 20
685.87828909322855
 30
0.0
  0
INSERT
  5
106F
  8
4
  2
STDGX5
 10
1132.1132554177209
 20
609.38556251380464
 30
0.0
  0
INSERT
  5
1070
  8
0
  2
STDGX5
 10
1293.911497672106
 20
579.62696997397643
 30
0.0
  0
INSERT
  5
1071
  8
0
  2
STDGX5
 10
1293.911497672106
 20
579.62696997397643
 30
0.0
  0
INSERT
  5
1072
  8
4
  2
STDGX5
 10
1132.0957088809671
 20
564.27594083182748
 30
0.0
  0
INSERT
  5
1074
  8
0
  2
STDGX5
 10
858.29207843797485
 20
68.060748212246622
 30
0.0
  0
INSERT
  5
1075
  8
0
  2
STDGX5
 10
858.29207843797485
 20
68.060748212246622
 30
0.0
  0
INSERT
  5
1076
  8
0
  2
STDGX5
 10
1133.2920784379751
 20
93.060791212246599
 30
0.0
  0
INSERT
  5
1077
  8
0
  2
STDGX5
 10
1133.2920784379751
 20
93.060791212246599
 30
0.0
  0
INSERT
  5
1078
  8
0
  2
STDGX5
 10
1175.3345838425639
 20
305.51054719922769
 30
0.0
  0
INSERT
  5
1079
  8
0
  2
STDGX5
 10
1175.3345838425639
 20
305.51054719922769
 30
0.0
  0
INSERT
  5
107A
  8
0
  2
STDGX5
 10
1192.4176992516079
 20
244.26556715895339
 30
0.0
  0
INSERT
  5
107B
  8
0
  2
STDGX5
 10
1192.4176992516079
 20
244.26556715895339
 30
0.0
  0
INSERT
  5
107C
  8
0
  2
STDGX5
 10
1214.525259749005
 20
259.32580813546878
 30
0.0
  0
INSERT
  5
107D
  8
0
  2
STDGX5
 10
1214.525259749005
 20
259.32580813546878
 30
0.0
  0
INSERT
  5
107E
  8
4
  2
STDGX5
 10
1271.713154575129
 20
440.87833209322861
 30
0.0
  0
INSERT
  5
107F
  8
4
  2
STDGX5
 10
1132.1132554177209
 20
364.38560551380471
 30
0.0
  0
INSERT
  5
1080
  8
0
  2
STDGX5
 10
1293.911497672106
 20
334.62701297397638
 30
0.0
  0
INSERT
  5
1081
  8
0
  2
STDGX5
 10
1293.911497672106
 20
334.62701297397638
 30
0.0
  0
INSERT
  5
1082
  8
4
  2
STDGX5
 10
1132.0957088809671
 20
319.27598383182749
 30
0.0
  0
LINE
  5
1084
  8
2
 10
151.5159281516728
 20
89.670731955512053
 30
0.0
 11
139.01592815167299
 21
89.670731955512053
 31
0.0
  0
LINE
  5
1085
  8
2
 10
151.51592815167291
 20
61.670731955511997
 30
0.0
 11
139.01592815167291
 21
61.670731955511997
 31
0.0
  0
LINE
  5
1086
  8
0
 10
103.5159281516728
 20
98.164434626405864
 30
0.0
 11
103.5159281516729
 21
53.177029284624211
 31
0.0
  0
LINE
  5
1087
  8
2
 10
104.5159281516728
 20
58.170731955512061
 30
0.0
 11
104.5159281516728
 21
93.170731955512053
 31
0.0
  0
LINE
  5
1088
  8
2
 10
117.0159281516729
 20
94.170731955512053
 30
0.0
 11
117.0159281516729
 21
57.170731955512053
 31
0.0
  0
LINE
  5
1089
  8
2
 10
115.2659281516729
 20
94.170731955511954
 30
0.0
 11
115.2659281516729
 21
57.170731955511997
 31
0.0
  0
LINE
  5
108A
  8
2
 10
139.01592815167299
 20
93.170731955512053
 30
0.0
 11
139.01592815167291
 21
58.170731955512061
 31
0.0
  0
LINE
  5
108B
  8
2
 10
128.01592815167291
 20
93.170731955512053
 30
0.0
 11
128.0159281516728
 21
58.170731955512061
 31
0.0
  0
LINE
  5
108C
  8
2
 10
115.2659281516729
 20
58.170731955512061
 30
0.0
 11
104.5159281516728
 21
58.170731955512061
 31
0.0
  0
LINE
  5
108D
  8
2
 10
104.5159281516726
 20
58.17073195551194
 30
0.0
 11
103.5159281516726
 21
57.593381686322289
 31
0.0
  0
LINE
  5
108E
  8
2
 10
128.01592815167291
 20
64.670731955515066
 30
0.0
 11
130.91785194031951
 21
64.670731955515066
 31
0.0
  0
LINE
  5
108F
  8
2
 10
128.01592815167291
 20
61.670731955515009
 30
0.0
 11
130.91785194031951
 21
61.670731955515059
 31
0.0
  0
LINE
  5
1090
  8
2
 10
139.01592815167291
 20
58.170731955511989
 30
0.0
 11
128.01592815167291
 21
58.170731955512061
 31
0.0
  0
CIRCLE
  5
1091
  8
2
 10
133.51592815167291
 20
63.170731955515073
 30
0.0
 40
3.0
  0
CIRCLE
  5
1092
  8
2
 10
122.5159281516729
 20
63.170731955515073
 30
0.0
 40
3.0
  0
LINE
  5
1093
  8
2
 10
117.0159281516729
 20
68.170731955515066
 30
0.0
 11
139.01592815167291
 21
68.170731955515066
 31
0.0
  0
LINE
  5
1094
  8
2
 10
128.0159281516728
 20
58.170731955511989
 30
0.0
 11
117.0159281516729
 21
58.170731955512061
 31
0.0
  0
LINE
  5
1095
  8
2
 10
117.0159281516729
 20
61.670731955515009
 30
0.0
 11
119.91785194031949
 21
61.670731955515059
 31
0.0
  0
LINE
  5
1096
  8
2
 10
117.0159281516729
 20
57.170731955512053
 30
0.0
 11
115.2659281516729
 21
57.170731955511997
 31
0.0
  0
LINE
  5
1097
  8
2
 10
117.0159281516729
 20
64.670731955515066
 30
0.0
 11
119.91785194031949
 21
64.670731955515066
 31
0.0
  0
LINE
  5
1098
  8
2
 10
125.1140043630262
 20
61.670731955515059
 30
0.0
 11
128.01592815167291
 21
61.670731955515059
 31
0.0
  0
LINE
  5
1099
  8
2
 10
125.1140043630262
 20
64.670731955515066
 30
0.0
 11
128.01592815167291
 21
64.670731955515066
 31
0.0
  0
LINE
  5
109A
  8
2
 10
136.11400436302631
 20
61.670731955515059
 30
0.0
 11
139.01592815167291
 21
61.670731955515059
 31
0.0
  0
LINE
  5
109B
  8
2
 10
136.11400436302631
 20
64.670731955515066
 30
0.0
 11
139.01592815167291
 21
64.670731955515066
 31
0.0
  0
LINE
  5
109C
  8
2
 10
115.2659281516729
 20
93.170731955512053
 30
0.0
 11
104.5159281516729
 21
93.170731955512053
 31
0.0
  0
LINE
  5
109D
  8
2
 10
104.5159281516729
 20
93.170731955512053
 30
0.0
 11
103.5159281516728
 21
93.748082224701704
 31
0.0
  0
CIRCLE
  5
109E
  8
2
 10
133.51592815167291
 20
88.170731955515066
 30
0.0
 40
3.0
  0
LINE
  5
109F
  8
2
 10
128.01592815167291
 20
89.670731955515066
 30
0.0
 11
130.91785194031951
 21
89.670731955515066
 31
0.0
  0
LINE
  5
10A0
  8
2
 10
128.01592815167291
 20
86.670731955515066
 30
0.0
 11
130.91785194031951
 21
86.670731955515066
 31
0.0
  0
LINE
  5
10A1
  8
2
 10
139.01592815167291
 20
93.170731955512053
 30
0.0
 11
128.01592815167291
 21
93.170731955512053
 31
0.0
  0
CIRCLE
  5
10A2
  8
2
 10
122.5159281516729
 20
88.170731955515066
 30
0.0
 40
3.0
  0
LINE
  5
10A3
  8
2
 10
117.0159281516729
 20
83.170731955514995
 30
0.0
 11
139.01592815167291
 21
83.170731955514995
 31
0.0
  0
LINE
  5
10A4
  8
2
 10
128.0159281516728
 20
93.170731955512053
 30
0.0
 11
117.0159281516729
 21
93.170731955512053
 31
0.0
  0
LINE
  5
10A5
  8
2
 10
117.0159281516729
 20
86.670731955515066
 30
0.0
 11
119.91785194031949
 21
86.670731955515066
 31
0.0
  0
LINE
  5
10A6
  8
2
 10
117.0159281516729
 20
89.670731955515066
 30
0.0
 11
119.91785194031949
 21
89.670731955515066
 31
0.0
  0
LINE
  5
10A7
  8
2
 10
117.0159281516729
 20
94.170731955512053
 30
0.0
 11
115.2659281516729
 21
94.170731955512053
 31
0.0
  0
LINE
  5
10A8
  8
2
 10
125.1140043630262
 20
89.670731955515066
 30
0.0
 11
128.01592815167291
 21
89.670731955515066
 31
0.0
  0
LINE
  5
10A9
  8
2
 10
125.1140043630262
 20
86.670731955515066
 30
0.0
 11
128.01592815167291
 21
86.670731955515066
 31
0.0
  0
LINE
  5
10AA
  8
2
 10
136.11400436302631
 20
89.670731955515066
 30
0.0
 11
139.01592815167291
 21
89.670731955515066
 31
0.0
  0
LINE
  5
10AB
  8
2
 10
136.11400436302631
 20
86.670731955515066
 30
0.0
 11
139.01592815167291
 21
86.670731955515066
 31
0.0
  0
LINE
  5
10AC
  8
0
 10
152.5159281516728
 20
98.164434626405921
 30
0.0
 11
152.5159281516728
 21
53.177029284624147
 31
0.0
  0
LINE
  5
10AD
  8
2
 10
151.51592815167291
 20
61.670731955511997
 30
0.0
 11
151.5159281516728
 21
89.670731955512053
 31
0.0
  0
LINE
  5
10AE
  8
2
 10
151.51592815167291
 20
61.670731955512053
 30
0.0
 11
152.51592815167291
 21
60.670731955512061
 31
0.0
  0
LINE
  5
10AF
  8
2
 10
151.51592815167291
 20
89.670731955512053
 30
0.0
 11
152.51592815167291
 21
90.670731955512053
 31
0.0
  0
ARC
  5
10B0
  8
0
 10
128.01592815167291
 20
-100.32926804448481
 30
0.0
 40
200.0
 50
82.963593256383916
 51
97.036406743616155
  0
ARC
  5
10B1
  8
0
 10
128.01592815167291
 20
251.67073195551501
 30
0.0
 40
200.0
 50
262.96359325638389
 51
277.036406743616
  0
INSERT
  5
10B2
  8
4
  2
STDGX5
 10
858.29207843797485
 20
68.060748212246608
 30
0.0
  0
CIRCLE
  5
10B8
  8
0
 10
44.03121464778576
 20
75.670731955512053
 30
0.0
 40
22.493702670893871
  0
INSERT
  5
10B9
  8
0
  2
STDGX5
 10
468.29207843797479
 20
43.06070521224661
 30
0.0
  0
INSERT
  5
10BA
  8
0
  2
STDGX5
 10
468.29207843797479
 20
43.06070521224661
 30
0.0
  0
INSERT
  5
10BB
  8
0
  2
STDGX5
 10
743.29207843797485
 20
68.060748212246608
 30
0.0
  0
INSERT
  5
10BC
  8
0
  2
STDGX5
 10
743.29207843797485
 20
68.060748212246608
 30
0.0
  0
INSERT
  5
10BD
  8
0
  2
STDGX5
 10
785.33458384256392
 20
280.51050419922768
 30
0.0
  0
INSERT
  5
10BE
  8
0
  2
STDGX5
 10
785.33458384256392
 20
280.51050419922768
 30
0.0
  0
INSERT
  5
10BF
  8
0
  2
STDGX5
 10
802.4176992516085
 20
219.26552415895341
 30
0.0
  0
INSERT
  5
10C0
  8
0
  2
STDGX5
 10
802.4176992516085
 20
219.26552415895341
 30
0.0
  0
INSERT
  5
10C1
  8
0
  2
STDGX5
 10
824.52525974900516
 20
234.3257651354688
 30
0.0
  0
INSERT
  5
10C2
  8
0
  2
STDGX5
 10
824.52525974900516
 20
234.3257651354688
 30
0.0
  0
INSERT
  5
10C3
  8
4
  2
STDGX5
 10
881.71315457512935
 20
415.8782890932286
 30
0.0
  0
INSERT
  5
10C4
  8
4
  2
STDGX5
 10
742.11325541772112
 20
339.38556251380459
 30
0.0
  0
INSERT
  5
10C5
  8
0
  2
STDGX5
 10
903.91149767210618
 20
309.62696997397637
 30
0.0
  0
INSERT
  5
10C6
  8
0
  2
STDGX5
 10
903.91149767210618
 20
309.62696997397637
 30
0.0
  0
INSERT
  5
10C7
  8
4
  2
STDGX5
 10
742.09570888096721
 20
294.27594083182748
 30
0.0
  0
INSERT
  5
10C9
  8
0
  2
STDGX5
 10
743.29207843797485
 20
68.060748414663536
 30
0.0
  0
INSERT
  5
10CA
  8
0
  2
STDGX5
 10
743.29207843797485
 20
68.060748414663536
 30
0.0
  0
INSERT
  5
10CB
  8
0
  2
STDGX5
 10
1018.2920784379741
 20
93.060791414663555
 30
0.0
  0
INSERT
  5
10CC
  8
0
  2
STDGX5
 10
1018.2920784379741
 20
93.060791414663555
 30
0.0
  0
INSERT
  5
10CD
  8
0
  2
STDGX5
 10
1060.3345838425639
 20
305.51054740164471
 30
0.0
  0
INSERT
  5
10CE
  8
0
  2
STDGX5
 10
1060.3345838425639
 20
305.51054740164471
 30
0.0
  0
INSERT
  5
10CF
  8
0
  2
STDGX5
 10
1077.4176992516079
 20
244.26556736137039
 30
0.0
  0
INSERT
  5
10D0
  8
0
  2
STDGX5
 10
1077.4176992516079
 20
244.26556736137039
 30
0.0
  0
INSERT
  5
10D1
  8
0
  2
STDGX5
 10
1099.525259749005
 20
259.3258083378858
 30
0.0
  0
INSERT
  5
10D2
  8
0
  2
STDGX5
 10
1099.525259749005
 20
259.3258083378858
 30
0.0
  0
INSERT
  5
10D3
  8
4
  2
STDGX5
 10
1156.713154575129
 20
440.87833229564552
 30
0.0
  0
INSERT
  5
10D4
  8
4
  2
STDGX5
 10
1017.113255417721
 20
364.38560571622162
 30
0.0
  0
INSERT
  5
10D5
  8
0
  2
STDGX5
 10
1178.911497672106
 20
334.6270131763934
 30
0.0
  0
INSERT
  5
10D6
  8
0
  2
STDGX5
 10
1178.911497672106
 20
334.6270131763934
 30
0.0
  0
INSERT
  5
10D7
  8
4
  2
STDGX5
 10
1017.095708880967
 20
319.2759840342444
 30
0.0
  0
INSERT
  5
10D9
  8
0
  2
STDGX5
 10
894.35203109093175
 20
115.67620972506531
 30
0.0
  0
INSERT
  5
10DA
  8
0
  2
STDGX5
 10
894.35203109093175
 20
115.67620972506531
 30
0.0
  0
INSERT
  5
10DB
  8
0
  2
STDGX5
 10
1169.352031090931
 20
140.6762527250653
 30
0.0
  0
INSERT
  5
10DC
  8
0
  2
STDGX5
 10
1169.352031090931
 20
140.6762527250653
 30
0.0
  0
INSERT
  5
10DD
  8
0
  2
STDGX5
 10
1211.39453649552
 20
353.12600871204643
 30
0.0
  0
INSERT
  5
10DE
  8
0
  2
STDGX5
 10
1211.39453649552
 20
353.12600871204643
 30
0.0
  0
INSERT
  5
10DF
  8
0
  2
STDGX5
 10
1228.4776519045649
 20
291.88102867177213
 30
0.0
  0
INSERT
  5
10E0
  8
0
  2
STDGX5
 10
1228.4776519045649
 20
291.88102867177213
 30
0.0
  0
INSERT
  5
10E1
  8
0
  2
STDGX5
 10
1250.5852124019621
 20
306.94126964828752
 30
0.0
  0
INSERT
  5
10E2
  8
0
  2
STDGX5
 10
1250.5852124019621
 20
306.94126964828752
 30
0.0
  0
INSERT
  5
10E3
  8
4
  2
STDGX5
 10
1307.773107228086
 20
488.49379360604729
 30
0.0
  0
INSERT
  5
10E4
  8
4
  2
STDGX5
 10
1168.1732080706779
 20
412.00106702662328
 30
0.0
  0
INSERT
  5
10E5
  8
0
  2
STDGX5
 10
1329.971450325063
 20
382.24247448679512
 30
0.0
  0
INSERT
  5
10E6
  8
0
  2
STDGX5
 10
1329.971450325063
 20
382.24247448679512
 30
0.0
  0
INSERT
  5
10E7
  8
4
  2
STDGX5
 10
1168.1556615339241
 20
366.89144534464617
 30
0.0
  0
INSERT
  5
10E9
  8
0
  2
STDGX5
 10
1133.2920784379751
 20
338.06074841466352
 30
0.0
  0
INSERT
  5
10EA
  8
0
  2
STDGX5
 10
1133.2920784379751
 20
338.06074841466352
 30
0.0
  0
INSERT
  5
10EB
  8
0
  2
STDGX5
 10
1408.2920784379751
 20
363.06079141466353
 30
0.0
  0
INSERT
  5
10EC
  8
0
  2
STDGX5
 10
1408.2920784379751
 20
363.06079141466353
 30
0.0
  0
INSERT
  5
10ED
  8
0
  2
STDGX5
 10
1450.3345838425639
 20
575.51054740164454
 30
0.0
  0
INSERT
  5
10EE
  8
0
  2
STDGX5
 10
1450.3345838425639
 20
575.51054740164454
 30
0.0
  0
INSERT
  5
10EF
  8
0
  2
STDGX5
 10
1467.4176992516079
 20
514.26556736137024
 30
0.0
  0
INSERT
  5
10F0
  8
0
  2
STDGX5
 10
1467.4176992516079
 20
514.26556736137024
 30
0.0
  0
INSERT
  5
10F1
  8
0
  2
STDGX5
 10
1489.525259749005
 20
529.32580833788575
 30
0.0
  0
INSERT
  5
10F2
  8
0
  2
STDGX5
 10
1489.525259749005
 20
529.32580833788575
 30
0.0
  0
INSERT
  5
10F3
  8
4
  2
STDGX5
 10
1546.713154575129
 20
710.87833229564558
 30
0.0
  0
INSERT
  5
10F4
  8
4
  2
STDGX5
 10
1407.1132554177209
 20
634.38560571622156
 30
0.0
  0
INSERT
  5
10F5
  8
0
  2
STDGX5
 10
1568.911497672106
 20
604.62701317639335
 30
0.0
  0
INSERT
  5
10F6
  8
0
  2
STDGX5
 10
1568.911497672106
 20
604.62701317639335
 30
0.0
  0
INSERT
  5
10F7
  8
4
  2
STDGX5
 10
1407.0957088809671
 20
589.2759840342444
 30
0.0
  0
INSERT
  5
10F9
  8
0
  2
STDGX5
 10
1133.2920784379751
 20
338.06074841466352
 30
0.0
  0
INSERT
  5
10FA
  8
0
  2
STDGX5
 10
1133.2920784379751
 20
338.06074841466352
 30
0.0
  0
INSERT
  5
10FB
  8
0
  2
STDGX5
 10
1408.2920784379751
 20
363.06079141466353
 30
0.0
  0
INSERT
  5
10FC
  8
0
  2
STDGX5
 10
1408.2920784379751
 20
363.06079141466353
 30
0.0
  0
INSERT
  5
10FD
  8
0
  2
STDGX5
 10
1450.3345838425639
 20
575.51054740164454
 30
0.0
  0
INSERT
  5
10FE
  8
0
  2
STDGX5
 10
1450.3345838425639
 20
575.51054740164454
 30
0.0
  0
INSERT
  5
10FF
  8
0
  2
STDGX5
 10
1467.4176992516079
 20
514.26556736137024
 30
0.0
  0
INSERT
  5
1100
  8
0
  2
STDGX5
 10
1467.4176992516079
 20
514.26556736137024
 30
0.0
  0
INSERT
  5
1101
  8
0
  2
STDGX5
 10
1489.525259749005
 20
529.32580833788575
 30
0.0
  0
INSERT
  5
1102
  8
0
  2
STDGX5
 10
1489.525259749005
 20
529.32580833788575
 30
0.0
  0
INSERT
  5
1103
  8
4
  2
STDGX5
 10
1546.713154575129
 20
710.87833229564558
 30
0.0
  0
INSERT
  5
1104
  8
4
  2
STDGX5
 10
1407.1132554177209
 20
634.38560571622156
 30
0.0
  0
INSERT
  5
1105
  8
0
  2
STDGX5
 10
1568.911497672106
 20
604.62701317639335
 30
0.0
  0
INSERT
  5
1106
  8
0
  2
STDGX5
 10
1568.911497672106
 20
604.62701317639335
 30
0.0
  0
INSERT
  5
1107
  8
4
  2
STDGX5
 10
1407.0957088809671
 20
589.2759840342444
 30
0.0
  0
INSERT
  5
1109
  8
0
  2
STDGX5
 10
1133.2920784379751
 20
93.060791414663555
 30
0.0
  0
INSERT
  5
110A
  8
0
  2
STDGX5
 10
1133.2920784379751
 20
93.060791414663555
 30
0.0
  0
INSERT
  5
110B
  8
0
  2
STDGX5
 10
1408.2920784379751
 20
118.0608344146635
 30
0.0
  0
INSERT
  5
110C
  8
0
  2
STDGX5
 10
1408.2920784379751
 20
118.0608344146635
 30
0.0
  0
INSERT
  5
110D
  8
0
  2
STDGX5
 10
1450.3345838425639
 20
330.51059040164472
 30
0.0
  0
INSERT
  5
110E
  8
0
  2
STDGX5
 10
1450.3345838425639
 20
330.51059040164472
 30
0.0
  0
INSERT
  5
110F
  8
0
  2
STDGX5
 10
1467.4176992516079
 20
269.26561036137042
 30
0.0
  0
INSERT
  5
1110
  8
0
  2
STDGX5
 10
1467.4176992516079
 20
269.26561036137042
 30
0.0
  0
INSERT
  5
1111
  8
0
  2
STDGX5
 10
1489.525259749005
 20
284.32585133788581
 30
0.0
  0
INSERT
  5
1112
  8
0
  2
STDGX5
 10
1489.525259749005
 20
284.32585133788581
 30
0.0
  0
INSERT
  5
1113
  8
4
  2
STDGX5
 10
1546.713154575129
 20
465.87837529564553
 30
0.0
  0
INSERT
  5
1114
  8
4
  2
STDGX5
 10
1407.1132554177209
 20
389.38564871622162
 30
0.0
  0
INSERT
  5
1115
  8
0
  2
STDGX5
 10
1568.911497672106
 20
359.62705617639341
 30
0.0
  0
INSERT
  5
1116
  8
0
  2
STDGX5
 10
1568.911497672106
 20
359.62705617639341
 30
0.0
  0
INSERT
  5
1118
  8
4
  2
STDGX5
 10
1407.0957088809671
 20
344.27602703424441
 30
0.0
  0
INSERT
  5
111A
  8
4
  2
STDGX5
 10
1133.2920784379751
 20
93.060791414663555
 30
0.0
  0
INSERT
  5
111B
  8
0
  2
STDGX5
 10
743.29207843797485
 20
68.060748414663536
 30
0.0
  0
INSERT
  5
111C
  8
0
  2
STDGX5
 10
743.29207843797485
 20
68.060748414663536
 30
0.0
  0
INSERT
  5
111D
  8
0
  2
STDGX5
 10
1018.2920784379741
 20
93.060791414663555
 30
0.0
  0
INSERT
  5
111E
  8
0
  2
STDGX5
 10
1018.2920784379741
 20
93.060791414663555
 30
0.0
  0
INSERT
  5
111F
  8
0
  2
STDGX5
 10
1060.3345838425639
 20
305.51054740164471
 30
0.0
  0
INSERT
  5
1120
  8
0
  2
STDGX5
 10
1060.3345838425639
 20
305.51054740164471
 30
0.0
  0
INSERT
  5
1121
  8
0
  2
STDGX5
 10
1077.4176992516079
 20
244.26556736137039
 30
0.0
  0
INSERT
  5
1122
  8
0
  2
STDGX5
 10
1077.4176992516079
 20
244.26556736137039
 30
0.0
  0
INSERT
  5
1123
  8
0
  2
STDGX5
 10
1099.525259749005
 20
259.3258083378858
 30
0.0
  0
INSERT
  5
1124
  8
0
  2
STDGX5
 10
1099.525259749005
 20
259.3258083378858
 30
0.0
  0
INSERT
  5
1125
  8
4
  2
STDGX5
 10
1156.713154575129
 20
440.87833229564552
 30
0.0
  0
INSERT
  5
1126
  8
4
  2
STDGX5
 10
1017.113255417721
 20
364.38560571622162
 30
0.0
  0
INSERT
  5
1127
  8
0
  2
STDGX5
 10
1178.911497672106
 20
334.6270131763934
 30
0.0
  0
INSERT
  5
1128
  8
0
  2
STDGX5
 10
1178.911497672106
 20
334.6270131763934
 30
0.0
  0
INSERT
  5
1129
  8
4
  2
STDGX5
 10
1017.095708880967
 20
319.2759840342444
 30
0.0
  0
LINE
  5
112B
  8
2
 10
115.4159281516729
 20
94.170731955512053
 30
0.0
 11
115.4159281516729
 21
57.170731955512053
 31
0.0
  0
LINE
  5
112C
  8
2
 10
115.4159281516729
 20
90.67073195551211
 30
0.0
 11
117.0159281516729
 21
90.67073195551211
 31
0.0
  0
LINE
  5
112D
  8
2
 10
115.4159281516729
 20
60.670731955518058
 30
0.0
 11
117.0159281516729
 21
60.670731955518058
 31
0.0
  0
TEXT
  5
126D
  8
0
 62
     3
 10
0.0
 20
0.0
 30
0.0
 40
10.0
  1
CTRS4550
  7
STANDARD1
  0
ENDSEC
  0
EOF
