  0
SECTION
  2
HEADER
  9
$ACADVER
  1
AC1009
  9
$INSBASE
 10
0.0
 20
0.0
 30
0.0
  9
$EXTMIN
 10
0.0
 20
-2.960436562073669
 30
0.0
  9
$EXTMAX
 10
140.02485227511741
 20
97.085773547152101
 30
0.0
  9
$LIMMIN
 10
0.0
 20
0.0
  9
$LIMMAX
 10
187.5
 20
135.0
  9
$ORTHOMODE
 70
     0
  9
$REGENMODE
 70
     1
  9
$FILLMODE
 70
     1
  9
$QTEXTMODE
 70
     0
  9
$MIRRTEXT
 70
     0
  9
$DRAGMODE
 70
     2
  9
$LTSCALE
 40
5.0
  9
$OSMODE
 70
  3071
  9
$ATTMODE
 70
     1
  9
$TEXTSIZE
 40
5.0
  9
$TRACEWID
 40
0.05
  9
$TEXTSTYLE
  7
STANDARD
  9
$CLAYER
  8
0
  9
$CELTYPE
  6
BYLAYER
  9
$CECOLOR
 62
   256
  9
$DIMSCALE
 40
0.5
  9
$DIMASZ
 40
3.0
  9
$DIMEXO
 40
2.0
  9
$DIMDLI
 40
0.3799999999999999
  9
$DIMRND
 40
0.0
  9
$DIMDLE
 40
0.0
  9
$DIMEXE
 40
2.0
  9
$DIMTP
 40
0.0
  9
$DIMTM
 40
0.0
  9
$DIMTXT
 40
3.2000000000000002
  9
$DIMCEN
 40
0.09
  9
$DIMTSZ
 40
0.0
  9
$DIMTOL
 70
     0
  9
$DIMLIM
 70
     0
  9
$DIMTIH
 70
     0
  9
$DIMTOH
 70
     0
  9
$DIMSE1
 70
     0
  9
$DIMSE2
 70
     0
  9
$DIMTAD
 70
     1
  9
$DIMZIN
 70
     0
  9
$DIMBLK
  1

  9
$DIMASO
 70
     0
  9
$DIMSHO
 70
     0
  9
$DIMPOST
  1

  9
$DIMAPOST
  1

  9
$DIMALT
 70
     0
  9
$DIMALTD
 70
     2
  9
$DIMALTF
 40
25.399999999999999
  9
$DIMLFAC
 40
1.0
  9
$DIMTOFL
 70
     1
  9
$DIMTVP
 40
1.6000000000000001
  9
$DIMTIX
 70
     1
  9
$DIMSOXD
 70
     0
  9
$DIMSAH
 70
     0
  9
$DIMBLK1
  1

  9
$DIMBLK2
  1

  9
$DIMSTYLE
  2
STANDARD
  9
$DIMCLRD
 70
     0
  9
$DIMCLRE
 70
     0
  9
$DIMCLRT
 70
     0
  9
$DIMTFAC
 40
1.0
  9
$DIMGAP
 40
0.09
  9
$LUNITS
 70
     2
  9
$LUPREC
 70
     4
  9
$SKETCHINC
 40
0.1
  9
$FILLETRAD
 40
0.0
  9
$AUNITS
 70
     0
  9
$AUPREC
 70
     0
  9
$MENU
  1
E:\r13\win\SUPPORT\ACAD
  9
$ELEVATION
 40
0.0
  9
$PELEVATION
 40
0.0
  9
$THICKNESS
 40
0.0
  9
$LIMCHECK
 70
     0
  9
$BLIPMODE
 70
     0
  9
$CHAMFERA
 40
0.0
  9
$CHAMFERB
 40
0.0
  9
$SKPOLY
 70
     0
  9
$TDCREATE
 40
2449839.7772106482
  9
$TDUPDATE
 40
2456598.5035259258
  9
$TDINDWG
 40
0.061645625
  9
$TDUSRTIMER
 40
0.061645625
  9
$USRTIMER
 70
     1
  9
$ANGBASE
 50
0.0
  9
$ANGDIR
 70
     0
  9
$PDMODE
 70
     0
  9
$PDSIZE
 40
0.0
  9
$PLINEWID
 40
0.0
  9
$COORDS
 70
     1
  9
$SPLFRAME
 70
     0
  9
$SPLINETYPE
 70
     6
  9
$SPLINESEGS
 70
     8
  9
$ATTDIA
 70
     0
  9
$ATTREQ
 70
     1
  9
$HANDLING
 70
     1
  9
$HANDSEED
  5
5FE
  9
$SURFTAB1
 70
     6
  9
$SURFTAB2
 70
     6
  9
$SURFTYPE
 70
     6
  9
$SURFU
 70
     6
  9
$SURFV
 70
     6
  9
$UCSNAME
  2

  9
$UCSORG
 10
0.0
 20
0.0
 30
0.0
  9
$UCSXDIR
 10
1.0
 20
0.0
 30
0.0
  9
$UCSYDIR
 10
0.0
 20
1.0
 30
0.0
  9
$PUCSNAME
  2

  9
$PUCSORG
 10
0.0
 20
0.0
 30
0.0
  9
$PUCSXDIR
 10
1.0
 20
0.0
 30
0.0
  9
$PUCSYDIR
 10
0.0
 20
1.0
 30
0.0
  9
$USERI1
 70
     0
  9
$USERI2
 70
     1
  9
$USERI3
 70
     0
  9
$USERI4
 70
     0
  9
$USERI5
 70
     0
  9
$USERR1
 40
0.0
  9
$USERR2
 40
0.0
  9
$USERR3
 40
0.0
  9
$USERR4
 40
0.0
  9
$USERR5
 40
0.0
  9
$WORLDVIEW
 70
     1
  9
$SHADEDGE
 70
     3
  9
$SHADEDIF
 70
    70
  9
$TILEMODE
 70
     1
  9
$MAXACTVP
 70
    16
  9
$PLIMCHECK
 70
     0
  9
$PEXTMIN
 10
1.0000000000000000E+020
 20
1.0000000000000000E+020
 30
1.0000000000000000E+020
  9
$PEXTMAX
 10
-1.0000000000000000E+020
 20
-1.0000000000000000E+020
 30
-1.0000000000000000E+020
  9
$PLIMMIN
 10
0.0
 20
0.0
  9
$PLIMMAX
 10
12.0
 20
9.0
  9
$UNITMODE
 70
     0
  9
$VISRETAIN
 70
     0
  9
$PLINEGEN
 70
     0
  9
$PSLTSCALE
 70
     0
  0
ENDSEC
  0
SECTION
  2
TABLES
  0
TABLE
  2
VPORT
 70
     1
  0
VPORT
  2
*ACTIVE
 70
     0
 10
0.0
 20
0.0
 11
1.0
 21
1.0
 12
97.570150770051072
 22
66.014785922033241
 13
0.0
 23
0.0
 14
5.0
 24
5.0
 15
5.0
 25
5.0
 16
0.0
 26
0.0
 36
1.0
 17
0.0
 27
0.0
 37
0.0
 40
139.20783109903601
 41
1.831871345029239
 42
50.0
 43
0.0
 44
0.0
 50
0.0
 51
0.0
 71
     0
 72
   500
 73
     1
 74
     0
 75
     0
 76
     0
 77
     0
 78
     2
  0
ENDTAB
  0
TABLE
  2
LTYPE
 70
     4
  0
LTYPE
  2
CONTINUOUS
 70
     0
  3
Solid Line
 72
    65
 73
     0
 40
0.0
  0
LTYPE
  2
CENTER
 70
     0
  3
____ _ ____ _ ____ _ ____ _ ____ _ ____ _ ____
 72
    65
 73
     4
 40
2.0
 49
1.25
 49
-0.25
 49
0.25
 49
-0.25
  0
LTYPE
  2
HIDDEN
 70
     0
  3
_ _ _ _ _ _ _ _ _ _ _ _ _ _ _ _ _ _ _ _ _ _ _
 72
    65
 73
     2
 40
0.375
 49
0.25
 49
-0.125
  0
LTYPE
  2
PHANTOM2
 70
     0
  3
___ _ _ ___ _ _ ___ _ _ ___ _ _
 72
    65
 73
     6
 40
1.25
 49
0.625
 49
-0.125
 49
0.125
 49
-0.125
 49
0.125
 49
-0.125
  0
ENDTAB
  0
TABLE
  2
LAYER
 70
     4
  0
LAYER
  2
0
 70
     0
 62
     7
  6
CONTINUOUS
  0
LAYER
  2
1
 70
     0
 62
     1
  6
CENTER
  0
LAYER
  2
2
 70
     0
 62
     2
  6
HIDDEN
  0
LAYER
  2
4
 70
     0
 62
     4
  6
CONTINUOUS
  0
ENDTAB
  0
TABLE
  2
STYLE
 70
     2
  0
STYLE
  2
STANDARD
 70
     0
 40
0.0
 41
1.0
 50
0.0
 71
     0
 42
5.0
  3
TXT
  4
BIGFONT
  0
STYLE
  2
STANDARD1
 70
     0
 40
0.0
 41
1.0
 50
0.0
 71
     0
 42
3.0
  3
txt
  4

  0
ENDTAB
  0
TABLE
  2
VIEW
 70
     1
  0
VIEW
  2
ALL
 70
     0
 40
135.0
 10
110.4957983193277
 20
67.5
 41
0.0
 11
0.0
 21
0.0
 31
1.0
 12
0.0
 22
0.0
 32
0.0
 42
0.0
 43
0.0
 44
0.0
 50
0.0
 71
     0
  0
ENDTAB
  0
TABLE
  2
UCS
 70
     0
  0
ENDTAB
  0
TABLE
  2
APPID
 70
     4
  0
APPID
  2
ACAD
 70
     0
  0
APPID
  2
_CALL_MAC$
 70
     0
  0
APPID
  2
ACAD_MLEADERVER
 70
     0
  0
APPID
  2
ACAD_NAV_VCDISPLAY
 70
     0
  0
ENDTAB
  0
TABLE
  2
DIMSTYLE
 70
     1
  0
DIMSTYLE
  2
STANDARD
 70
     0
  3

  4

  5

  6

  7

 40
1.0
 41
0.18
 42
0.0625
 43
0.38
 44
0.18
 45
0.0
 46
0.0
 47
0.0
 48
0.0
140
0.18
141
0.09
142
0.0
143
25.399999999999999
144
1.0
145
0.0
146
1.0
147
0.09
 71
     0
 72
     0
 73
     1
 74
     1
 75
     0
 76
     0
 77
     0
 78
     0
170
     0
171
     2
172
     0
173
     0
174
     0
175
     0
176
     0
177
     0
178
     0
  0
ENDTAB
  0
ENDSEC
  0
SECTION
  2
BLOCKS
  0
BLOCK
  8
0
  2
$MODEL_SPACE
 70
     0
 10
0.0
 20
0.0
 30
0.0
  3
$MODEL_SPACE
  1

  0
ENDBLK
  5
4B2
  8
0
  0
BLOCK
 67
     1
  8
0
  2
$PAPER_SPACE
 70
     0
 10
0.0
 20
0.0
 30
0.0
  3
$PAPER_SPACE
  1

  0
ENDBLK
  5
4B0
 67
     1
  8
0
  0
BLOCK
  8
0
  2
STDGX5
 70
     0
 10
0.0
 20
0.0
 30
0.0
  3
STDGX5
  1

  0
ENDBLK
  5
E7
  8
0
  0
ENDSEC
  0
SECTION
  2
ENTITIES
  0
INSERT
  5
15D
  8
0
  2
STDGX5
 10
0.0
 20
0.0
 30
0.0
  0
INSERT
  5
15E
  8
0
  2
STDGX5
 10
0.0
 20
0.0
 30
0.0
  0
INSERT
  5
15F
  8
0
  2
STDGX5
 10
275.0
 20
25.000043000000002
 30
0.0
  0
INSERT
  5
160
  8
0
  2
STDGX5
 10
275.0
 20
25.000043000000002
 30
0.0
  0
INSERT
  5
161
  8
0
  2
STDGX5
 10
317.04250540458912
 20
237.44979898698111
 30
0.0
  0
INSERT
  5
162
  8
0
  2
STDGX5
 10
317.04250540458912
 20
237.44979898698111
 30
0.0
  0
INSERT
  5
163
  8
0
  2
STDGX5
 10
334.1256208136337
 20
176.20481894670681
 30
0.0
  0
INSERT
  5
164
  8
0
  2
STDGX5
 10
334.1256208136337
 20
176.20481894670681
 30
0.0
  0
INSERT
  5
165
  8
0
  2
STDGX5
 10
356.23318131103042
 20
191.2650599232222
 30
0.0
  0
INSERT
  5
166
  8
0
  2
STDGX5
 10
356.23318131103042
 20
191.2650599232222
 30
0.0
  0
INSERT
  5
167
  8
4
  2
STDGX5
 10
413.4210761371545
 20
372.817583880982
 30
0.0
  0
INSERT
  5
168
  8
4
  2
STDGX5
 10
273.82117697974633
 20
296.32485730155798
 30
0.0
  0
INSERT
  5
169
  8
0
  2
STDGX5
 10
435.61941923413121
 20
266.56626476172983
 30
0.0
  0
INSERT
  5
16A
  8
0
  2
STDGX5
 10
435.61941923413121
 20
266.56626476172983
 30
0.0
  0
INSERT
  5
16C
  8
4
  2
STDGX5
 10
273.80363044299253
 20
251.21523561958091
 30
0.0
  0
INSERT
  5
181
  8
4
  2
STDGX5
 10
275.0
 20
25.000043202416929
 30
0.0
  0
INSERT
  5
1B0
  8
0
  2
STDGX5
 10
0.0
 20
0.0
 30
0.0
 41
0.5
 42
0.5
 43
0.5
  0
INSERT
  5
1B1
  8
0
  2
STDGX5
 10
0.0
 20
0.0
 30
0.0
 41
0.5
 42
0.5
 43
0.5
  0
INSERT
  5
1B2
  8
0
  2
STDGX5
 10
137.5
 20
0.0
 30
0.0
 41
0.5
 42
0.5
 43
0.5
  0
INSERT
  5
1B3
  8
0
  2
STDGX5
 10
137.5
 20
0.0
 30
0.0
 41
0.5
 42
0.5
 43
0.5
  0
INSERT
  5
359
  8
0
  2
STDGX5
 10
197.75889699793879
 20
2.946691009166102
 30
0.0
  0
INSERT
  5
35A
  8
0
  2
STDGX5
 10
197.75889699793879
 20
2.946691009166102
 30
0.0
  0
INSERT
  5
35B
  8
0
  2
STDGX5
 10
472.75889699793879
 20
27.9467340091661
 30
0.0
  0
INSERT
  5
35C
  8
0
  2
STDGX5
 10
472.75889699793879
 20
27.9467340091661
 30
0.0
  0
INSERT
  5
35D
  8
0
  2
STDGX5
 10
514.80140240252786
 20
240.39648999614721
 30
0.0
  0
INSERT
  5
35E
  8
0
  2
STDGX5
 10
514.80140240252786
 20
240.39648999614721
 30
0.0
  0
INSERT
  5
35F
  8
0
  2
STDGX5
 10
531.88451781157255
 20
179.15150995587291
 30
0.0
  0
INSERT
  5
360
  8
0
  2
STDGX5
 10
531.88451781157255
 20
179.15150995587291
 30
0.0
  0
INSERT
  5
361
  8
0
  2
STDGX5
 10
553.99207830896921
 20
194.2117509323883
 30
0.0
  0
INSERT
  5
362
  8
0
  2
STDGX5
 10
553.99207830896921
 20
194.2117509323883
 30
0.0
  0
INSERT
  5
363
  8
4
  2
STDGX5
 10
611.17997313509341
 20
375.76427489014822
 30
0.0
  0
INSERT
  5
364
  8
4
  2
STDGX5
 10
471.58007397768512
 20
299.27154831072409
 30
0.0
  0
INSERT
  5
365
  8
0
  2
STDGX5
 10
633.37831623207012
 20
269.51295577089593
 30
0.0
  0
INSERT
  5
366
  8
0
  2
STDGX5
 10
633.37831623207012
 20
269.51295577089593
 30
0.0
  0
INSERT
  5
367
  8
4
  2
STDGX5
 10
471.56252744093132
 20
254.16192662874701
 30
0.0
  0
INSERT
  5
369
  8
0
  2
STDGX5
 10
348.81884965089557
 20
50.562152319567872
 30
0.0
  0
INSERT
  5
36A
  8
0
  2
STDGX5
 10
348.81884965089557
 20
50.562152319567872
 30
0.0
  0
INSERT
  5
36B
  8
0
  2
STDGX5
 10
623.81884965089546
 20
75.562195319567877
 30
0.0
  0
INSERT
  5
36C
  8
0
  2
STDGX5
 10
623.81884965089546
 20
75.562195319567877
 30
0.0
  0
INSERT
  5
36D
  8
0
  2
STDGX5
 10
665.86135505548464
 20
288.01195130654901
 30
0.0
  0
INSERT
  5
36E
  8
0
  2
STDGX5
 10
665.86135505548464
 20
288.01195130654901
 30
0.0
  0
INSERT
  5
36F
  8
0
  2
STDGX5
 10
682.94447046452933
 20
226.76697126627471
 30
0.0
  0
INSERT
  5
370
  8
0
  2
STDGX5
 10
682.94447046452933
 20
226.76697126627471
 30
0.0
  0
INSERT
  5
371
  8
0
  2
STDGX5
 10
705.05203096192588
 20
241.8272122427901
 30
0.0
  0
INSERT
  5
372
  8
0
  2
STDGX5
 10
705.05203096192588
 20
241.8272122427901
 30
0.0
  0
INSERT
  5
373
  8
4
  2
STDGX5
 10
762.23992578805019
 20
423.37973620054993
 30
0.0
  0
INSERT
  5
374
  8
4
  2
STDGX5
 10
622.64002663064184
 20
346.88700962112591
 30
0.0
  0
INSERT
  5
375
  8
0
  2
STDGX5
 10
784.43826888502679
 20
317.1284170812977
 30
0.0
  0
INSERT
  5
376
  8
0
  2
STDGX5
 10
784.43826888502679
 20
317.1284170812977
 30
0.0
  0
INSERT
  5
377
  8
4
  2
STDGX5
 10
622.62248009388804
 20
301.77738793914881
 30
0.0
  0
INSERT
  5
379
  8
0
  2
STDGX5
 10
587.75889699793868
 20
272.9466910091661
 30
0.0
  0
INSERT
  5
37A
  8
0
  2
STDGX5
 10
587.75889699793868
 20
272.9466910091661
 30
0.0
  0
INSERT
  5
37B
  8
0
  2
STDGX5
 10
862.75889699793879
 20
297.94673400916611
 30
0.0
  0
INSERT
  5
37C
  8
0
  2
STDGX5
 10
862.75889699793879
 20
297.94673400916611
 30
0.0
  0
INSERT
  5
37D
  8
0
  2
STDGX5
 10
904.80140240252774
 20
510.39648999614718
 30
0.0
  0
INSERT
  5
37E
  8
0
  2
STDGX5
 10
904.80140240252774
 20
510.39648999614718
 30
0.0
  0
INSERT
  5
37F
  8
0
  2
STDGX5
 10
921.88451781157255
 20
449.15150995587288
 30
0.0
  0
INSERT
  5
380
  8
0
  2
STDGX5
 10
921.88451781157255
 20
449.15150995587288
 30
0.0
  0
INSERT
  5
381
  8
0
  2
STDGX5
 10
943.9920783089691
 20
464.21175093238833
 30
0.0
  0
INSERT
  5
382
  8
0
  2
STDGX5
 10
943.9920783089691
 20
464.21175093238833
 30
0.0
  0
INSERT
  5
383
  8
4
  2
STDGX5
 10
1001.179973135093
 20
645.76427489014816
 30
0.0
  0
INSERT
  5
384
  8
4
  2
STDGX5
 10
861.58007397768506
 20
569.27154831072414
 30
0.0
  0
INSERT
  5
385
  8
0
  2
STDGX5
 10
1023.37831623207
 20
539.51295577089593
 30
0.0
  0
INSERT
  5
386
  8
0
  2
STDGX5
 10
1023.37831623207
 20
539.51295577089593
 30
0.0
  0
INSERT
  5
387
  8
4
  2
STDGX5
 10
861.56252744093115
 20
524.16192662874698
 30
0.0
  0
INSERT
  5
389
  8
0
  2
STDGX5
 10
587.75889699793868
 20
272.9466910091661
 30
0.0
  0
INSERT
  5
38A
  8
0
  2
STDGX5
 10
587.75889699793868
 20
272.9466910091661
 30
0.0
  0
INSERT
  5
38B
  8
0
  2
STDGX5
 10
862.75889699793879
 20
297.94673400916611
 30
0.0
  0
INSERT
  5
38C
  8
0
  2
STDGX5
 10
862.75889699793879
 20
297.94673400916611
 30
0.0
  0
INSERT
  5
38D
  8
0
  2
STDGX5
 10
904.80140240252774
 20
510.39648999614718
 30
0.0
  0
INSERT
  5
38E
  8
0
  2
STDGX5
 10
904.80140240252774
 20
510.39648999614718
 30
0.0
  0
INSERT
  5
38F
  8
0
  2
STDGX5
 10
921.88451781157255
 20
449.15150995587288
 30
0.0
  0
INSERT
  5
390
  8
0
  2
STDGX5
 10
921.88451781157255
 20
449.15150995587288
 30
0.0
  0
INSERT
  5
391
  8
0
  2
STDGX5
 10
943.9920783089691
 20
464.21175093238833
 30
0.0
  0
INSERT
  5
392
  8
0
  2
STDGX5
 10
943.9920783089691
 20
464.21175093238833
 30
0.0
  0
INSERT
  5
393
  8
4
  2
STDGX5
 10
1001.179973135093
 20
645.76427489014816
 30
0.0
  0
INSERT
  5
394
  8
4
  2
STDGX5
 10
861.58007397768506
 20
569.27154831072414
 30
0.0
  0
INSERT
  5
395
  8
0
  2
STDGX5
 10
1023.37831623207
 20
539.51295577089593
 30
0.0
  0
INSERT
  5
396
  8
0
  2
STDGX5
 10
1023.37831623207
 20
539.51295577089593
 30
0.0
  0
INSERT
  5
397
  8
4
  2
STDGX5
 10
861.56252744093115
 20
524.16192662874698
 30
0.0
  0
INSERT
  5
399
  8
0
  2
STDGX5
 10
587.75889699793868
 20
27.946734009166111
 30
0.0
  0
INSERT
  5
39A
  8
0
  2
STDGX5
 10
587.75889699793868
 20
27.946734009166111
 30
0.0
  0
INSERT
  5
39B
  8
0
  2
STDGX5
 10
862.75889699793879
 20
52.946777009166112
 30
0.0
  0
INSERT
  5
39C
  8
0
  2
STDGX5
 10
862.75889699793879
 20
52.946777009166112
 30
0.0
  0
INSERT
  5
39D
  8
0
  2
STDGX5
 10
904.80140240252774
 20
265.39653299614719
 30
0.0
  0
INSERT
  5
39E
  8
0
  2
STDGX5
 10
904.80140240252774
 20
265.39653299614719
 30
0.0
  0
INSERT
  5
39F
  8
0
  2
STDGX5
 10
921.88451781157255
 20
204.15155295587289
 30
0.0
  0
INSERT
  5
3A0
  8
0
  2
STDGX5
 10
921.88451781157255
 20
204.15155295587289
 30
0.0
  0
INSERT
  5
3A1
  8
0
  2
STDGX5
 10
943.9920783089691
 20
219.2117939323883
 30
0.0
  0
INSERT
  5
3A2
  8
0
  2
STDGX5
 10
943.9920783089691
 20
219.2117939323883
 30
0.0
  0
INSERT
  5
3A3
  8
4
  2
STDGX5
 10
1001.179973135093
 20
400.76431789014811
 30
0.0
  0
INSERT
  5
3A4
  8
4
  2
STDGX5
 10
861.58007397768506
 20
324.27159131072409
 30
0.0
  0
INSERT
  5
3A5
  8
0
  2
STDGX5
 10
1023.37831623207
 20
294.51299877089588
 30
0.0
  0
INSERT
  5
3A6
  8
0
  2
STDGX5
 10
1023.37831623207
 20
294.51299877089588
 30
0.0
  0
INSERT
  5
3A7
  8
4
  2
STDGX5
 10
861.56252744093115
 20
279.16196962874699
 30
0.0
  0
LINE
  5
3A9
  8
0
 10
135.02485227511741
 20
91.084517257814113
 30
0.0
 11
135.02485227511741
 21
58.087029836490117
 31
0.0
  0
LINE
  5
3AA
  8
0
 10
115.0248522751174
 20
91.084517257814113
 30
0.0
 11
115.0248522751174
 21
58.087029836490117
 31
0.0
  0
LINE
  5
3AB
  8
2
 10
121.5248522751174
 20
87.585773547152087
 30
0.0
 11
128.52485227511741
 21
87.585773547152087
 31
0.0
  0
LINE
  5
3AC
  8
2
 10
129.0248522751173
 20
87.085773547152087
 30
0.0
 11
129.0248522751173
 21
62.085773547152101
 31
0.0
  0
LINE
  5
3AD
  8
2
 10
128.52485227511741
 20
61.585773547152101
 30
0.0
 11
121.5248522751174
 21
61.585773547152101
 31
0.0
  0
LINE
  5
3AE
  8
2
 10
121.0248522751174
 20
62.085773547152101
 30
0.0
 11
121.0248522751174
 21
87.085773547152087
 31
0.0
  0
CIRCLE
  5
3AF
  8
2
 10
125.0248522751174
 20
65.585773547152101
 30
0.0
 40
2.0
  0
CIRCLE
  5
3B0
  8
2
 10
125.0248522751174
 20
83.585773547152087
 30
0.0
 40
2.0
  0
LINE
  5
3B1
  8
1
 10
121.0248522751174
 20
65.585773547152101
 30
0.0
 11
129.0248522751173
 21
65.585773547152101
 31
0.0
  0
LINE
  5
3B2
  8
1
 10
121.0248522751174
 20
83.585773547152087
 30
0.0
 11
129.0248522751173
 21
83.585773547152087
 31
0.0
  0
ARC
  5
3B3
  8
2
 10
128.52485227511741
 20
87.085773547152087
 30
0.0
 40
0.5
 50
0.0
 51
90.0
  0
ARC
  5
3B4
  8
2
 10
121.5248522751174
 20
87.085773547152087
 30
0.0
 40
0.5
 50
90.0
 51
179.99999999999989
  0
ARC
  5
3B5
  8
2
 10
128.52485227511741
 20
62.085773547152101
 30
0.0
 40
0.5
 50
270.0
 51
0.0
  0
ARC
  5
3B6
  8
2
 10
121.5248522751174
 20
62.085773547152101
 30
0.0
 40
0.5
 50
180.0
 51
269.99999999999989
  0
LINE
  5
3B7
  8
2
 10
128.52485227511741
 20
69.585773547152101
 30
0.0
 11
121.5248522751174
 21
69.585773547152101
 31
0.0
  0
ARC
  5
3B8
  8
2
 10
128.52485227511741
 20
69.085773547152101
 30
0.0
 40
0.5
 50
0.0
 51
90.0
  0
ARC
  5
3B9
  8
2
 10
121.5248522751174
 20
69.085773547152101
 30
0.0
 40
0.5
 50
90.0
 51
179.99999999999989
  0
ARC
  5
3BA
  8
2
 10
121.5248522751174
 20
80.085773547152101
 30
0.0
 40
0.5
 50
180.00000000000011
 51
270.0
  0
LINE
  5
3BB
  8
2
 10
128.52485227511741
 20
79.585773547152101
 30
0.0
 11
121.5248522751174
 21
79.585773547152101
 31
0.0
  0
ARC
  5
3BC
  8
2
 10
128.52485227511741
 20
80.085773547152101
 30
0.0
 40
0.5
 50
270.0
 51
0.0
  0
LINE
  5
3BD
  8
2
 10
126.9613439482211
 20
65.085773547152101
 30
0.0
 11
129.0248522751173
 21
65.085773547152101
 31
0.0
  0
LINE
  5
3BE
  8
2
 10
123.08836060201369
 20
65.085773547152101
 30
0.0
 11
121.0248522751174
 21
65.085773547152101
 31
0.0
  0
LINE
  5
3BF
  8
2
 10
126.9613439482211
 20
66.085773547152101
 30
0.0
 11
129.0248522751173
 21
66.085773547152101
 31
0.0
  0
LINE
  5
3C0
  8
2
 10
123.08836060201369
 20
66.085773547152101
 30
0.0
 11
121.0248522751174
 21
66.085773547152101
 31
0.0
  0
LINE
  5
3C1
  8
2
 10
126.9613439482211
 20
83.085773547152087
 30
0.0
 11
129.0248522751173
 21
83.085773547152087
 31
0.0
  0
LINE
  5
3C2
  8
2
 10
126.9613439482211
 20
84.085773547152087
 30
0.0
 11
129.0248522751173
 21
84.085773547152087
 31
0.0
  0
LINE
  5
3C3
  8
2
 10
123.08836060201369
 20
84.085773547152087
 30
0.0
 11
121.0248522751174
 21
84.085773547152087
 31
0.0
  0
LINE
  5
3C4
  8
2
 10
123.08836060201369
 20
83.085773547152087
 30
0.0
 11
121.0248522751174
 21
83.085773547152087
 31
0.0
  0
LINE
  5
3C5
  8
2
 10
119.5248522751174
 20
86.585773547151675
 30
0.0
 11
119.5248522751174
 21
62.585773547152442
 31
0.0
  0
LINE
  5
3C6
  8
2
 10
119.5248522751174
 20
62.585773547152492
 30
0.0
 11
121.0248522751174
 21
62.585773547152492
 31
0.0
  0
LINE
  5
3C7
  8
2
 10
119.5248522751174
 20
62.585773547152492
 30
0.0
 11
115.0248522751174
 21
59.585773547152442
 31
0.0
  0
LINE
  5
3CA
  8
2
 10
119.5248522751174
 20
86.585773547151746
 30
0.0
 11
121.0248522751174
 21
86.585773547151746
 31
0.0
  0
LINE
  5
3CB
  8
2
 10
119.5248522751174
 20
86.585773547151746
 30
0.0
 11
115.0248522751174
 21
89.585773547151746
 31
0.0
  0
LINE
  5
3D0
  8
2
 10
130.52485227511741
 20
86.585773547151746
 30
0.0
 11
135.02485227511741
 21
89.585773547151746
 31
0.0
  0
LINE
  5
3D1
  8
2
 10
130.52485227511741
 20
86.585773547151746
 30
0.0
 11
129.0248522751173
 21
86.585773547151746
 31
0.0
  0
LINE
  5
3D2
  8
2
 10
130.52485227511741
 20
86.585773547151675
 30
0.0
 11
130.52485227511741
 21
62.585773547152442
 31
0.0
  0
LINE
  5
3D5
  8
2
 10
130.52485227511741
 20
62.585773547152492
 30
0.0
 11
135.02485227511741
 21
59.585773547152442
 31
0.0
  0
LINE
  5
3D6
  8
2
 10
130.52485227511741
 20
62.585773547152492
 30
0.0
 11
129.0248522751173
 21
62.585773547152492
 31
0.0
  0
LINE
  5
3D7
  8
1
 10
110.0248522751174
 20
74.585773547152101
 30
0.0
 11
140.02485227511741
 21
74.585773547152101
 31
0.0
  0
LINE
  5
3D8
  8
1
 10
125.0248522751174
 20
52.085773547152101
 30
0.0
 11
125.0248522751174
 21
97.085773547152101
 31
0.0
  0
INSERT
  5
3D9
  8
4
  2
STDGX5
 10
587.75889699793868
 20
27.9467340091661
 30
0.0
  0
ARC
  5
3DA
  8
0
 10
125.0248522751174
 20
-8.4142264528478563
 30
0.0
 40
100.0
 50
84.260829522733218
 51
95.739170477266796
  0
ARC
  5
3DB
  8
0
 10
125.0248522751174
 20
157.58577354715209
 30
0.0
 40
100.0
 50
264.26082952273322
 51
275.73917047726678
  0
CIRCLE
  5
3F3
  8
0
 10
53.08828508242015
 20
74.585773547152101
 30
0.0
 40
17.0
  0
CIRCLE
  5
3F4
  8
0
 10
53.08828508242015
 20
74.585773547152101
 30
0.0
 40
15.0
  0
LINE
  5
3F5
  8
0
 10
53.788285082419982
 20
59.602115782774227
 30
0.0
 11
53.788285082419982
 21
62.606207611776938
 31
0.0
  0
LINE
  5
3F6
  8
0
 10
52.388285082420339
 20
62.606207611777009
 30
0.0
 11
52.388285082420339
 21
59.602115782774291
 31
0.0
  0
CIRCLE
  5
3F7
  8
0
 10
53.08828508242015
 20
74.585773547152101
 30
0.0
 40
12.0
  0
LINE
  5
3F8
  8
0
 10
46.707571827006397
 20
88.160989875159146
 30
0.0
 11
47.857187999269172
 21
85.385570920559132
 31
0.0
  0
LINE
  5
3F9
  8
0
 10
47.857187999269172
 20
63.785976173745141
 30
0.0
 11
46.707571827006397
 21
61.01055721914512
 31
0.0
  0
LINE
  5
3FA
  8
0
 10
39.513068754413098
 20
68.205060291738391
 30
0.0
 11
42.288487709013097
 21
69.354676464001045
 31
0.0
  0
LINE
  5
3FB
  8
0
 10
41.752730903702172
 20
70.648107809516617
 30
0.0
 11
38.977311949102159
 21
69.498491637253935
 31
0.0
  0
LINE
  5
3FC
  8
0
 10
42.988213817080577
 20
63.495752788151563
 30
0.0
 11
45.11242752067551
 21
65.619966491746482
 31
0.0
  0
LINE
  5
3FD
  8
0
 10
44.122478027014601
 20
66.609915985407483
 30
0.0
 11
41.998264323419669
 21
64.485702281812564
 31
0.0
  0
LINE
  5
3FE
  8
0
 10
38.977311949102159
 20
79.673055457050296
 30
0.0
 11
41.752730903702059
 21
78.523439284787642
 31
0.0
  0
LINE
  5
3FF
  8
0
 10
42.288487709013218
 20
79.816870630303114
 30
0.0
 11
39.513068754413212
 21
80.966486802565797
 31
0.0
  0
LINE
  5
400
  8
0
 10
38.104627318042283
 20
73.885773547152255
 30
0.0
 11
41.108719147045001
 21
73.885773547152255
 31
0.0
  0
LINE
  5
401
  8
0
 10
41.108719147045001
 20
75.285773547151948
 30
0.0
 11
38.10462731804239
 21
75.285773547151948
 31
0.0
  0
LINE
  5
402
  8
0
 10
41.998264323419562
 20
84.685844812491666
 30
0.0
 11
44.122478027014502
 21
82.561631108896734
 31
0.0
  0
LINE
  5
403
  8
0
 10
45.11242752067551
 20
83.551580602557635
 30
0.0
 11
42.988213817080577
 21
85.675794306152568
 31
0.0
  0
LINE
  5
404
  8
0
 10
53.788285082419982
 20
86.565339482527179
 30
0.0
 11
53.788285082419982
 21
89.569431311529911
 31
0.0
  0
LINE
  5
405
  8
0
 10
52.388285082420339
 20
89.569431311529954
 30
0.0
 11
52.388285082420339
 21
86.565339482527236
 31
0.0
  0
LINE
  5
406
  8
0
 10
49.150619344784673
 20
85.921327725870071
 30
0.0
 11
48.001003172522012
 21
88.696746680470085
 31
0.0
  0
LINE
  5
407
  8
0
 10
58.175566992318288
 20
88.696746680470142
 30
0.0
 11
57.025950820055641
 21
85.921327725870114
 31
0.0
  0
LINE
  5
408
  8
0
 10
58.319382165571142
 20
85.385570920559076
 30
0.0
 11
59.468998337833803
 21
88.160989875159089
 31
0.0
  0
LINE
  5
409
  8
0
 10
64.178305841420624
 20
64.485702281812493
 30
0.0
 11
62.054092137825819
 21
66.609915985407426
 31
0.0
  0
LINE
  5
40A
  8
0
 10
61.064142644164797
 20
65.619966491746524
 30
0.0
 11
63.188356347759729
 21
63.495752788151599
 31
0.0
  0
LINE
  5
40B
  8
0
 10
63.188356347759729
 20
85.675794306152625
 30
0.0
 11
61.064142644164797
 21
83.551580602557692
 31
0.0
  0
LINE
  5
40C
  8
0
 10
62.054092137825698
 20
82.561631108896734
 30
0.0
 11
64.178305841420624
 21
84.685844812491609
 31
0.0
  0
CIRCLE
  5
40D
  8
0
 10
53.08828508242015
 20
74.585773547152101
 30
0.0
 40
5.0
  0
LINE
  5
40E
  8
0
 10
48.001003172521912
 20
60.47480041383406
 30
0.0
 11
49.150619344784673
 21
63.250219368434053
 31
0.0
  0
LINE
  5
40F
  8
0
 10
59.468998337833902
 20
61.010557219145049
 30
0.0
 11
58.319382165571142
 21
63.785976173745063
 31
0.0
  0
LINE
  5
410
  8
0
 10
57.025950820055641
 20
63.250219368434117
 30
0.0
 11
58.175566992318288
 21
60.474800413834103
 31
0.0
  0
LINE
  5
411
  8
0
 10
67.199258215738155
 20
69.498491637253906
 30
0.0
 11
64.423839261138141
 21
70.648107809516588
 31
0.0
  0
LINE
  5
412
  8
0
 10
63.888082455827082
 20
69.354676464001102
 30
0.0
 11
66.663501410427102
 21
68.205060291738405
 31
0.0
  0
LINE
  5
413
  8
0
 10
66.663501410427216
 20
80.966486802565825
 30
0.0
 11
63.888082455827202
 21
79.816870630303143
 31
0.0
  0
LINE
  5
414
  8
0
 10
68.071942846798038
 20
75.285773547151919
 30
0.0
 11
65.067851017795306
 21
75.285773547151919
 31
0.0
  0
LINE
  5
415
  8
0
 10
65.067851017795192
 20
73.885773547152226
 30
0.0
 11
68.071942846797924
 21
73.885773547152226
 31
0.0
  0
LINE
  5
416
  8
0
 10
64.423839261138141
 20
78.523439284787585
 30
0.0
 11
67.199258215738155
 21
79.673055457050296
 31
0.0
  0
LINE
  5
417
  8
1
 10
75.088285082420157
 20
74.585773547152101
 30
0.0
 11
31.088285082420189
 21
74.585773547152101
 31
0.0
  0
LINE
  5
418
  8
1
 10
53.08828508242015
 20
96.585773547152087
 30
0.0
 11
53.08828508242015
 21
52.585773547152101
 31
0.0
  0
CIRCLE
  5
419
  8
0
 10
53.08828508242015
 20
74.585773547152101
 30
0.0
 40
16.498743710662019
  0
TEXT
  5
56D
  8
0
 62
     3
 10
0.0
 20
0.0
 30
0.0
 40
10.0
  1
CTR1535
  7
STANDARD1
  0
ENDSEC
  0
EOF
