  0
SECTION
  2
HEADER
  9
$ACADVER
  1
AC1009
  9
$INSBASE
 10
0.0
 20
0.0
 30
0.0
  9
$EXTMIN
 10
0.0
 20
-1.4802182810368341
 30
0.0
  9
$EXTMAX
 10
167.58739199999999
 20
109.69541503799729
 30
0.0
  9
$LIMMIN
 10
0.0
 20
0.0
  9
$LIMMAX
 10
187.5
 20
135.0
  9
$ORTHOMODE
 70
     1
  9
$REGENMODE
 70
     1
  9
$FILLMODE
 70
     1
  9
$QTEXTMODE
 70
     0
  9
$MIRRTEXT
 70
     0
  9
$DRAGMODE
 70
     2
  9
$LTSCALE
 40
5.0
  9
$OSMODE
 70
  3071
  9
$ATTMODE
 70
     1
  9
$TEXTSIZE
 40
4.0
  9
$TRACEWID
 40
0.05
  9
$TEXTSTYLE
  7
STANDARD
  9
$CLAYER
  8
0
  9
$CELTYPE
  6
BYLAYER
  9
$CECOLOR
 62
   256
  9
$DIMSCALE
 40
0.5
  9
$DIMASZ
 40
3.0
  9
$DIMEXO
 40
2.0
  9
$DIMDLI
 40
10.0
  9
$DIMRND
 40
0.0
  9
$DIMDLE
 40
0.0
  9
$DIMEXE
 40
2.0
  9
$DIMTP
 40
0.0
  9
$DIMTM
 40
0.0
  9
$DIMTXT
 40
3.2000000000000002
  9
$DIMCEN
 40
0.09
  9
$DIMTSZ
 40
0.0
  9
$DIMTOL
 70
     0
  9
$DIMLIM
 70
     0
  9
$DIMTIH
 70
     0
  9
$DIMTOH
 70
     0
  9
$DIMSE1
 70
     0
  9
$DIMSE2
 70
     0
  9
$DIMTAD
 70
     1
  9
$DIMZIN
 70
     0
  9
$DIMBLK
  1

  9
$DIMASO
 70
     0
  9
$DIMSHO
 70
     0
  9
$DIMPOST
  1

  9
$DIMAPOST
  1

  9
$DIMALT
 70
     0
  9
$DIMALTD
 70
     2
  9
$DIMALTF
 40
25.399999999999999
  9
$DIMLFAC
 40
1.0
  9
$DIMTOFL
 70
     1
  9
$DIMTVP
 40
1.6000000000000001
  9
$DIMTIX
 70
     1
  9
$DIMSOXD
 70
     0
  9
$DIMSAH
 70
     0
  9
$DIMBLK1
  1

  9
$DIMBLK2
  1

  9
$DIMSTYLE
  2
STANDARD
  9
$DIMCLRD
 70
     0
  9
$DIMCLRE
 70
     0
  9
$DIMCLRT
 70
     0
  9
$DIMTFAC
 40
1.0
  9
$DIMGAP
 40
0.09
  9
$LUNITS
 70
     2
  9
$LUPREC
 70
     4
  9
$SKETCHINC
 40
0.1
  9
$FILLETRAD
 40
1.0
  9
$AUNITS
 70
     0
  9
$AUPREC
 70
     0
  9
$MENU
  1
E:\r13\win\SUPPORT\ACAD
  9
$ELEVATION
 40
0.0
  9
$PELEVATION
 40
0.0
  9
$THICKNESS
 40
0.0
  9
$LIMCHECK
 70
     0
  9
$BLIPMODE
 70
     0
  9
$CHAMFERA
 40
0.0
  9
$CHAMFERB
 40
0.0
  9
$SKPOLY
 70
     0
  9
$TDCREATE
 40
2449840.5949652782
  9
$TDUPDATE
 40
2456598.501614375
  9
$TDINDWG
 40
0.0004793981
  9
$TDUSRTIMER
 40
0.0004793981
  9
$USRTIMER
 70
     1
  9
$ANGBASE
 50
0.0
  9
$ANGDIR
 70
     0
  9
$PDMODE
 70
     0
  9
$PDSIZE
 40
0.0
  9
$PLINEWID
 40
0.0
  9
$COORDS
 70
     1
  9
$SPLFRAME
 70
     0
  9
$SPLINETYPE
 70
     6
  9
$SPLINESEGS
 70
     8
  9
$ATTDIA
 70
     0
  9
$ATTREQ
 70
     1
  9
$HANDLING
 70
     1
  9
$HANDSEED
  5
285
  9
$SURFTAB1
 70
     6
  9
$SURFTAB2
 70
     6
  9
$SURFTYPE
 70
     6
  9
$SURFU
 70
     6
  9
$SURFV
 70
     6
  9
$UCSNAME
  2

  9
$UCSORG
 10
0.0
 20
0.0
 30
0.0
  9
$UCSXDIR
 10
1.0
 20
0.0
 30
0.0
  9
$UCSYDIR
 10
0.0
 20
1.0
 30
0.0
  9
$PUCSNAME
  2

  9
$PUCSORG
 10
0.0
 20
0.0
 30
0.0
  9
$PUCSXDIR
 10
1.0
 20
0.0
 30
0.0
  9
$PUCSYDIR
 10
0.0
 20
1.0
 30
0.0
  9
$USERI1
 70
     0
  9
$USERI2
 70
     1
  9
$USERI3
 70
     0
  9
$USERI4
 70
     0
  9
$USERI5
 70
     0
  9
$USERR1
 40
0.0
  9
$USERR2
 40
0.0
  9
$USERR3
 40
0.0
  9
$USERR4
 40
0.0
  9
$USERR5
 40
0.0
  9
$WORLDVIEW
 70
     1
  9
$SHADEDGE
 70
     3
  9
$SHADEDIF
 70
    70
  9
$TILEMODE
 70
     1
  9
$MAXACTVP
 70
    16
  9
$PLIMCHECK
 70
     0
  9
$PEXTMIN
 10
1.0000000000000000E+020
 20
1.0000000000000000E+020
 30
1.0000000000000000E+020
  9
$PEXTMAX
 10
-1.0000000000000000E+020
 20
-1.0000000000000000E+020
 30
-1.0000000000000000E+020
  9
$PLIMMIN
 10
0.0
 20
0.0
  9
$PLIMMAX
 10
12.0
 20
9.0
  9
$UNITMODE
 70
     0
  9
$VISRETAIN
 70
     0
  9
$PLINEGEN
 70
     0
  9
$PSLTSCALE
 70
     0
  0
ENDSEC
  0
SECTION
  2
TABLES
  0
TABLE
  2
VPORT
 70
     1
  0
VPORT
  2
*ACTIVE
 70
     0
 10
0.0
 20
0.0
 11
1.0
 21
1.0
 12
97.52905416604365
 22
66.75636307133405
 13
0.0
 23
0.0
 14
5.0
 24
5.0
 15
5.0
 25
5.0
 16
0.0
 26
0.0
 36
1.0
 17
0.0
 27
0.0
 37
0.0
 40
137.71137496815999
 41
1.831871345029239
 42
50.0
 43
0.0
 44
0.0
 50
0.0
 51
0.0
 71
     0
 72
   100
 73
     1
 74
     0
 75
     0
 76
     0
 77
     0
 78
     0
  0
ENDTAB
  0
TABLE
  2
LTYPE
 70
     4
  0
LTYPE
  2
CONTINUOUS
 70
     0
  3
Solid Line
 72
    65
 73
     0
 40
0.0
  0
LTYPE
  2
CENTER
 70
     0
  3
____ _ ____ _ ____ _ ____ _ ____ _ ____ _ ____
 72
    65
 73
     4
 40
2.0
 49
1.25
 49
-0.25
 49
0.25
 49
-0.25
  0
LTYPE
  2
HIDDEN
 70
     0
  3
_ _ _ _ _ _ _ _ _ _ _ _ _ _ _ _ _ _ _ _ _ _ _
 72
    65
 73
     2
 40
0.375
 49
0.25
 49
-0.125
  0
LTYPE
  2
PHANTOM2
 70
     0
  3
___ _ _ ___ _ _ ___ _ _ ___ _ _
 72
    65
 73
     6
 40
1.25
 49
0.625
 49
-0.125
 49
0.125
 49
-0.125
 49
0.125
 49
-0.125
  0
ENDTAB
  0
TABLE
  2
LAYER
 70
     4
  0
LAYER
  2
0
 70
     0
 62
     7
  6
CONTINUOUS
  0
LAYER
  2
1
 70
     0
 62
     1
  6
CENTER
  0
LAYER
  2
2
 70
     0
 62
     2
  6
HIDDEN
  0
LAYER
  2
3
 70
     0
 62
     3
  6
CONTINUOUS
  0
ENDTAB
  0
TABLE
  2
STYLE
 70
     2
  0
STYLE
  2
STANDARD
 70
     0
 40
0.0
 41
1.0
 50
0.0
 71
     0
 42
4.0
  3
TXT
  4
BIGFONT
  0
STYLE
  2
STANDARD1
 70
     0
 40
0.0
 41
1.0
 50
0.0
 71
     0
 42
3.0
  3
txt
  4

  0
ENDTAB
  0
TABLE
  2
VIEW
 70
     1
  0
VIEW
  2
ALL
 70
     0
 40
135.0
 10
110.49579799999999
 20
67.5
 41
0.0
 11
0.0
 21
0.0
 31
1.0
 12
0.0
 22
0.0
 32
0.0
 42
0.0
 43
0.0
 44
0.0
 50
0.0
 71
     0
  0
ENDTAB
  0
TABLE
  2
UCS
 70
     0
  0
ENDTAB
  0
TABLE
  2
APPID
 70
     3
  0
APPID
  2
ACAD
 70
     0
  0
APPID
  2
ACAD_MLEADERVER
 70
     0
  0
APPID
  2
ACAD_NAV_VCDISPLAY
 70
     0
  0
ENDTAB
  0
TABLE
  2
DIMSTYLE
 70
     1
  0
DIMSTYLE
  2
STANDARD
 70
     0
  3

  4

  5

  6

  7

 40
1.0
 41
0.18
 42
0.0625
 43
0.38
 44
0.18
 45
0.0
 46
0.0
 47
0.0
 48
0.0
140
0.18
141
0.09
142
0.0
143
25.399999999999999
144
1.0
145
0.0
146
1.0
147
0.09
 71
     0
 72
     0
 73
     1
 74
     1
 75
     0
 76
     0
 77
     0
 78
     0
170
     0
171
     2
172
     0
173
     0
174
     0
175
     0
176
     0
177
     0
178
     0
  0
ENDTAB
  0
ENDSEC
  0
SECTION
  2
BLOCKS
  0
BLOCK
  8
0
  2
$MODEL_SPACE
 70
     0
 10
0.0
 20
0.0
 30
0.0
  3
$MODEL_SPACE
  1

  0
ENDBLK
  5
139
  8
0
  0
BLOCK
 67
     1
  8
0
  2
$PAPER_SPACE
 70
     0
 10
0.0
 20
0.0
 30
0.0
  3
$PAPER_SPACE
  1

  0
ENDBLK
  5
137
 67
     1
  8
0
  0
ENDSEC
  0
SECTION
  2
ENTITIES
  0
LINE
  5
36
  8
1
 10
76.520341000000002
 20
67.805092999999999
 30
0.0
 11
115.220341
 21
67.805092999999999
 31
0.0
  0
LINE
  5
37
  8
1
 10
154.11773700000001
 20
81.274747999999988
 30
0.0
 11
154.11773700000001
 21
54.335438000000003
 31
0.0
  0
POLYLINE
  5
38
  8
0
 66
     1
 10
0.0
 20
0.0
 30
0.0
 70
     1
  0
VERTEX
  5
39
  8
0
 10
144.61773700000001
 20
62.320264999999992
 30
0.0
 50
90.0
  0
VERTEX
  5
3A
  8
0
 10
154.11773700000001
 20
56.835438000000003
 30
0.0
 50
90.0
  0
VERTEX
  5
3B
  8
0
 10
163.61773700000001
 20
62.320264999999992
 30
0.0
 50
90.0
  0
VERTEX
  5
3C
  8
0
 10
163.61773700000001
 20
73.289919999999995
 30
0.0
 50
90.0
  0
VERTEX
  5
3D
  8
0
 10
154.11773700000001
 20
78.774748000000002
 30
0.0
 50
90.0
  0
VERTEX
  5
3E
  8
0
 10
144.61773700000001
 20
73.289919999999995
 30
0.0
 50
90.0
  0
SEQEND
  5
3F
  8
0
  0
LINE
  5
40
  8
0
 10
104.020341
 20
78.774748000000002
 30
0.0
 11
104.020341
 21
56.835438000000003
 31
0.0
  0
LINE
  5
41
  8
0
 10
79.020341000000002
 20
71.805092999999999
 30
0.0
 11
79.020341000000002
 21
63.805092999999999
 31
0.0
  0
CIRCLE
  5
42
  8
0
 10
154.11773700000001
 20
67.805092999999999
 30
0.0
 40
7.9375
  0
CIRCLE
  5
43
  8
0
 10
154.11773700000001
 20
67.805092999999999
 30
0.0
 40
9.5
  0
LINE
  5
44
  8
0
 10
110.347836
 20
78.774748000000002
 30
0.0
 11
104.020341
 21
78.774748000000002
 31
0.0
  0
LINE
  5
45
  8
0
 10
110.347836
 20
73.289919999999995
 30
0.0
 11
104.020341
 21
73.289919999999995
 31
0.0
  0
LINE
  5
46
  8
2
 10
111.196341
 20
75.742592999999999
 30
0.0
 11
109.54534099999999
 21
75.742592999999999
 31
0.0
  0
LINE
  5
47
  8
0
 10
110.347836
 20
62.320264999999992
 30
0.0
 11
104.020341
 21
62.320264999999992
 31
0.0
  0
LINE
  5
48
  8
0
 10
112.720341
 20
67.805092999999999
 30
0.0
 11
111.196341
 21
69.329093
 31
0.0
  0
LINE
  5
49
  8
0
 10
111.196341
 20
69.329093
 30
0.0
 11
112.720341
 21
70.853093000000001
 31
0.0
  0
LINE
  5
4A
  8
0
 10
111.196341
 20
72.377093000000002
 30
0.0
 11
112.720341
 21
73.901093000000003
 31
0.0
  0
LINE
  5
4B
  8
0
 10
112.720341
 20
70.853093000000001
 30
0.0
 11
111.196341
 21
72.377093000000002
 31
0.0
  0
LINE
  5
4C
  8
0
 10
112.720341
 20
73.901093000000003
 30
0.0
 11
111.196341
 21
75.425093000000004
 31
0.0
  0
LINE
  5
4D
  8
0
 10
111.196341
 20
77.305092999999999
 30
0.0
 11
111.196341
 21
58.305093000000006
 31
0.0
  0
LINE
  5
4E
  8
2
 10
109.54534099999999
 20
75.742592999999999
 30
0.0
 11
109.54534099999999
 21
59.867593000000006
 31
0.0
  0
LINE
  5
4F
  8
0
 10
112.720341
 20
61.709093000000003
 30
0.0
 11
111.196341
 21
60.185093000000002
 31
0.0
  0
LINE
  5
50
  8
0
 10
112.720341
 20
64.757093000000012
 30
0.0
 11
111.196341
 21
63.233092999999997
 31
0.0
  0
LINE
  5
51
  8
0
 10
111.196341
 20
63.233092999999997
 30
0.0
 11
112.720341
 21
61.709093000000003
 31
0.0
  0
LINE
  5
52
  8
0
 10
111.196341
 20
66.281092999999998
 30
0.0
 11
112.720341
 21
64.757093000000012
 31
0.0
  0
LINE
  5
53
  8
0
 10
112.720341
 20
67.805092999999999
 30
0.0
 11
111.196341
 21
66.281092999999998
 31
0.0
  0
LINE
  5
54
  8
0
 10
111.196341
 20
77.305092999999999
 30
0.0
 11
110.347836
 21
78.774748000000002
 31
0.0
  0
ARC
  5
55
  8
0
 10
106.340278
 20
76.032333999999992
 30
0.0
 40
4.8560629999999989
 50
325.61575299999998
 51
25.615753000000002
  0
ARC
  5
56
  8
0
 10
93.044847000000004
 20
67.805092999999999
 30
0.0
 40
18.151494
 50
342.41204599999998
 51
17.587954
  0
LINE
  5
57
  8
0
 10
111.196341
 20
58.305093000000006
 30
0.0
 11
110.347836
 21
56.835438000000003
 31
0.0
  0
LINE
  5
58
  8
2
 10
111.196341
 20
59.867593000000006
 30
0.0
 11
109.54534099999999
 21
59.867593000000006
 31
0.0
  0
LINE
  5
59
  8
0
 10
110.347836
 20
56.835438000000003
 30
0.0
 11
104.020341
 21
56.835438000000003
 31
0.0
  0
ARC
  5
5A
  8
0
 10
106.340278
 20
59.577851000000003
 30
0.0
 40
4.8560629999999989
 50
334.38424700000002
 51
34.384247000000002
  0
LINE
  5
5B
  8
0
 10
81.020341000000002
 20
61.805092999999999
 30
0.0
 11
103.020341
 21
61.805092999999999
 31
0.0
  0
LINE
  5
5C
  8
3
 10
80.073340999999985
 20
62.752093000000002
 30
0.0
 11
100.520341
 21
62.752093000000002
 31
0.0
  0
LINE
  5
5D
  8
3
 10
80.073340999999985
 20
72.858093000000011
 30
0.0
 11
100.520341
 21
72.858093000000011
 31
0.0
  0
LINE
  5
5E
  8
0
 10
81.020341000000002
 20
73.805092999999985
 30
0.0
 11
103.020341
 21
73.805092999999985
 31
0.0
  0
ARC
  5
5F
  8
0
 10
103.020341
 20
74.805092999999999
 30
0.0
 40
1.0
 50
270.0
 51
0.0
  0
ARC
  5
60
  8
0
 10
103.020341
 20
60.805093000000006
 30
0.0
 40
1.0
 50
0.0
 51
90.0
  0
LINE
  5
61
  8
0
 10
81.020341000000002
 20
73.805092999999985
 30
0.0
 11
79.020341000000002
 21
71.805092999999999
 31
0.0
  0
LINE
  5
62
  8
0
 10
79.020341000000002
 20
63.805092999999999
 30
0.0
 11
81.020341000000002
 21
61.805092999999999
 31
0.0
  0
LINE
  5
63
  8
0
 10
81.020341000000002
 20
73.805092999999985
 30
0.0
 11
81.020341000000002
 21
61.805092999999999
 31
0.0
  0
LINE
  5
64
  8
0
 10
100.520341
 20
73.805092999999985
 30
0.0
 11
100.520341
 21
61.805092999999999
 31
0.0
  0
LINE
  5
65
  8
3
 10
100.520341
 20
72.858093000000011
 30
0.0
 11
102.16059300000001
 21
73.805092999999985
 31
0.0
  0
LINE
  5
66
  8
3
 10
100.520341
 20
62.752093000000002
 30
0.0
 11
102.16059300000001
 21
61.805092999999999
 31
0.0
  0
LINE
  5
67
  8
3
 10
147.62923000000001
 20
72.377093000000002
 30
0.0
 11
160.606244
 21
72.377093000000002
 31
0.0
  0
LINE
  5
68
  8
3
 10
146.32791499999999
 20
69.329093
 30
0.0
 11
161.90755899999999
 21
69.329093
 31
0.0
  0
LINE
  5
69
  8
3
 10
151.89523700000001
 20
75.425093000000004
 30
0.0
 11
156.340237
 21
75.425093000000004
 31
0.0
  0
LINE
  5
6A
  8
3
 10
151.89523700000001
 20
60.185093000000002
 30
0.0
 11
156.340237
 21
60.185093000000002
 31
0.0
  0
LINE
  5
6B
  8
3
 10
147.62923000000001
 20
63.233092999999997
 30
0.0
 11
160.606244
 21
63.233092999999997
 31
0.0
  0
LINE
  5
6C
  8
3
 10
146.32791499999999
 20
66.281092999999998
 30
0.0
 11
161.90755899999999
 21
66.281092999999998
 31
0.0
  0
LINE
  5
6D
  8
3
 10
146.497737
 20
65.582593000000003
 30
0.0
 11
146.497737
 21
70.02759300000001
 31
0.0
  0
LINE
  5
6E
  8
3
 10
149.545737
 20
61.316586000000001
 30
0.0
 11
149.545737
 21
74.293599999999984
 31
0.0
  0
LINE
  5
6F
  8
3
 10
152.593737
 20
60.015269999999987
 30
0.0
 11
152.593737
 21
75.594915
 31
0.0
  0
LINE
  5
70
  8
3
 10
155.64173700000001
 20
60.015269999999987
 30
0.0
 11
155.64173700000001
 21
75.594915
 31
0.0
  0
LINE
  5
71
  8
3
 10
158.68973700000001
 20
61.316586000000001
 30
0.0
 11
158.68973700000001
 21
74.293599999999984
 31
0.0
  0
LINE
  5
72
  8
3
 10
161.73773700000001
 20
65.582593000000003
 30
0.0
 11
161.73773700000001
 21
70.02759300000001
 31
0.0
  0
LINE
  5
73
  8
3
 10
152.801312
 20
75.632667999999995
 30
0.0
 11
146.29016200000001
 21
69.121518000000009
 31
0.0
  0
LINE
  5
74
  8
3
 10
155.78265999999999
 20
75.566016000000005
 30
0.0
 11
146.35681299999999
 21
66.140169
 31
0.0
  0
LINE
  5
75
  8
3
 10
157.995531
 20
74.730886999999996
 30
0.0
 11
147.1919429999999
 21
63.927298999999991
 31
0.0
  0
LINE
  5
76
  8
3
 10
159.73039700000001
 20
73.417753000000005
 30
0.0
 11
148.505077
 21
62.192432999999987
 31
0.0
  0
LINE
  5
77
  8
3
 10
155.43416199999999
 20
59.977518000000003
 30
0.0
 11
161.945312
 21
66.488668000000004
 31
0.0
  0
LINE
  5
78
  8
3
 10
152.45281299999999
 20
60.044168999999989
 30
0.0
 11
161.87866
 21
69.470016000000001
 31
0.0
  0
LINE
  5
79
  8
3
 10
150.23994300000001
 20
60.879298999999989
 30
0.0
 11
161.043531
 21
71.682886999999994
 31
0.0
  0
LINE
  5
7A
  8
3
 10
155.43416199999999
 20
75.632667999999995
 30
0.0
 11
161.945312
 21
69.121518000000009
 31
0.0
  0
LINE
  5
7B
  8
3
 10
152.45281299999999
 20
75.566016000000005
 30
0.0
 11
161.87866
 21
66.140169
 31
0.0
  0
LINE
  5
7C
  8
3
 10
150.23994300000001
 20
74.730886999999996
 30
0.0
 11
161.043531
 21
63.927298999999991
 31
0.0
  0
LINE
  5
7D
  8
3
 10
148.505077
 20
73.417753000000005
 30
0.0
 11
159.73039700000001
 21
62.192432999999987
 31
0.0
  0
LINE
  5
7E
  8
3
 10
157.995531
 20
60.879298999999989
 30
0.0
 11
147.1919429999999
 21
71.682886999999994
 31
0.0
  0
LINE
  5
7F
  8
3
 10
155.78265999999999
 20
60.044168999999989
 30
0.0
 11
146.35681299999999
 21
69.470016000000001
 31
0.0
  0
LINE
  5
80
  8
3
 10
152.801312
 20
59.977518000000003
 30
0.0
 11
146.29016200000001
 21
66.488668000000004
 31
0.0
  0
LINE
  5
81
  8
1
 10
41.245475999999996
 20
81.274747999999988
 30
0.0
 11
41.245475999999996
 21
54.335438000000003
 31
0.0
  0
LINE
  5
82
  8
1
 10
27.775821000000001
 20
67.805092999999999
 30
0.0
 11
54.715131000000007
 21
67.805092999999999
 31
0.0
  0
POLYLINE
  5
83
  8
0
 66
     1
 10
0.0
 20
0.0
 30
0.0
 70
     1
  0
VERTEX
  5
84
  8
0
 10
31.745476
 20
62.320264999999992
 30
0.0
 50
90.0
  0
VERTEX
  5
85
  8
0
 10
41.245475999999996
 20
56.835438000000003
 30
0.0
 50
90.0
  0
VERTEX
  5
86
  8
0
 10
50.745475999999996
 20
62.320264999999992
 30
0.0
 50
90.0
  0
VERTEX
  5
87
  8
0
 10
50.745475999999996
 20
73.289919999999995
 30
0.0
 50
90.0
  0
VERTEX
  5
88
  8
0
 10
41.245475999999996
 20
78.774748000000002
 30
0.0
 50
90.0
  0
VERTEX
  5
89
  8
0
 10
31.745476
 20
73.289919999999995
 30
0.0
 50
90.0
  0
SEQEND
  5
8A
  8
0
  0
CIRCLE
  5
8B
  8
0
 10
41.245475999999996
 20
67.805092999999999
 30
0.0
 40
6.0
  0
CIRCLE
  5
8C
  8
3
 10
41.245475999999996
 20
67.805092999999999
 30
0.0
 40
5.052999999999999
  0
LINE
  5
8D
  8
0
 10
111.196341
 20
108.22575999999999
 30
0.0
 11
110.347836
 21
109.695415
 31
0.0
  0
LINE
  5
8E
  8
0
 10
111.196341
 20
92.16507
 30
0.0
 11
110.347836
 21
90.695414999999997
 31
0.0
  0
LINE
  5
8F
  8
0
 10
112.720341
 20
94.099414999999993
 30
0.0
 11
111.196341
 21
92.575415000000007
 31
0.0
  0
LINE
  5
90
  8
0
 10
112.720341
 20
97.147415000000024
 30
0.0
 11
111.196341
 21
95.623414999999994
 31
0.0
  0
LINE
  5
91
  8
0
 10
111.196341
 20
95.623414999999994
 30
0.0
 11
112.720341
 21
94.099414999999993
 31
0.0
  0
LINE
  5
92
  8
0
 10
111.196341
 20
98.671414999999996
 30
0.0
 11
112.720341
 21
97.147415000000024
 31
0.0
  0
LINE
  5
93
  8
0
 10
112.720341
 20
100.195415
 30
0.0
 11
111.196341
 21
98.671414999999996
 31
0.0
  0
LINE
  5
94
  8
0
 10
112.720341
 20
100.195415
 30
0.0
 11
111.196341
 21
101.719415
 31
0.0
  0
LINE
  5
95
  8
0
 10
111.196341
 20
101.719415
 30
0.0
 11
112.720341
 21
103.243415
 31
0.0
  0
LINE
  5
96
  8
0
 10
111.196341
 20
104.767415
 30
0.0
 11
112.720341
 21
106.291415
 31
0.0
  0
LINE
  5
97
  8
0
 10
112.720341
 20
103.243415
 30
0.0
 11
111.196341
 21
104.767415
 31
0.0
  0
LINE
  5
98
  8
0
 10
112.720341
 20
106.291415
 30
0.0
 11
111.196341
 21
107.815415
 31
0.0
  0
LINE
  5
99
  8
1
 10
76.520341000000002
 20
100.195415
 30
0.0
 11
115.220341
 21
100.195415
 31
0.0
  0
LINE
  5
9A
  8
0
 10
79.020341000000002
 20
104.195415
 30
0.0
 11
79.020341000000002
 21
96.195414999999997
 31
0.0
  0
LINE
  5
9B
  8
0
 10
81.020341000000002
 20
94.195414999999997
 30
0.0
 11
103.020341
 21
94.195414999999997
 31
0.0
  0
LINE
  5
9C
  8
3
 10
80.073340999999985
 20
95.142415
 30
0.0
 11
100.520341
 21
95.142415
 31
0.0
  0
LINE
  5
9D
  8
3
 10
80.073340999999985
 20
105.24841499999999
 30
0.0
 11
100.520341
 21
105.24841499999999
 31
0.0
  0
LINE
  5
9E
  8
0
 10
81.020341000000002
 20
106.195415
 30
0.0
 11
103.020341
 21
106.195415
 31
0.0
  0
ARC
  5
9F
  8
0
 10
103.020341
 20
107.195415
 30
0.0
 40
1.0
 50
270.0
 51
0.0
  0
ARC
  5
A0
  8
0
 10
103.020341
 20
93.195414999999997
 30
0.0
 40
1.0
 50
0.0
 51
90.0
  0
LINE
  5
A1
  8
0
 10
81.020341000000002
 20
106.195415
 30
0.0
 11
79.020341000000002
 21
104.195415
 31
0.0
  0
LINE
  5
A2
  8
0
 10
79.020341000000002
 20
96.195414999999997
 30
0.0
 11
81.020341000000002
 21
94.195414999999997
 31
0.0
  0
LINE
  5
A3
  8
0
 10
81.020341000000002
 20
106.195415
 30
0.0
 11
81.020341000000002
 21
94.195414999999997
 31
0.0
  0
LINE
  5
A4
  8
0
 10
100.520341
 20
106.195415
 30
0.0
 11
100.520341
 21
94.195414999999997
 31
0.0
  0
LINE
  5
A5
  8
3
 10
100.520341
 20
105.24841499999999
 30
0.0
 11
102.16059300000001
 21
106.195415
 31
0.0
  0
LINE
  5
A6
  8
3
 10
100.520341
 20
95.142415
 30
0.0
 11
102.16059300000001
 21
94.195414999999997
 31
0.0
  0
ARC
  5
A7
  8
0
 10
97.476656999999975
 20
95.445414999999997
 30
0.0
 40
13.719684000000001
 50
339.74384199999997
 51
20.256157999999999
  0
ARC
  5
A8
  8
0
 10
97.476656999999975
 20
104.945415
 30
0.0
 40
13.719684000000001
 50
339.74384199999997
 51
20.256157999999999
  0
LINE
  5
A9
  8
0
 10
110.347836
 20
100.195415
 30
0.0
 11
104.020341
 21
100.195415
 31
0.0
  0
LINE
  5
AA
  8
0
 10
111.196341
 20
108.22575999999999
 30
0.0
 11
111.196341
 21
92.16507
 31
0.0
  0
LINE
  5
AB
  8
0
 10
104.020341
 20
109.695415
 30
0.0
 11
104.020341
 21
90.695414999999997
 31
0.0
  0
LINE
  5
AC
  8
0
 10
110.347836
 20
90.695414999999997
 30
0.0
 11
104.020341
 21
90.695414999999997
 31
0.0
  0
LINE
  5
AD
  8
0
 10
110.347836
 20
109.695415
 30
0.0
 11
104.020341
 21
109.695415
 31
0.0
  0
LINE
  5
AE
  8
0
 10
110.347836
 20
25.914770000000001
 30
0.0
 11
104.020341
 21
25.914770000000001
 31
0.0
  0
LINE
  5
AF
  8
0
 10
110.347836
 20
44.914769999999997
 30
0.0
 11
104.020341
 21
44.914769999999997
 31
0.0
  0
LINE
  5
B0
  8
0
 10
104.020341
 20
25.914770000000001
 30
0.0
 11
104.020341
 21
44.914769999999997
 31
0.0
  0
LINE
  5
B1
  8
0
 10
111.196341
 20
27.384425
 30
0.0
 11
111.196341
 21
43.445115000000001
 31
0.0
  0
LINE
  5
B2
  8
0
 10
110.347836
 20
35.414769999999997
 30
0.0
 11
104.020341
 21
35.414769999999997
 31
0.0
  0
ARC
  5
B3
  8
0
 10
97.476656999999975
 20
30.664770000000001
 30
0.0
 40
13.719684000000001
 50
339.74384199999997
 51
20.256157999999999
  0
ARC
  5
B4
  8
0
 10
97.476656999999975
 20
40.164769999999997
 30
0.0
 40
13.719684000000001
 50
339.74384199999997
 51
20.256157999999999
  0
LINE
  5
B5
  8
3
 10
100.520341
 20
40.467770000000002
 30
0.0
 11
102.16059300000001
 21
41.414769999999997
 31
0.0
  0
LINE
  5
B6
  8
3
 10
100.520341
 20
30.36177
 30
0.0
 11
102.16059300000001
 21
29.414770000000001
 31
0.0
  0
LINE
  5
B7
  8
0
 10
100.520341
 20
29.414770000000001
 30
0.0
 11
100.520341
 21
41.414769999999997
 31
0.0
  0
LINE
  5
B8
  8
0
 10
81.020341000000002
 20
29.414770000000001
 30
0.0
 11
81.020341000000002
 21
41.414769999999997
 31
0.0
  0
LINE
  5
B9
  8
0
 10
79.020341000000002
 20
39.414770000000011
 30
0.0
 11
81.020341000000002
 21
41.414769999999997
 31
0.0
  0
LINE
  5
BA
  8
0
 10
81.020341000000002
 20
29.414770000000001
 30
0.0
 11
79.020341000000002
 21
31.414770000000001
 31
0.0
  0
ARC
  5
BB
  8
0
 10
103.020341
 20
42.414769999999997
 30
0.0
 40
1.0
 50
270.0
 51
360.0
  0
ARC
  5
BC
  8
0
 10
103.020341
 20
28.414770000000001
 30
0.0
 40
1.0
 50
360.0
 51
90.0
  0
LINE
  5
BD
  8
0
 10
81.020341000000002
 20
29.414770000000001
 30
0.0
 11
103.020341
 21
29.414770000000001
 31
0.0
  0
LINE
  5
BE
  8
3
 10
80.073340999999985
 20
30.36177
 30
0.0
 11
100.520341
 21
30.36177
 31
0.0
  0
LINE
  5
BF
  8
3
 10
80.073340999999985
 20
40.467770000000002
 30
0.0
 11
100.520341
 21
40.467770000000002
 31
0.0
  0
LINE
  5
C0
  8
0
 10
81.020341000000002
 20
41.414769999999997
 30
0.0
 11
103.020341
 21
41.414769999999997
 31
0.0
  0
LINE
  5
C1
  8
0
 10
79.020341000000002
 20
31.414770000000001
 30
0.0
 11
79.020341000000002
 21
39.414770000000011
 31
0.0
  0
LINE
  5
C2
  8
1
 10
76.520341000000002
 20
35.414769999999997
 30
0.0
 11
115.220341
 21
35.414769999999997
 31
0.0
  0
LINE
  5
C3
  8
0
 10
112.720341
 20
29.318770000000001
 30
0.0
 11
111.196341
 21
27.79477
 31
0.0
  0
LINE
  5
C4
  8
0
 10
112.720341
 20
32.366770000000002
 30
0.0
 11
111.196341
 21
30.842770000000002
 31
0.0
  0
LINE
  5
C5
  8
0
 10
111.196341
 20
30.842770000000002
 30
0.0
 11
112.720341
 21
29.318770000000001
 31
0.0
  0
LINE
  5
C6
  8
0
 10
111.196341
 20
33.890770000000003
 30
0.0
 11
112.720341
 21
32.366770000000002
 31
0.0
  0
LINE
  5
C7
  8
0
 10
112.720341
 20
35.414769999999997
 30
0.0
 11
111.196341
 21
33.890770000000003
 31
0.0
  0
LINE
  5
C8
  8
0
 10
112.720341
 20
35.414769999999997
 30
0.0
 11
111.196341
 21
36.938769999999998
 31
0.0
  0
LINE
  5
C9
  8
0
 10
111.196341
 20
36.938769999999998
 30
0.0
 11
112.720341
 21
38.462769999999999
 31
0.0
  0
LINE
  5
CA
  8
0
 10
111.196341
 20
39.98677
 30
0.0
 11
112.720341
 21
41.510769999999987
 31
0.0
  0
LINE
  5
CB
  8
0
 10
112.720341
 20
38.462769999999999
 30
0.0
 11
111.196341
 21
39.98677
 31
0.0
  0
LINE
  5
CC
  8
0
 10
112.720341
 20
41.510769999999987
 30
0.0
 11
111.196341
 21
43.034769999999988
 31
0.0
  0
LINE
  5
CD
  8
0
 10
111.196341
 20
43.445115000000001
 30
0.0
 11
110.347836
 21
44.914769999999997
 31
0.0
  0
LINE
  5
CE
  8
0
 10
111.196341
 20
27.384425
 30
0.0
 11
110.347836
 21
25.914770000000001
 31
0.0
  0
LINE
  5
D8
  8
1
 10
140.64808199999999
 20
67.805092999999999
 30
0.0
 11
167.58739199999999
 21
67.805092999999999
 31
0.0
  0
TEXT
  5
1F4
  8
0
 62
     3
 10
0.0
 20
0.0
 30
0.0
 40
5.0
  1
CT-12175
  7
STANDARD1
  0
ENDSEC
  0
EOF
