  0
SECTION
  2
HEADER
  9
$ACADVER
  1
AC1009
  9
$INSBASE
 10
0.0
 20
0.0
 30
0.0
  9
$EXTMIN
 10
0.0
 20
-2.960436562073669
 30
0.0
  9
$EXTMAX
 10
232.1796773361516
 20
238.6637848829109
 30
0.0
  9
$LIMMIN
 10
0.0
 20
0.0
  9
$LIMMAX
 10
275.0
 20
175.0
  9
$ORTHOMODE
 70
     0
  9
$REGENMODE
 70
     1
  9
$FILLMODE
 70
     1
  9
$QTEXTMODE
 70
     0
  9
$MIRRTEXT
 70
     0
  9
$DRAGMODE
 70
     2
  9
$LTSCALE
 40
10.0
  9
$OSMODE
 70
  3071
  9
$ATTMODE
 70
     1
  9
$TEXTSIZE
 40
0.2
  9
$TRACEWID
 40
0.05
  9
$TEXTSTYLE
  7
STANDARD
  9
$CLAYER
  8
0
  9
$CELTYPE
  6
BYLAYER
  9
$CECOLOR
 62
   256
  9
$DIMSCALE
 40
1.0
  9
$DIMASZ
 40
3.0
  9
$DIMEXO
 40
1.0
  9
$DIMDLI
 40
6.0
  9
$DIMRND
 40
0.0
  9
$DIMDLE
 40
0.0
  9
$DIMEXE
 40
1.0
  9
$DIMTP
 40
495.0
  9
$DIMTM
 40
0.0
  9
$DIMTXT
 40
3.0
  9
$DIMCEN
 40
0.0
  9
$DIMTSZ
 40
0.0
  9
$DIMTOL
 70
     0
  9
$DIMLIM
 70
     0
  9
$DIMTIH
 70
     0
  9
$DIMTOH
 70
     0
  9
$DIMSE1
 70
     0
  9
$DIMSE2
 70
     0
  9
$DIMTAD
 70
     1
  9
$DIMZIN
 70
     0
  9
$DIMBLK
  1

  9
$DIMASO
 70
     0
  9
$DIMSHO
 70
     0
  9
$DIMPOST
  1

  9
$DIMAPOST
  1

  9
$DIMALT
 70
     0
  9
$DIMALTD
 70
     2
  9
$DIMALTF
 40
25.399999999999999
  9
$DIMLFAC
 40
1.0
  9
$DIMTOFL
 70
     1
  9
$DIMTVP
 40
0.0
  9
$DIMTIX
 70
     1
  9
$DIMSOXD
 70
     0
  9
$DIMSAH
 70
     0
  9
$DIMBLK1
  1

  9
$DIMBLK2
  1

  9
$DIMSTYLE
  2
STANDARD
  9
$DIMCLRD
 70
     0
  9
$DIMCLRE
 70
     0
  9
$DIMCLRT
 70
     4
  9
$DIMTFAC
 40
1.0
  9
$DIMGAP
 40
1.0
  9
$LUNITS
 70
     2
  9
$LUPREC
 70
     4
  9
$SKETCHINC
 40
0.1
  9
$FILLETRAD
 40
0.0
  9
$AUNITS
 70
     0
  9
$AUPREC
 70
     0
  9
$MENU
  1
E:\r13\win\SUPPORT\ACAD
  9
$ELEVATION
 40
0.0
  9
$PELEVATION
 40
0.0
  9
$THICKNESS
 40
0.0
  9
$LIMCHECK
 70
     0
  9
$BLIPMODE
 70
     0
  9
$CHAMFERA
 40
0.0
  9
$CHAMFERB
 40
0.0
  9
$SKPOLY
 70
     0
  9
$TDCREATE
 40
2450653.5278402781
  9
$TDUPDATE
 40
2456598.5012139119
  9
$TDINDWG
 40
0.1364863542
  9
$TDUSRTIMER
 40
0.1364863542
  9
$USRTIMER
 70
     1
  9
$ANGBASE
 50
0.0
  9
$ANGDIR
 70
     0
  9
$PDMODE
 70
     0
  9
$PDSIZE
 40
0.0
  9
$PLINEWID
 40
0.0
  9
$COORDS
 70
     1
  9
$SPLFRAME
 70
     0
  9
$SPLINETYPE
 70
     6
  9
$SPLINESEGS
 70
     8
  9
$ATTDIA
 70
     0
  9
$ATTREQ
 70
     1
  9
$HANDLING
 70
     1
  9
$HANDSEED
  5
1EE7
  9
$SURFTAB1
 70
     6
  9
$SURFTAB2
 70
     6
  9
$SURFTYPE
 70
     6
  9
$SURFU
 70
     6
  9
$SURFV
 70
     6
  9
$UCSNAME
  2

  9
$UCSORG
 10
0.0
 20
0.0
 30
0.0
  9
$UCSXDIR
 10
1.0
 20
0.0
 30
0.0
  9
$UCSYDIR
 10
0.0
 20
1.0
 30
0.0
  9
$PUCSNAME
  2

  9
$PUCSORG
 10
0.0
 20
0.0
 30
0.0
  9
$PUCSXDIR
 10
1.0
 20
0.0
 30
0.0
  9
$PUCSYDIR
 10
0.0
 20
1.0
 30
0.0
  9
$USERI1
 70
     4
  9
$USERI2
 70
     1
  9
$USERI3
 70
     0
  9
$USERI4
 70
     0
  9
$USERI5
 70
     0
  9
$USERR1
 40
1.0
  9
$USERR2
 40
3.0
  9
$USERR3
 40
3.0
  9
$USERR4
 40
3.0
  9
$USERR5
 40
10.0
  9
$WORLDVIEW
 70
     1
  9
$SHADEDGE
 70
     3
  9
$SHADEDIF
 70
    70
  9
$TILEMODE
 70
     1
  9
$MAXACTVP
 70
    16
  9
$PLIMCHECK
 70
     0
  9
$PEXTMIN
 10
1.0000000000000000E+020
 20
1.0000000000000000E+020
 30
1.0000000000000000E+020
  9
$PEXTMAX
 10
-1.0000000000000000E+020
 20
-1.0000000000000000E+020
 30
-1.0000000000000000E+020
  9
$PLIMMIN
 10
0.0
 20
0.0
  9
$PLIMMAX
 10
12.0
 20
9.0
  9
$UNITMODE
 70
     0
  9
$VISRETAIN
 70
     0
  9
$PLINEGEN
 70
     0
  9
$PSLTSCALE
 70
     0
  0
ENDSEC
  0
SECTION
  2
TABLES
  0
TABLE
  2
VPORT
 70
     1
  0
VPORT
  2
*ACTIVE
 70
     0
 10
0.0
 20
0.0
 11
1.0
 21
1.0
 12
13.019243853365481
 22
-2.01783702350167
 13
0.0
 23
0.0
 14
5.0
 24
5.0
 15
10.0
 25
10.0
 16
0.0
 26
0.0
 36
1.0
 17
131.1723198195466
 27
119.8657289761295
 37
0.0
 40
243.81358572647349
 41
1.831871345029239
 42
50.0
 43
0.0
 44
0.0
 50
0.0
 51
0.0
 71
     0
 72
   100
 73
     1
 74
     0
 75
     0
 76
     0
 77
     0
 78
     0
  0
ENDTAB
  0
TABLE
  2
LTYPE
 70
    13
  0
LTYPE
  2
CONTINUOUS
 70
     0
  3
Solid Line
 72
    65
 73
     0
 40
0.0
  0
LTYPE
  2
CENTER
 70
     0
  3
____ _ ____ _ ____ _ ____ _ ____ _ ____ _ ____
 72
    65
 73
     4
 40
2.0
 49
1.25
 49
-0.25
 49
0.25
 49
-0.25
  0
LTYPE
  2
HIDDEN
 70
     0
  3
__ __ __ __ __ __ __ __ __ __ __ __ __ __ __ __
 72
    65
 73
     2
 40
0.375
 49
0.25
 49
-0.125
  0
LTYPE
  2
PHANTOM2
 70
     0
  3
Phantom (.5x) ___ _ _ ___ _ _ ___ _ _ ___ _ _
 72
    65
 73
     6
 40
1.25
 49
0.625
 49
-0.125
 49
0.125
 49
-0.125
 49
0.125
 49
-0.125
  0
LTYPE
  2
AM_ISO02W050
 70
     0
  3
__ __ __ __ __ __ __ __ __ __ __ __ __ __ __
 72
    65
 73
     2
 40
7.5
 49
6.0
 49
-1.5
  0
LTYPE
  2
AM_ISO08W050
 70
     0
  3
____ . ____ . ____ . ____ . ____ . ____ . ____
 72
    65
 73
     4
 40
18.0
 49
12.0
 49
-1.5
 49
3.0
 49
-1.5
  0
LTYPE
  2
AM_ISO09W050
 70
     0
  3
_____ . . _____ . . _____ . . ____ .. ____
 72
    65
 73
     6
 40
22.5
 49
12.0
 49
-1.5
 49
3.0
 49
-1.5
 49
3.0
 49
-1.5
  0
LTYPE
  2
AMCONSTR
 70
     0
  3
_______________________
 72
    65
 73
     2
 40
9999.0
 49
9999.0
 49
0.0
  0
LTYPE
  2
AM_ISO08W050X2
 70
     0
  3
__ . __ . __ . __ . __ . __
 72
    65
 73
     4
 40
9.0
 49
6.0
 49
-0.75
 49
1.5
 49
-0.75
  0
LTYPE
  2
AM_ISO02W050X2
 70
     0
  3
 _ _ _ _ _ _ _ _ _ _ _ _
 72
    65
 73
     2
 40
3.75
 49
3.0
 49
-0.75
  0
LTYPE
  2
AMZIGZAG
 70
     0
  3
/\/-/\/-/\/-/\/-/\/-/\/
 72
    65
 73
     2
 40
11.0001
 49
0.0001
 49
-11.0
  0
LTYPE
  2
ACANSTGB
 70
     0
  3
__ . . __ . .
 72
    65
 73
     6
 40
0.35433070866
 49
0.15748031496
 49
-0.03937007874
 49
0.03937007874
 49
-0.03937007874
 49
0.03937007874
 49
-0.03937007874
  0
LTYPE
  2
ACANSTGL
 70
     0
  3
_ _ _ _ _
 72
    65
 73
     2
 40
0.11811023622
 49
0.07874015748
 49
-0.03937007874
  0
ENDTAB
  0
TABLE
  2
LAYER
 70
     4
  0
LAYER
  2
0
 70
     0
 62
     7
  6
CONTINUOUS
  0
LAYER
  2
1
 70
     0
 62
     1
  6
CENTER
  0
LAYER
  2
2
 70
     0
 62
     2
  6
HIDDEN
  0
LAYER
  2
3
 70
     0
 62
     3
  6
CONTINUOUS
  0
ENDTAB
  0
TABLE
  2
STYLE
 70
     5
  0
STYLE
  2
STANDARD
 70
     0
 40
0.0
 41
1.0
 50
0.0
 71
     0
 42
0.2
  3
simplex
  4
bigfont
  0
STYLE
  2

 70
     1
 40
0.0
 41
1.0
 50
0.0
 71
     0
 42
0.2
  3
ltypeshp.shx
  4

  0
STYLE
  2
ACANSTS
 70
     0
 40
1.0
 41
1.0
 50
0.0
 71
     0
 42
0.2
  3
romans.shx
  4
extfont.shx
  0
STYLE
  2
ACANSGDT
 70
     0
 40
0.0
 41
1.0
 50
0.0
 71
     0
 42
0.2
  3
amgdtans.shx
  4

  0
STYLE
  2
STANDARD1
 70
     0
 40
0.0
 41
1.0
 50
0.0
 71
     0
 42
3.0
  3
txt
  4

  0
ENDTAB
  0
TABLE
  2
VIEW
 70
     0
  0
ENDTAB
  0
TABLE
  2
UCS
 70
     0
  0
ENDTAB
  0
TABLE
  2
APPID
 70
    57
  0
APPID
  2
ACAD
 70
     0
  0
APPID
  2
GENIUS_GENODEF_13
 70
     0
  0
APPID
  2
GENIUS_GENOBJ-N-FIL_13
 70
     0
  0
APPID
  2
GENIUS_GENOENT_13
 70
     0
  0
APPID
  2
GENIUS_GENOBJ_13
 70
     0
  0
APPID
  2
GENIUS_GENOLIS_13
 70
     0
  0
APPID
  2
GENIUS_GENOREF_13
 70
     0
  0
APPID
  2
GENIUS_GENOBJ-N-SEC_13
 70
     0
  0
APPID
  2
GENIUS_GENOBJ-N-CRS_13
 70
     0
  0
APPID
  2
GENIUS_GENBH_13
 70
     0
  0
APPID
  2
GENIUS_GENOBJ-NBEHI-BHF_13
 70
     0
  0
APPID
  2
GENIUS_GENOBJ-NBEHI-BHB_13
 70
     0
  0
APPID
  2
GENIUS_GENOBJ-F-PART_13
 70
     0
  0
APPID
  2
GENIUS_GEFSTDP_13
 70
     0
  0
APPID
  2
GENIUS_GENOBJ-N-RSSYM_13
 70
     0
  0
APPID
  2
GENIUS_GENSYMENT_13
 70
     0
  0
APPID
  2
GENIUS_GEFINERT_13
 70
     0
  0
APPID
  2
GENIUS_GENOBJ-F-INER_13
 70
     0
  0
APPID
  2
GENIUS_GENOBJ-N-TIT_13
 70
     0
  0
APPID
  2
GENIUS_GENTITLE_13
 70
     0
  0
APPID
  2
GENIUS_GENZVEED_13
 70
     0
  0
APPID
  2
GENIUS_GENOBJ-N-LEADER_13
 70
     0
  0
APPID
  2
GENIUS_GENOBJ-N-ZOO_13
 70
     0
  0
APPID
  2
GENIUS_GENZOO_13
 70
     0
  0
APPID
  2
GENIUS_GENOBJ-F-TOL_13
 70
     0
  0
APPID
  2
GENIUS_GENOBJ-N-REV_13
 70
     0
  0
APPID
  2
GENIUS_GENOBJ-F-ROD_13
 70
     0
  0
APPID
  2
GENIUS_GENOBJ-F-SPR_13
 70
     0
  0
APPID
  2
GENIUS_GEFSPRING_13
 70
     0
  0
APPID
  2
GENIUS_GENCFG_13
 70
     0
  0
APPID
  2
GENIUS_GENCFG0_13
 70
     0
  0
APPID
  2
GENIUS_GENCFG1_13
 70
     0
  0
APPID
  2
GENIUS_GENCFG2_13
 70
     0
  0
APPID
  2
GENIUS_GENCFG3_13
 70
     0
  0
APPID
  2
GENIUS_GENCFG4_13
 70
     0
  0
APPID
  2
GENIUS_GEVCFG0_13
 70
     0
  0
APPID
  2
GENIUS_GENOBJ-N-REC_13
 70
     0
  0
APPID
  2
GENIUS_GENFIL_13
 70
     0
  0
APPID
  2
GENIUS_GENOBJ-N-CHA_13
 70
     0
  0
APPID
  2
GENIUS_GENREC_13
 70
     0
  0
APPID
  2
GENIUS_GENOBJ-F-FEM_13
 70
     0
  0
APPID
  2
GENIUS_GEFFEM_13
 70
     0
  0
APPID
  2
GENIUS_GENOBJ-N-CEN_13
 70
     0
  0
APPID
  2
GENIUS_GENREC_14
 70
     0
  0
APPID
  2
GENIUS_GENDIM_13
 70
     0
  0
APPID
  2
GENIUS_GENDTOL_13
 70
     0
  0
APPID
  2
GENIUS_GE3DTOL_13
 70
     0
  0
APPID
  2
MCAD_NO_VIS
 70
     0
  0
APPID
  2
ACAD_TEMP_GRAPHIC
 70
     0
  0
APPID
  2
AD_DRAW
 70
     0
  0
APPID
  2
ACATTRIBSERVICES
 70
     0
  0
APPID
  2
ASURF_PCURVE_APPNAME
 70
     0
  0
APPID
  2
DESIGNERASSEMBLIES
 70
     0
  0
APPID
  2
ACADM_DIM_EDIT
 70
     0
  0
APPID
  2
AMDT_DM_ADJ
 70
     0
  0
APPID
  2
ACAD_MLEADERVER
 70
     0
  0
APPID
  2
ACAD_NAV_VCDISPLAY
 70
     0
  0
ENDTAB
  0
TABLE
  2
DIMSTYLE
 70
     7
  0
DIMSTYLE
  2
STANDARD
 70
     0
  3

  4

  5

  6

  7

 40
1.0
 41
0.18
 42
0.0625
 43
0.38
 44
0.18
 45
0.0
 46
0.0
 47
0.0
 48
0.0
140
0.18
141
0.09
142
0.0
143
25.399999999999999
144
1.0
145
0.0
146
1.0
147
0.09
 71
     0
 72
     0
 73
     1
 74
     1
 75
     0
 76
     0
 77
     0
 78
     0
170
     0
171
     2
172
     0
173
     0
174
     0
175
     0
176
     0
177
     0
178
     0
  0
DIMSTYLE
  2
AM_ANSI
 70
     0
  3

  4
mm
  5

  6

  7

 40
1.0
 41
0.1
 42
0.05
 43
0.5
 44
0.1
 45
0.0
 46
0.0
 47
0.1
 48
0.1
140
0.12
141
0.0
142
0.0
143
25.399999999999999
144
1.0
145
0.0
146
0.71
147
0.06
 71
     0
 72
     0
 73
     1
 74
     1
 75
     0
 76
     0
 77
     0
 78
     7
170
     0
171
     2
172
     0
173
     0
174
     0
175
     0
176
   256
177
   256
178
     2
  0
DIMSTYLE
  2
AM_ANSI$3
 70
     0
  3

  4
mm
  5

  6

  7

 40
1.0
 41
0.1
 42
0.05
 43
0.5
 44
0.1
 45
0.0
 46
0.0
 47
0.1
 48
0.1
140
0.12
141
0.0
142
0.0
143
25.399999999999999
144
1.0
145
0.0
146
0.71
147
0.06
 71
     0
 72
     0
 73
     1
 74
     1
 75
     0
 76
     0
 77
     0
 78
     7
170
     0
171
     2
172
     0
173
     0
174
     0
175
     0
176
   256
177
   256
178
     2
  0
DIMSTYLE
  2
AM_ANSI$4
 70
     0
  3

  4
mm
  5

  6

  7

 40
1.0
 41
0.1
 42
0.05
 43
0.5
 44
0.1
 45
0.0
 46
0.0
 47
0.1
 48
0.1
140
0.12
141
0.0
142
0.0
143
25.399999999999999
144
1.0
145
0.0
146
0.71
147
0.06
 71
     0
 72
     0
 73
     1
 74
     1
 75
     0
 76
     0
 77
     0
 78
     7
170
     0
171
     2
172
     0
173
     0
174
     0
175
     0
176
   256
177
   256
178
     2
  0
DIMSTYLE
  2
AM_ANSI$7
 70
     0
  3

  4
mm
  5

  6

  7

 40
1.0
 41
0.1
 42
0.05
 43
0.5
 44
0.1
 45
0.0
 46
0.0
 47
0.1
 48
0.1
140
0.24
141
0.0
142
0.0
143
25.399999999999999
144
1.0
145
0.0
146
0.71
147
0.06
 71
     0
 72
     0
 73
     1
 74
     1
 75
     0
 76
     0
 77
     0
 78
     7
170
     0
171
     2
172
     0
173
     0
174
     0
175
     0
176
   256
177
   256
178
     2
  0
DIMSTYLE
  2
AM_ANSI$SF
 70
     0
  3

  4
mm
  5

  6

  7

 40
1.0
 41
0.1
 42
0.05
 43
0.5
 44
0.1
 45
0.0
 46
0.0
 47
0.1
 48
0.1
140
0.12
141
0.0
142
0.0
143
25.399999999999999
144
1.0
145
0.0
146
0.71
147
0.06
 71
     0
 72
     0
 73
     1
 74
     1
 75
     1
 76
     1
 77
     0
 78
     7
170
     0
171
     2
172
     0
173
     0
174
     0
175
     0
176
   256
177
   256
178
     2
  0
DIMSTYLE
  2
AM_ANSI$SH
 70
     0
  3

  4
mm
  5

  6
GENAXEH
  7

 40
1.0
 41
0.1
 42
0.05
 43
0.5
 44
0.1
 45
0.0
 46
0.0
 47
0.1
 48
0.1
140
0.12
141
0.0
142
0.0
143
25.399999999999999
144
1.0
145
0.0
146
0.71
147
0.06
 71
     0
 72
     0
 73
     1
 74
     1
 75
     1
 76
     1
 77
     0
 78
     7
170
     0
171
     2
172
     0
173
     1
174
     0
175
     0
176
   256
177
   256
178
     2
  0
ENDTAB
  0
ENDSEC
  0
SECTION
  2
BLOCKS
  0
BLOCK
  8
0
  2
$MODEL_SPACE
 70
     0
 10
0.0
 20
0.0
 30
0.0
  3
$MODEL_SPACE
  1

  0
ENDBLK
  5
1C8C
  8
0
  0
BLOCK
 67
     1
  8
0
  2
$PAPER_SPACE
 70
     0
 10
0.0
 20
0.0
 30
0.0
  3
$PAPER_SPACE
  1

  0
ENDBLK
  5
1C8A
 67
     1
  8
0
  0
BLOCK
  8
0
  2
*U0
 70
     1
 10
0.0
 20
0.0
 30
0.0
  3
*U0
  1

  0
ENDBLK
  5
1D4D
  8
0
  0
BLOCK
  8
0
  2
GENAXEH
 70
     0
 10
0.0
 20
0.0
 30
0.0
  3
GENAXEH
  1

  0
LINE
  5
1D8C
  8
0
 10
-1.0
 20
0.0
 30
0.0
 11
1.0
 21
0.0
 31
0.0
  0
ENDBLK
  5
1D8E
  8
0
  0
ENDSEC
  0
SECTION
  2
ENTITIES
  0
ARC
  5
1B3A
  8
2
 10
63.208618174531921
 20
-49.560298672743777
 30
0.0
 40
200.00000000004229
 50
88.911314677297526
 51
91.088685317295045
  0
LINE
  5
1B3B
  8
3
 10
44.208618184060022
 20
120.189701327713
 30
0.0
 11
77.208618183928365
 21
120.1897013277146
 31
0.0
  0
ARC
  5
1B3C
  8
0
 10
63.208618174531921
 20
310.9397013275065
 30
0.0
 40
200.00000000004229
 50
268.91131468270498
 51
271.08868532270247
  0
LINE
  5
1B3D
  8
0
 10
78.208618183928365
 20
119.6897013277146
 30
0.0
 11
44.208618184060022
 21
119.68970132771391
 31
0.0
  0
LINE
  5
1B3E
  8
0
 10
44.208618184058651
 20
155.6897013278311
 30
0.0
 11
75.208618183928593
 21
155.68970132783079
 31
0.0
  0
LINE
  5
1B3F
  8
2
 10
195.12911011765499
 20
150.2035980685007
 30
0.0
 11
195.12911011782921
 21
144.6897013270945
 31
0.0
  0
LINE
  5
1B40
  8
2
 10
203.12911011782921
 20
144.68968084137251
 30
0.0
 11
203.1291101176551
 21
150.20359806875311
 31
0.0
  0
LINE
  5
1B41
  8
2
 10
59.208618183729193
 20
144.68968084137251
 30
0.0
 11
59.208618183903127
 21
150.20359806875311
 31
0.0
  0
LINE
  5
1B42
  8
0
 10
183.1291101176283
 20
120.6897013277009
 30
0.0
 11
183.1291101176248
 21
151.68970132781709
 31
0.0
  0
LINE
  5
1B43
  8
0
 10
219.1291101176248
 20
151.68970132736351
 30
0.0
 11
219.12911011762799
 21
122.18970132724731
 31
0.0
  0
LINE
  5
1B44
  8
0
 10
218.62911011749651
 20
120.189701327704
 30
0.0
 11
218.62911011749429
 21
155.18970132782121
 31
0.0
  0
LINE
  5
1B45
  8
3
 10
218.1291101174927
 20
155.6897013278211
 30
0.0
 11
218.12911011749659
 21
120.18970132770301
 31
0.0
  0
LINE
  5
1B46
  8
3
 10
187.12911011762429
 20
155.68970132781749
 30
0.0
 11
187.12911011762549
 21
120.1897013277013
 31
0.0
  0
ARC
  5
1B47
  8
2
 10
131.1688644632024
 20
130.68970132738141
 30
0.0
 40
19.749999999917431
 50
326.15403917780537
 51
213.84596082220239
  0
LINE
  5
1B48
  8
0
 10
43.708618184060008
 20
120.18970132771391
 30
0.0
 11
43.708618184058651
 21
155.1897013278311
 31
0.0
  0
LINE
  5
1B49
  8
3
 10
44.208618184060242
 20
155.6897013278311
 30
0.0
 11
44.208618184060022
 21
120.189701327713
 31
0.0
  0
LINE
  5
1B4A
  8
0
 10
43.208618183928593
 20
151.6897013273734
 30
0.0
 11
43.208618183928593
 21
122.1897013272572
 31
0.0
  0
LINE
  5
1B4B
  8
1
 10
131.1688644632024
 20
160.68970132738141
 30
0.0
 11
131.1688644632024
 21
105.93970132746399
 31
0.0
  0
ARC
  5
1B4C
  8
3
 10
131.1688644631997
 20
130.68970132738141
 30
0.0
 40
21.0
 50
0.0
 51
180.0
  0
ARC
  5
1B4D
  8
0
 10
131.1688644631997
 20
130.68970132738141
 30
0.0
 40
25.0
 50
0.0
 51
180.0
  0
LINE
  5
1B4F
  8
2
 10
143.9389906675224
 20
203.6637848827751
 30
0.0
 11
118.3987382588506
 21
203.66378488280679
 31
0.0
  0
LINE
  5
1B50
  8
2
 10
143.93899066809081
 20
221.66378488277249
 30
0.0
 11
118.398738258314
 21
221.66378488313751
 31
0.0
  0
LINE
  5
1B51
  8
0
 10
110.1688644631988
 20
197.6637848829109
 30
0.0
 11
152.16886446320609
 21
197.66378488291079
 31
0.0
  0
LINE
  5
1B52
  8
0
 10
152.16886446274859
 20
233.66378488291079
 30
0.0
 11
110.16886446365631
 21
233.6637848829109
 31
0.0
  0
LINE
  5
1B53
  8
0
 10
106.6688644631986
 20
233.1637848827809
 30
0.0
 11
155.66886446320629
 21
233.16378488278079
 31
0.0
  0
LINE
  5
1B54
  8
3
 10
156.16886446320629
 20
232.6637848827792
 30
0.0
 11
106.1688644631997
 21
232.6637848827794
 31
0.0
  0
LINE
  5
1B55
  8
3
 10
156.16886446320609
 20
201.6637848829109
 30
0.0
 11
106.1688644631997
 21
201.66378488290701
 31
0.0
  0
ARC
  5
1B56
  8
0
 10
131.1688644632024
 20
130.68970132738141
 30
0.0
 40
19.749999999917431
 50
223.206160034139
 51
318.83514194426402
  0
ARC
  5
1B57
  8
2
 10
131.1688644632024
 20
130.68970132738141
 30
0.0
 40
13.0
 50
301.78833061562722
 51
237.7957724974253
  0
LINE
  5
1B58
  8
3
 10
110.1688644631997
 20
120.6897013272114
 30
0.0
 11
152.16886446320581
 21
120.68970132721439
 31
0.0
  0
LINE
  5
1B59
  8
0
 10
106.6688644631997
 20
119.6897013272112
 30
0.0
 11
155.6688644632049
 21
119.68970132721461
 31
0.0
  0
ARC
  5
1B5A
  8
2
 10
311.38899066790441
 20
213.66378489217561
 30
0.0
 40
200.00000000004229
 50
178.9113146827049
 51
181.0886853227025
  0
LINE
  5
1B5B
  8
0
 10
106.1688644631986
 20
232.66378488278079
 30
0.0
 11
106.1688644631988
 21
201.66378488291079
 31
0.0
  0
ARC
  5
1B5C
  8
0
 10
110.1688644631988
 20
201.6637848829109
 30
0.0
 40
4.0
 50
179.9999999999998
 51
269.99999999999989
1001
GENIUS_GENODEF_13
1002
{
1000
HIER
1070
     0
1002
}
1002
{
1000
MANEDIT
1070
     0
1002
}
1002
{
1000
NOSEL
1070
     0
1002
}
1002
{
1000
BEHIND
1070
     0
1002
}
1002
{
1000
REACTOR
1002
}
1001
GENIUS_GENOBJ-N-FIL_13
1002
{
1000
OWNER
1000
GEN
1002
}
  0
LINE
  5
1B5D
  8
2
 10
118.1987382588448
 20
203.86378488280121
 30
0.0
 11
118.3987382588506
 21
203.66378488280679
 31
0.0
1001
GENIUS_GENODEF_13
1002
{
1000
HIER
1070
     0
1002
}
1002
{
1000
MANEDIT
1070
     0
1002
}
1002
{
1000
NOSEL
1070
     0
1002
}
1002
{
1000
BEHIND
1070
     0
1002
}
1002
{
1000
REACTOR
1002
}
1001
GENIUS_GENOBJ-N-CHA_13
1002
{
1000
OWNER
1000
GEN
1002
}
1001
GENIUS_GENFIL_13
1070
     0
1040
0.2
1040
0.2
1040
0.0
1040
0.0
1002
{
1002
}
  0
ARC
  5
1B5E
  8
2
 10
117.1389906681123
 20
208.66378488276851
 30
0.0
 40
1.0
 50
0.000000002641298
 51
90.000000002641329
  0
LINE
  5
1B5F
  8
2
 10
111.4250939266537
 20
209.86378488279809
 30
0.0
 11
111.62509392666
 21
209.66378488280429
 31
0.0
1001
GENIUS_GENODEF_13
1002
{
1000
HIER
1070
     0
1002
}
1002
{
1000
MANEDIT
1070
     0
1002
}
1002
{
1000
NOSEL
1070
     0
1002
}
1002
{
1000
BEHIND
1070
     0
1002
}
1002
{
1000
REACTOR
1002
}
1001
GENIUS_GENOBJ-N-CHA_13
1002
{
1000
OWNER
1000
GEN
1002
}
1001
GENIUS_GENFIL_13
1070
     0
1040
0.4
1040
0.4
1040
0.0
1040
0.0
1002
{
1002
}
  0
LINE
  5
1B60
  8
2
 10
111.4250939266537
 20
209.86378488279809
 30
0.0
 11
111.4250939266537
 21
209.86378488279809
 31
0.0
  0
LINE
  5
1B61
  8
2
 10
111.62509392666
 20
209.66378488280429
 30
0.0
 11
117.1389906680662
 21
209.6637848829784
 31
0.0
  0
LINE
  5
1B62
  8
2
 10
118.1389906679792
 20
203.8637848828206
 30
0.0
 11
118.1389906679829
 21
208.66380096615711
 31
0.0
  0
LINE
  5
1B63
  8
2
 10
118.1987382583148
 20
221.46378488313661
 30
0.0
 11
118.398738258314
 21
221.66378488313751
 31
0.0
1001
GENIUS_GENODEF_13
1002
{
1000
HIER
1070
     0
1002
}
1002
{
1000
MANEDIT
1070
     0
1002
}
1002
{
1000
NOSEL
1070
     0
1002
}
1002
{
1000
BEHIND
1070
     0
1002
}
1002
{
1000
REACTOR
1002
}
1001
GENIUS_GENOBJ-N-CHA_13
1002
{
1000
OWNER
1000
GEN
1002
}
1001
GENIUS_GENFIL_13
1070
     0
1040
0.2
1040
0.2
1040
0.0
1040
0.0
1002
{
1002
}
  0
LINE
  5
1B64
  8
2
 10
118.13899066770151
 20
218.6637848828147
 30
0.0
 11
118.1389906675723
 21
221.4637848828651
 31
0.0
  0
ARC
  5
1B65
  8
2
 10
117.1389906676512
 20
218.6637848827686
 30
0.0
 40
1.0
 50
270.00000000264129
 51
0.000000002641298
  0
ARC
  5
1B66
  8
2
 10
117.1389906676837
 20
218.66378488298551
 30
0.0
 40
1.0
 50
270.00000000180108
 51
0.0000000018026493
  0
LINE
  5
1B67
  8
2
 10
111.42509392641389
 20
217.463784882798
 30
0.0
 11
111.42509392641379
 21
217.463784882798
 31
0.0
  0
LINE
  5
1B68
  8
2
 10
111.42509392629501
 20
217.46378488267919
 30
0.0
 11
111.6250939264075
 21
217.66378488280429
 31
0.0
1001
GENIUS_GENODEF_13
1002
{
1000
HIER
1070
     0
1002
}
1002
{
1000
MANEDIT
1070
     0
1002
}
1002
{
1000
NOSEL
1070
     0
1002
}
1002
{
1000
BEHIND
1070
     0
1002
}
1002
{
1000
REACTOR
1002
}
1001
GENIUS_GENOBJ-N-CHA_13
1002
{
1000
OWNER
1000
GEN
1002
}
1001
GENIUS_GENFIL_13
1070
     0
1040
0.4
1040
0.4
1040
0.0
1040
0.0
1002
{
1002
}
  0
LINE
  5
1B69
  8
2
 10
117.1390111537882
 20
217.6637848829784
 30
0.0
 11
111.6250939264076
 21
217.66378488280429
 31
0.0
  0
ARC
  5
1B6A
  8
0
 10
110.16886446365631
 20
233.1637848829109
 30
0.0
 40
0.5
 50
89.999999999999886
 51
180.0000000000031
1001
GENIUS_GENODEF_13
1002
{
1000
HIER
1070
     0
1002
}
1002
{
1000
MANEDIT
1070
     0
1002
}
1002
{
1000
NOSEL
1070
     0
1002
}
1002
{
1000
BEHIND
1070
     0
1002
}
1002
{
1000
REACTOR
1002
}
1001
GENIUS_GENOBJ-N-FIL_13
1002
{
1000
OWNER
1000
GEN
1002
}
  0
ARC
  5
1B6B
  8
0
 10
106.6688644631986
 20
232.66378488278079
 30
0.0
 40
0.5
 50
89.999999999999886
 51
179.9999999999998
1001
GENIUS_GENODEF_13
1002
{
1000
HIER
1070
     0
1002
}
1002
{
1000
MANEDIT
1070
     0
1002
}
1002
{
1000
NOSEL
1070
     0
1002
}
1002
{
1000
BEHIND
1070
     0
1002
}
1002
{
1000
REACTOR
1002
}
1001
GENIUS_GENOBJ-N-FIL_13
1002
{
1000
OWNER
1000
GEN
1002
}
  0
LINE
  5
1B6C
  8
0
 10
228.1291101176266
 20
133.7550296185772
 30
0.0
 11
221.76426803591701
 21
133.75502961857649
 31
0.0
  0
LINE
  5
1B6D
  8
1
 10
207.12911011824571
 20
137.68970132738451
 30
0.0
 11
232.1796773361516
 21
137.68970132738721
 31
0.0
  0
LINE
  5
1B6E
  8
0
 10
224.14124215198311
 20
129.7775692930243
 30
0.0
 11
228.1291101176266
 21
133.76543725866881
 31
0.0
  0
LINE
  5
1B6F
  8
0
 10
228.1291101176258
 20
141.6139653961045
 30
0.0
 11
224.14124215198129
 21
145.60183336174831
 31
0.0
  0
LINE
  5
1B70
  8
2
 10
189.12911011762591
 20
143.48970132712441
 30
0.0
 11
189.1291101178974
 21
119.6897013277141
 31
0.0
  0
LINE
  5
1B71
  8
2
 10
207.12911011762321
 20
143.4897013276929
 30
0.0
 11
207.1291101178488
 21
119.6897013277141
 31
0.0
  0
LINE
  5
1B72
  8
0
 10
204.12911011766411
 20
117.6897013272921
 30
0.0
 11
206.92911011771449
 21
117.68970132716321
 31
0.0
  0
LINE
  5
1B73
  8
3
 10
218.12911011749659
 20
120.18970132770301
 30
0.0
 11
185.12911011762839
 21
120.1897013277011
 31
0.0
  0
LINE
  5
1B74
  8
0
 10
184.12911011762839
 20
119.689701327701
 30
0.0
 11
218.12911011749671
 21
119.689701327704
 31
0.0
  0
LINE
  5
1B75
  8
0
 10
189.3291101176701
 20
117.6897013275682
 30
0.0
 11
194.1291262010065
 21
117.68970132757249
 31
0.0
  0
ARC
  5
1B76
  8
0
 10
184.12911011762779
 20
120.689701327701
 30
0.0
 40
1.0
 50
180.0000000000062
 51
270.00000000003388
1001
GENIUS_GENODEF_13
1002
{
1000
HIER
1070
     0
1002
}
1002
{
1000
MANEDIT
1070
     0
1002
}
1002
{
1000
NOSEL
1070
     0
1002
}
1002
{
1000
BEHIND
1070
     0
1002
}
1002
{
1000
REACTOR
1002
}
1001
GENIUS_GENOBJ-N-FIL_13
1002
{
1000
OWNER
1000
GEN
1002
}
  0
ARC
  5
1B77
  8
3
 10
185.12911011762839
 20
119.134548447531
 30
0.0
 40
1.0551528801701691
 50
90.000000000003098
 51
148.25531638539729
  0
LINE
  5
1B78
  8
0
 10
189.32911011765049
 20
117.6897013275879
 30
0.0
 11
189.12911011765621
 21
117.8897013275936
 31
0.0
1001
GENIUS_GENODEF_13
1002
{
1000
HIER
1070
     0
1002
}
1002
{
1000
MANEDIT
1070
     0
1002
}
1002
{
1000
NOSEL
1070
     0
1002
}
1002
{
1000
BEHIND
1070
     0
1002
}
1002
{
1000
REACTOR
1002
}
1001
GENIUS_GENOBJ-N-CHA_13
1002
{
1000
OWNER
1000
GEN
1002
}
1001
GENIUS_GENFIL_13
1070
     0
1040
0.2
1040
0.2
1040
0.0
1040
0.0
1002
{
1002
}
  0
LINE
  5
1B79
  8
0
 10
189.12911011762461
 20
117.8897013276253
 30
0.0
 11
189.12911011789581
 21
119.6897013277011
 31
0.0
  0
ARC
  5
1B7A
  8
0
 10
194.12911011761801
 20
116.6897013277019
 30
0.0
 40
1.0
 50
359.99999999736491
 51
89.999999997364895
  0
ARC
  5
1B7B
  8
0
 10
204.12911011761801
 20
116.68970132724181
 30
0.0
 40
1.0
 50
89.999999997364895
 51
179.99999999736491
  0
ARC
  5
1B7C
  8
0
 10
204.1291101178349
 20
116.68970132727441
 30
0.0
 40
1.0
 50
89.999999998203549
 51
179.99999999820511
  0
LINE
  5
1B7D
  8
0
 10
195.32911011764821
 20
110.9758045862434
 30
0.0
 11
195.12911011765439
 21
111.1758045862497
 31
0.0
1001
GENIUS_GENODEF_13
1002
{
1000
HIER
1070
     0
1002
}
1002
{
1000
MANEDIT
1070
     0
1002
}
1002
{
1000
NOSEL
1070
     0
1002
}
1002
{
1000
BEHIND
1070
     0
1002
}
1002
{
1000
REACTOR
1002
}
1001
GENIUS_GENOBJ-N-CHA_13
1002
{
1000
OWNER
1000
GEN
1002
}
1001
GENIUS_GENFIL_13
1070
     0
1040
0.4
1040
0.4
1040
0.0
1040
0.0
1002
{
1002
}
  0
LINE
  5
1B7E
  8
0
 10
195.32911011764821
 20
110.9758045862434
 30
0.0
 11
195.32911011764821
 21
110.9758045862434
 31
0.0
  0
LINE
  5
1B7F
  8
0
 10
202.92911011764821
 20
110.9758045860044
 30
0.0
 11
202.92911011764821
 21
110.9758045860043
 31
0.0
  0
LINE
  5
1B80
  8
0
 10
202.9291101175294
 20
110.9758045858855
 30
0.0
 11
203.12911011765451
 21
111.17580458599799
 31
0.0
1001
GENIUS_GENODEF_13
1002
{
1000
HIER
1070
     0
1002
}
1002
{
1000
MANEDIT
1070
     0
1002
}
1002
{
1000
NOSEL
1070
     0
1002
}
1002
{
1000
BEHIND
1070
     0
1002
}
1002
{
1000
REACTOR
1002
}
1001
GENIUS_GENOBJ-N-CHA_13
1002
{
1000
OWNER
1000
GEN
1002
}
1001
GENIUS_GENFIL_13
1070
     0
1040
0.4
1040
0.4
1040
0.0
1040
0.0
1002
{
1002
}
  0
ARC
  5
1B81
  8
0
 10
199.1291101270042
 20
310.93970132749462
 30
0.0
 40
200.00000000004229
 50
268.91131467730372
 51
271.08868531730133
  0
LINE
  5
1B82
  8
0
 10
203.12911011782791
 20
116.6897218133787
 30
0.0
 11
203.12911011765451
 21
111.17580458599819
 31
0.0
  0
LINE
  5
1B83
  8
0
 10
195.12911011765439
 20
111.1758045862497
 30
0.0
 11
195.12911011782779
 21
116.6897013276558
 31
0.0
  0
LINE
  5
1B84
  8
0
 10
206.92911011764701
 20
117.6897013270958
 30
0.0
 11
207.129110117653
 21
117.88970132708999
 31
0.0
1001
GENIUS_GENODEF_13
1002
{
1000
HIER
1070
     0
1002
}
1002
{
1000
MANEDIT
1070
     0
1002
}
1002
{
1000
NOSEL
1070
     0
1002
}
1002
{
1000
BEHIND
1070
     0
1002
}
1002
{
1000
REACTOR
1002
}
1001
GENIUS_GENOBJ-N-CHA_13
1002
{
1000
OWNER
1000
GEN
1002
}
1001
GENIUS_GENFIL_13
1070
     0
1040
0.2
1040
0.2
1040
0.0
1040
0.0
1002
{
1002
}
  0
LINE
  5
1B85
  8
0
 10
207.12911011762179
 20
117.8897013270588
 30
0.0
 11
207.1291101178478
 21
119.68970132770301
 31
0.0
  0
ARC
  5
1B86
  8
0
 10
218.12911011749659
 20
120.189701327704
 30
0.0
 40
0.5
 50
270.0000000000046
 51
0.0000000000029502
1001
GENIUS_GENODEF_13
1002
{
1000
HIER
1070
     0
1002
}
1002
{
1000
MANEDIT
1070
     0
1002
}
1002
{
1000
NOSEL
1070
     0
1002
}
1002
{
1000
BEHIND
1070
     0
1002
}
1002
{
1000
REACTOR
1002
}
1001
GENIUS_GENOBJ-N-FIL_13
1002
{
1000
OWNER
1000
GEN
1002
}
  0
LINE
  5
1B87
  8
2
 10
204.1291101176655
 20
143.68970132745929
 30
0.0
 11
206.92911011771591
 21
143.68970132758841
 31
0.0
  0
LINE
  5
1B88
  8
2
 10
189.32911011767141
 20
143.6897013271815
 30
0.0
 11
194.12912620100789
 21
143.6897013271778
 31
0.0
  0
LINE
  5
1B89
  8
2
 10
189.32911011765191
 20
143.68970132716191
 30
0.0
 11
189.12911011765749
 21
143.4897013271561
 31
0.0
1001
GENIUS_GENODEF_13
1002
{
1000
HIER
1070
     0
1002
}
1002
{
1000
MANEDIT
1070
     0
1002
}
1002
{
1000
NOSEL
1070
     0
1002
}
1002
{
1000
BEHIND
1070
     0
1002
}
1002
{
1000
REACTOR
1002
}
1001
GENIUS_GENOBJ-N-CHA_13
1002
{
1000
OWNER
1000
GEN
1002
}
1001
GENIUS_GENFIL_13
1070
     0
1040
0.2
1040
0.2
1040
0.0
1040
0.0
1002
{
1002
}
  0
ARC
  5
1B8A
  8
2
 10
194.12911011761929
 20
144.6897013270484
 30
0.0
 40
1.0
 50
270.00000000264129
 51
0.0000000026413432
  0
ARC
  5
1B8B
  8
2
 10
204.12911011783629
 20
144.689701327477
 30
0.0
 40
1.0
 50
180.00000000180111
 51
270.00000000180268
  0
ARC
  5
1B8C
  8
2
 10
204.12911011761929
 20
144.68970132750951
 30
0.0
 40
1.0
 50
180.0000000026414
 51
270.00000000264129
  0
LINE
  5
1B8D
  8
0
 10
220.6291101176256
 20
141.5042443068501
 30
0.0
 11
220.6291101176266
 21
133.87515834792171
 31
0.0
  0
ARC
  5
1B8E
  8
0
 10
223.929110117627
 20
129.98970132738029
 30
0.0
 40
0.2999999999999545
 50
180.0000000000062
 51
315.00000000001512
  0
ARC
  5
1B8F
  8
0
 10
218.62911011762799
 20
122.18970132724731
 30
0.0
 40
0.5
 50
270.00000000000779
 51
0.0000000000062071
1001
GENIUS_GENODEF_13
1002
{
1000
HIER
1070
     0
1002
}
1002
{
1000
MANEDIT
1070
     0
1002
}
1002
{
1000
NOSEL
1070
     0
1002
}
1002
{
1000
BEHIND
1070
     0
1002
}
1002
{
1000
REACTOR
1002
}
1001
GENIUS_GENOBJ-N-FIL_13
1002
{
1000
OWNER
1000
GEN
1002
}
  0
ARC
  5
1B90
  8
0
 10
222.62911107566401
 20
132.6897013273863
 30
0.0
 40
1.0
 50
0.0000109783047153
 51
90.000010978303067
  0
LINE
  5
1B91
  8
0
 10
223.17268798900039
 20
133.6526241193815
 30
0.0
 11
220.6291101176266
 21
133.87515834792171
 31
0.0
  0
ARC
  5
1B92
  8
0
 10
223.12911011762671
 20
133.15452677033539
 30
0.0
 40
0.5
 50
0.0000000000062071
 51
85.000000000006409
  0
LINE
  5
1B93
  8
0
 10
223.62911011762711
 20
129.9897013273802
 30
0.0
 11
223.62911011762671
 21
133.15452677033551
 31
0.0
  0
LINE
  5
1B94
  8
2
 10
206.92911011764841
 20
143.6897013276558
 30
0.0
 11
207.12911011765439
 21
143.48970132766169
 31
0.0
1001
GENIUS_GENODEF_13
1002
{
1000
HIER
1070
     0
1002
}
1002
{
1000
MANEDIT
1070
     0
1002
}
1002
{
1000
NOSEL
1070
     0
1002
}
1002
{
1000
BEHIND
1070
     0
1002
}
1002
{
1000
REACTOR
1002
}
1001
GENIUS_GENOBJ-N-CHA_13
1002
{
1000
OWNER
1000
GEN
1002
}
1001
GENIUS_GENFIL_13
1070
     0
1040
0.2
1040
0.2
1040
0.0
1040
0.0
1002
{
1002
}
  0
ARC
  5
1B95
  8
0
 10
223.9291101176255
 20
145.38970132739229
 30
0.0
 40
0.2999999999999944
 50
45.000000000015689
 51
180.0000000000062
  0
LINE
  5
1B96
  8
3
 10
220.6291101176258
 20
139.6989413273858
 30
0.0
 11
219.12911004005841
 21
139.69894132738571
 31
0.0
  0
LINE
  5
1B97
  8
0
 10
220.62911011905931
 20
140.18970132738599
 30
0.0
 11
219.12911011762591
 21
140.18970132738579
 31
0.0
  0
LINE
  5
1B98
  8
0
 10
223.62911011762549
 20
145.3897013273922
 30
0.0
 11
223.62911011762569
 21
142.2248758844369
 31
0.0
  0
LINE
  5
1B99
  8
0
 10
223.1726879889996
 20
141.72677853539111
 30
0.0
 11
220.6291101176256
 21
141.5042443068501
 31
0.0
  0
ARC
  5
1B9A
  8
0
 10
223.12911011762569
 20
142.22487588443681
 30
0.0
 40
0.5
 50
275.00000000000603
 51
0.0000000000062071
  0
ARC
  5
1B9B
  8
0
 10
222.62911011762569
 20
142.68970132738619
 30
0.0
 40
1.0
 50
270.0000000000062
 51
0.0000000000062071
  0
LINE
  5
1B9C
  8
0
 10
223.6291101176256
 20
143.7897014424727
 30
0.0
 11
223.62911011762569
 21
142.6897013273863
 31
0.0
  0
LINE
  5
1B9D
  8
0
 10
220.6291101190599
 20
135.18970132738599
 30
0.0
 11
219.12911011762651
 21
135.18970132738579
 31
0.0
  0
LINE
  5
1B9E
  8
3
 10
220.6291101176262
 20
135.6804613273859
 30
0.0
 11
219.1291100400588
 21
135.6804613273857
 31
0.0
  0
LINE
  5
1B9F
  8
0
 10
106.1688644631997
 20
130.68970132738141
 30
0.0
 11
106.1688644631997
 21
120.1897013272112
 31
0.0
  0
LINE
  5
1BA0
  8
3
 10
110.1688644631997
 20
130.6897013273815
 30
0.0
 11
110.1688644631997
 21
120.6897013272114
 31
0.0
  0
ARC
  5
1BA1
  8
0
 10
106.6688644631997
 20
120.1897013272112
 30
0.0
 40
0.5
 50
180.0
 51
270.0000000000033
1001
GENIUS_GENODEF_13
1002
{
1000
HIER
1070
     0
1002
}
1002
{
1000
MANEDIT
1070
     0
1002
}
1002
{
1000
NOSEL
1070
     0
1002
}
1002
{
1000
BEHIND
1070
     0
1002
}
1002
{
1000
REACTOR
1002
}
1001
GENIUS_GENOBJ-N-FIL_13
1002
{
1000
OWNER
1000
GEN
1002
}
  0
ARC
  5
1BA2
  8
0
 10
131.1688644632024
 20
130.68970132738141
 30
0.0
 40
19.749999999917431
 50
213.84596082220239
 51
221.16485805573069
  0
LINE
  5
1BA3
  8
0
 10
228.1291101176266
 20
133.76543725866881
 30
0.0
 11
228.12911011762611
 21
137.68970132738681
 31
0.0
  0
LINE
  5
1BA4
  8
0
 10
228.12911011762611
 20
137.68970132738681
 30
0.0
 11
228.1291101176258
 21
141.6139653961045
 31
0.0
  0
ARC
  5
1BA5
  8
2
 10
-49.111009332345759
 20
213.66378489217581
 30
0.0
 40
200.00000000004229
 50
358.91131467729753
 51
1.088685317295035
  0
LINE
  5
1BA6
  8
1
 10
131.1688644632024
 20
192.66378488291079
 30
0.0
 11
131.1688644632024
 21
238.6637848829109
 31
0.0
  0
LINE
  5
1BA7
  8
0
 10
156.16886446320629
 20
232.66378488278079
 30
0.0
 11
156.16886446320609
 21
201.6637848829107
 31
0.0
  0
ARC
  5
1BA8
  8
0
 10
152.16886446320609
 20
201.6637848829109
 30
0.0
 40
4.0
 50
270.0
 51
0.0
1001
GENIUS_GENODEF_13
1002
{
1000
HIER
1070
     0
1002
}
1002
{
1000
MANEDIT
1070
     0
1002
}
1002
{
1000
NOSEL
1070
     0
1002
}
1002
{
1000
BEHIND
1070
     0
1002
}
1002
{
1000
REACTOR
1002
}
1001
GENIUS_GENOBJ-N-FIL_13
1002
{
1000
OWNER
1000
GEN
1002
}
  0
LINE
  5
1BA9
  8
2
 10
144.13899066755991
 20
203.8637848828011
 30
0.0
 11
143.93899066755421
 21
203.66378488280671
 31
0.0
1001
GENIUS_GENODEF_13
1002
{
1000
HIER
1070
     0
1002
}
1002
{
1000
MANEDIT
1070
     0
1002
}
1002
{
1000
NOSEL
1070
     0
1002
}
1002
{
1000
BEHIND
1070
     0
1002
}
1002
{
1000
REACTOR
1002
}
1001
GENIUS_GENOBJ-N-CHA_13
1002
{
1000
OWNER
1000
GEN
1002
}
1001
GENIUS_GENFIL_13
1070
     0
1040
0.2
1040
0.2
1040
0.0
1040
0.0
1002
{
1002
}
  0
LINE
  5
1BAA
  8
2
 10
150.65288740889869
 20
209.66378488280429
 30
0.0
 11
145.13899066749261
 21
209.6637848829784
 31
0.0
  0
LINE
  5
1BAB
  8
2
 10
150.85288740890491
 20
209.86378488279809
 30
0.0
 11
150.85288740890491
 21
209.86378488279809
 31
0.0
  0
LINE
  5
1BAC
  8
2
 10
150.85288740890491
 20
209.86378488279809
 30
0.0
 11
150.65288740889869
 21
209.66378488280429
 31
0.0
1001
GENIUS_GENODEF_13
1002
{
1000
HIER
1070
     0
1002
}
1002
{
1000
MANEDIT
1070
     0
1002
}
1002
{
1000
NOSEL
1070
     0
1002
}
1002
{
1000
BEHIND
1070
     0
1002
}
1002
{
1000
REACTOR
1002
}
1001
GENIUS_GENOBJ-N-CHA_13
1002
{
1000
OWNER
1000
GEN
1002
}
1001
GENIUS_GENFIL_13
1070
     0
1040
0.4
1040
0.4
1040
0.0
1040
0.0
1002
{
1002
}
  0
ARC
  5
1BAD
  8
2
 10
145.13899066744639
 20
208.66378488276851
 30
0.0
 40
1.0
 50
89.999999997358657
 51
179.9999999973586
  0
LINE
  5
1BAE
  8
2
 10
144.13899066757949
 20
203.8637848828206
 30
0.0
 11
144.1389906675758
 21
208.66380096615711
 31
0.0
  0
LINE
  5
1BAF
  8
2
 10
145.13897018177039
 20
217.6637848829784
 30
0.0
 11
150.65288740915111
 21
217.66378488280429
 31
0.0
  0
LINE
  5
1BB0
  8
2
 10
150.8528874092637
 20
217.46378488267919
 30
0.0
 11
150.65288740915111
 21
217.66378488280429
 31
0.0
1001
GENIUS_GENODEF_13
1002
{
1000
HIER
1070
     0
1002
}
1002
{
1000
MANEDIT
1070
     0
1002
}
1002
{
1000
NOSEL
1070
     0
1002
}
1002
{
1000
BEHIND
1070
     0
1002
}
1002
{
1000
REACTOR
1002
}
1001
GENIUS_GENOBJ-N-CHA_13
1002
{
1000
OWNER
1000
GEN
1002
}
1001
GENIUS_GENFIL_13
1070
     0
1040
0.4
1040
0.4
1040
0.0
1040
0.0
1002
{
1002
}
  0
LINE
  5
1BB1
  8
2
 10
150.85288740914481
 20
217.463784882798
 30
0.0
 11
150.85288740914481
 21
217.463784882798
 31
0.0
  0
LINE
  5
1BB2
  8
2
 10
144.13899066805379
 20
221.4637848827976
 30
0.0
 11
143.9389906680596
 21
221.6637848828035
 31
0.0
1001
GENIUS_GENODEF_13
1002
{
1000
HIER
1070
     0
1002
}
1002
{
1000
MANEDIT
1070
     0
1002
}
1002
{
1000
NOSEL
1070
     0
1002
}
1002
{
1000
BEHIND
1070
     0
1002
}
1002
{
1000
REACTOR
1002
}
1001
GENIUS_GENOBJ-N-CHA_13
1002
{
1000
OWNER
1000
GEN
1002
}
1001
GENIUS_GENFIL_13
1070
     0
1040
0.2
1040
0.2
1040
0.0
1040
0.0
1002
{
1002
}
  0
LINE
  5
1BB3
  8
2
 10
144.13899066785731
 20
218.6637848828147
 30
0.0
 11
144.13899066798649
 21
221.4637848828651
 31
0.0
  0
ARC
  5
1BB4
  8
2
 10
145.13899066787491
 20
218.66378488298551
 30
0.0
 40
1.0
 50
179.9999999981973
 51
269.99999999819892
  0
ARC
  5
1BB5
  8
2
 10
145.13899066790739
 20
218.6637848827686
 30
0.0
 40
1.0
 50
179.9999999973586
 51
269.99999999735871
  0
ARC
  5
1BB6
  8
0
 10
152.16886446274859
 20
233.16378488291079
 30
0.0
 40
0.5
 50
359.99999999999682
 51
89.999999999999986
1001
GENIUS_GENODEF_13
1002
{
1000
HIER
1070
     0
1002
}
1002
{
1000
MANEDIT
1070
     0
1002
}
1002
{
1000
NOSEL
1070
     0
1002
}
1002
{
1000
BEHIND
1070
     0
1002
}
1002
{
1000
REACTOR
1002
}
1001
GENIUS_GENOBJ-N-FIL_13
1002
{
1000
OWNER
1000
GEN
1002
}
  0
ARC
  5
1BB7
  8
0
 10
155.66886446320629
 20
232.66378488278079
 30
0.0
 40
0.5
 50
0.0
 51
89.999999999999986
1001
GENIUS_GENODEF_13
1002
{
1000
HIER
1070
     0
1002
}
1002
{
1000
MANEDIT
1070
     0
1002
}
1002
{
1000
NOSEL
1070
     0
1002
}
1002
{
1000
BEHIND
1070
     0
1002
}
1002
{
1000
REACTOR
1002
}
1001
GENIUS_GENOBJ-N-FIL_13
1002
{
1000
OWNER
1000
GEN
1002
}
  0
LINE
  5
1BB8
  8
3
 10
152.16886446320609
 20
130.6897013273815
 30
0.0
 11
152.16886446320581
 21
120.68970132721439
 31
0.0
  0
LINE
  5
1BB9
  8
0
 10
156.16886446320609
 20
130.6897013273815
 30
0.0
 11
156.16886446320609
 21
120.1897013272112
 31
0.0
  0
ARC
  5
1BBA
  8
0
 10
131.1688644632024
 20
130.68970132738141
 30
0.0
 40
13.0
 50
238.21166938437281
 51
301.78833061562722
  0
ARC
  5
1BBB
  8
0
 10
131.1688644632024
 20
130.68970132738141
 30
0.0
 40
19.749999999917431
 50
318.8351419442692
 51
326.15403917780537
  0
ARC
  5
1BBC
  8
0
 10
155.6688644632049
 20
120.1897013272112
 30
0.0
 40
0.5
 50
269.99999999999682
 51
0.0
1001
GENIUS_GENODEF_13
1002
{
1000
HIER
1070
     0
1002
}
1002
{
1000
MANEDIT
1070
     0
1002
}
1002
{
1000
NOSEL
1070
     0
1002
}
1002
{
1000
BEHIND
1070
     0
1002
}
1002
{
1000
REACTOR
1002
}
1001
GENIUS_GENOBJ-N-FIL_13
1002
{
1000
OWNER
1000
GEN
1002
}
  0
LINE
  5
1BBD
  8
2
 10
55.208618183934959
 20
143.4897013276929
 30
0.0
 11
55.208618183709397
 21
119.6897013277142
 31
0.0
  0
ARC
  5
1BBE
  8
0
 10
44.208618184060022
 20
120.189701327714
 30
0.0
 40
0.5
 50
180.00000000000321
 51
270.00000000000171
1001
GENIUS_GENODEF_13
1002
{
1000
HIER
1070
     0
1002
}
1002
{
1000
MANEDIT
1070
     0
1002
}
1002
{
1000
NOSEL
1070
     0
1002
}
1002
{
1000
BEHIND
1070
     0
1002
}
1002
{
1000
REACTOR
1002
}
1001
GENIUS_GENOBJ-N-FIL_13
1002
{
1000
OWNER
1000
GEN
1002
}
  0
ARC
  5
1BBF
  8
0
 10
58.208618183722137
 20
116.6897013272858
 30
0.0
 40
1.0
 50
0.0000000018010591
 51
90.000000001802661
  0
ARC
  5
1BC0
  8
0
 10
58.208618183939052
 20
116.6897013272533
 30
0.0
 40
1.0
 50
0.0000000026413362
 51
90.000000002641315
  0
LINE
  5
1BC1
  8
0
 10
55.208618183934959
 20
117.88970132707
 30
0.0
 11
55.20861818370895
 21
119.6897013277142
 31
0.0
  0
LINE
  5
1BC2
  8
0
 10
55.408618183909986
 20
117.689701327107
 30
0.0
 11
55.208618183904044
 21
117.88970132710109
 31
0.0
1001
GENIUS_GENODEF_13
1002
{
1000
HIER
1070
     0
1002
}
1002
{
1000
MANEDIT
1070
     0
1002
}
1002
{
1000
NOSEL
1070
     0
1002
}
1002
{
1000
BEHIND
1070
     0
1002
}
1002
{
1000
REACTOR
1002
}
1001
GENIUS_GENOBJ-N-CHA_13
1002
{
1000
OWNER
1000
GEN
1002
}
1001
GENIUS_GENFIL_13
1070
     0
1040
0.2
1040
0.2
1040
0.0
1040
0.0
1002
{
1002
}
  0
LINE
  5
1BC3
  8
0
 10
58.208618183892888
 20
117.6897013273035
 30
0.0
 11
55.408618183842471
 21
117.6897013271744
 31
0.0
  0
LINE
  5
1BC4
  8
0
 10
59.408618184028221
 20
110.97580458589709
 30
0.0
 11
59.208618183903127
 21
111.1758045860096
 31
0.0
1001
GENIUS_GENODEF_13
1002
{
1000
HIER
1070
     0
1002
}
1002
{
1000
MANEDIT
1070
     0
1002
}
1002
{
1000
NOSEL
1070
     0
1002
}
1002
{
1000
BEHIND
1070
     0
1002
}
1002
{
1000
REACTOR
1002
}
1001
GENIUS_GENOBJ-N-CHA_13
1002
{
1000
OWNER
1000
GEN
1002
}
1001
GENIUS_GENFIL_13
1070
     0
1040
0.4
1040
0.4
1040
0.0
1040
0.0
1002
{
1002
}
  0
LINE
  5
1BC5
  8
0
 10
59.408618183909539
 20
110.9758045860161
 30
0.0
 11
59.408618183909539
 21
110.9758045860159
 31
0.0
  0
LINE
  5
1BC6
  8
0
 10
59.208618183729193
 20
116.68972181339031
 30
0.0
 11
59.208618183903127
 21
111.1758045860097
 31
0.0
  0
LINE
  5
1BC7
  8
1
 10
55.208618183309227
 20
137.6897013273956
 30
0.0
 11
30.158050965403159
 21
137.6897013273956
 31
0.0
  0
LINE
  5
1BC8
  8
0
 10
38.196486149572593
 20
129.77756929303359
 30
0.0
 11
34.2086181839286
 21
133.76543725867759
 31
0.0
  0
LINE
  5
1BC9
  8
0
 10
34.2086181839286
 20
141.60355775602179
 30
0.0
 11
40.573460265638232
 21
141.60355775602179
 31
0.0
  0
LINE
  5
1BCA
  8
0
 10
34.2086181839286
 20
141.6139653961134
 30
0.0
 11
38.196486149572593
 21
145.6018333617576
 31
0.0
  0
LINE
  5
1BCB
  8
0
 10
34.2086181839286
 20
133.76543725867759
 30
0.0
 11
34.2086181839286
 21
137.6897013273956
 31
0.0
  0
LINE
  5
1BCC
  8
0
 10
34.2086181839286
 20
137.6897013273956
 30
0.0
 11
34.2086181839286
 21
141.6139653961134
 31
0.0
  0
LINE
  5
1BCD
  8
0
 10
41.708618183928813
 20
141.50424430685979
 30
0.0
 11
41.708618183928593
 21
133.8751583479314
 31
0.0
  0
LINE
  5
1BCE
  8
0
 10
38.708618183928593
 20
129.98970132738961
 30
0.0
 11
38.708618183928593
 21
133.1545267703448
 31
0.0
  0
ARC
  5
1BCF
  8
0
 10
38.408618183928638
 20
129.9897013273897
 30
0.0
 40
0.2999999999999545
 50
224.9999999999911
 51
0.0
  0
ARC
  5
1BD0
  8
0
 10
39.208618183928593
 20
133.1545267703448
 30
0.0
 40
0.5
 50
94.999999999999801
 51
180.0
  0
ARC
  5
1BD1
  8
0
 10
39.70861722589143
 20
132.68970132739571
 30
0.0
 40
1.0
 50
89.999989021703115
 51
179.99998902170151
  0
LINE
  5
1BD2
  8
0
 10
39.165040312554773
 20
133.65262411939079
 30
0.0
 11
41.708618183928593
 21
133.8751583479314
 31
0.0
  0
ARC
  5
1BD3
  8
0
 10
43.708618183928593
 20
122.1897013272572
 30
0.0
 40
0.5
 50
180.0
 51
269.99999999999841
1001
GENIUS_GENODEF_13
1002
{
1000
HIER
1070
     0
1002
}
1002
{
1000
MANEDIT
1070
     0
1002
}
1002
{
1000
NOSEL
1070
     0
1002
}
1002
{
1000
BEHIND
1070
     0
1002
}
1002
{
1000
REACTOR
1002
}
1001
GENIUS_GENOBJ-N-FIL_13
1002
{
1000
OWNER
1000
GEN
1002
}
  0
LINE
  5
1BD4
  8
0
 10
41.708618182495222
 20
140.1897013273956
 30
0.0
 11
43.208618183928593
 21
140.1897013273956
 31
0.0
  0
LINE
  5
1BD5
  8
3
 10
41.708618183928813
 20
139.69894132739549
 30
0.0
 11
43.208618261496213
 21
139.69894132739549
 31
0.0
  0
LINE
  5
1BD6
  8
0
 10
38.708618183928593
 20
145.38970132740161
 30
0.0
 11
38.708618183928593
 21
142.22487588444619
 31
0.0
  0
LINE
  5
1BD7
  8
0
 10
38.708618183928593
 20
143.78970144248211
 30
0.0
 11
38.708618183928593
 21
142.6897013273956
 31
0.0
  0
ARC
  5
1BD8
  8
0
 10
39.708618183928593
 20
142.6897013273956
 30
0.0
 40
1.0
 50
180.0
 51
270.0
  0
ARC
  5
1BD9
  8
0
 10
39.208618183928593
 20
142.22487588444619
 30
0.0
 40
0.5
 50
180.0
 51
265.00000000000023
  0
ARC
  5
1BDA
  8
0
 10
38.408618183928638
 20
145.38970132740161
 30
0.0
 40
0.2999999999999944
 50
0.0
 51
134.99999999999051
  0
LINE
  5
1BDB
  8
0
 10
39.165040312554773
 20
141.7267785354004
 30
0.0
 11
41.708618183928813
 21
141.50424430685979
 31
0.0
  0
LINE
  5
1BDC
  8
3
 10
41.708618183928813
 20
135.68046132739551
 30
0.0
 11
43.208618261496213
 21
135.68046132739551
 31
0.0
  0
LINE
  5
1BDD
  8
0
 10
41.708618182495222
 20
135.1897013273956
 30
0.0
 11
43.208618183928593
 21
135.1897013273956
 31
0.0
  0
LINE
  5
1BDE
  8
2
 10
58.208618183892888
 20
143.68970132745929
 30
0.0
 11
55.408618183842471
 21
143.68970132758841
 31
0.0
  0
LINE
  5
1BDF
  8
2
 10
55.408618183909986
 20
143.68970132765591
 30
0.0
 11
55.208618183904044
 21
143.48970132766169
 31
0.0
1001
GENIUS_GENODEF_13
1002
{
1000
HIER
1070
     0
1002
}
1002
{
1000
MANEDIT
1070
     0
1002
}
1002
{
1000
NOSEL
1070
     0
1002
}
1002
{
1000
BEHIND
1070
     0
1002
}
1002
{
1000
REACTOR
1002
}
1001
GENIUS_GENOBJ-N-CHA_13
1002
{
1000
OWNER
1000
GEN
1002
}
1001
GENIUS_GENFIL_13
1070
     0
1040
0.2
1040
0.2
1040
0.0
1040
0.0
1002
{
1002
}
  0
ARC
  5
1BE0
  8
2
 10
58.208618183939052
 20
144.6897013275096
 30
0.0
 40
1.0
 50
269.99999999735871
 51
359.9999999973586
  0
ARC
  5
1BE1
  8
2
 10
58.208618183722137
 20
144.689701327477
 30
0.0
 40
1.0
 50
269.99999999819732
 51
359.99999999819892
  0
LINE
  5
1BE2
  8
0
 10
218.12911011749429
 20
155.6897013278211
 30
0.0
 11
187.12911011762409
 21
155.68970132781749
 31
0.0
  0
ARC
  5
1BE3
  8
0
 10
187.1291101176248
 20
151.68970132781749
 30
0.0
 40
4.0
 50
90.000000000006196
 51
180.0000000000062
1001
GENIUS_GENODEF_13
1002
{
1000
HIER
1070
     0
1002
}
1002
{
1000
MANEDIT
1070
     0
1002
}
1002
{
1000
NOSEL
1070
     0
1002
}
1002
{
1000
BEHIND
1070
     0
1002
}
1002
{
1000
REACTOR
1002
}
1001
GENIUS_GENOBJ-N-FIL_13
1002
{
1000
OWNER
1000
GEN
1002
}
  0
LINE
  5
1BE4
  8
2
 10
195.3291101176489
 20
150.40359806850699
 30
0.0
 11
195.3291101176489
 21
150.40359806850699
 31
0.0
  0
LINE
  5
1BE5
  8
2
 10
195.3291101176489
 20
150.40359806850699
 30
0.0
 11
195.12911011765499
 21
150.2035980685007
 31
0.0
1001
GENIUS_GENODEF_13
1002
{
1000
HIER
1070
     0
1002
}
1002
{
1000
MANEDIT
1070
     0
1002
}
1002
{
1000
NOSEL
1070
     0
1002
}
1002
{
1000
BEHIND
1070
     0
1002
}
1002
{
1000
REACTOR
1002
}
1001
GENIUS_GENOBJ-N-CHA_13
1002
{
1000
OWNER
1000
GEN
1002
}
1001
GENIUS_GENFIL_13
1070
     0
1040
0.4
1040
0.4
1040
0.0
1040
0.0
1002
{
1002
}
  0
LINE
  5
1BE6
  8
2
 10
202.92911011752989
 20
150.4035980688657
 30
0.0
 11
203.1291101176551
 21
150.20359806875319
 31
0.0
1001
GENIUS_GENODEF_13
1002
{
1000
HIER
1070
     0
1002
}
1002
{
1000
MANEDIT
1070
     0
1002
}
1002
{
1000
NOSEL
1070
     0
1002
}
1002
{
1000
BEHIND
1070
     0
1002
}
1002
{
1000
REACTOR
1002
}
1001
GENIUS_GENOBJ-N-CHA_13
1002
{
1000
OWNER
1000
GEN
1002
}
1001
GENIUS_GENFIL_13
1070
     0
1040
0.4
1040
0.4
1040
0.0
1040
0.0
1002
{
1002
}
  0
LINE
  5
1BE7
  8
2
 10
202.92911011764889
 20
150.40359806874679
 30
0.0
 11
202.92911011764889
 21
150.4035980687469
 31
0.0
  0
ARC
  5
1BE8
  8
2
 10
199.12911012702651
 20
-49.560298672743777
 30
0.0
 40
200.00000000004229
 50
88.911314682704969
 51
91.088685322702474
  0
ARC
  5
1BE9
  8
0
 10
218.6291101176248
 20
151.68970132736339
 30
0.0
 40
0.5
 50
0.0000000000062071
 51
90.00000000000945
1001
GENIUS_GENODEF_13
1002
{
1000
HIER
1070
     0
1002
}
1002
{
1000
MANEDIT
1070
     0
1002
}
1002
{
1000
NOSEL
1070
     0
1002
}
1002
{
1000
BEHIND
1070
     0
1002
}
1002
{
1000
REACTOR
1002
}
1001
GENIUS_GENOBJ-N-FIL_13
1002
{
1000
OWNER
1000
GEN
1002
}
  0
ARC
  5
1BEA
  8
0
 10
218.12911011749429
 20
155.1897013278211
 30
0.0
 40
0.5
 50
0.0000000000062071
 51
90.000000000006196
1001
GENIUS_GENODEF_13
1002
{
1000
HIER
1070
     0
1002
}
1002
{
1000
MANEDIT
1070
     0
1002
}
1002
{
1000
NOSEL
1070
     0
1002
}
1002
{
1000
BEHIND
1070
     0
1002
}
1002
{
1000
REACTOR
1002
}
1001
GENIUS_GENOBJ-N-FIL_13
1002
{
1000
OWNER
1000
GEN
1002
}
  0
ARC
  5
1BEB
  8
0
 10
43.708618183928593
 20
151.6897013273734
 30
0.0
 40
0.5
 50
89.999999999996746
 51
180.0
1001
GENIUS_GENODEF_13
1002
{
1000
HIER
1070
     0
1002
}
1002
{
1000
MANEDIT
1070
     0
1002
}
1002
{
1000
NOSEL
1070
     0
1002
}
1002
{
1000
BEHIND
1070
     0
1002
}
1002
{
1000
REACTOR
1002
}
1001
GENIUS_GENOBJ-N-FIL_13
1002
{
1000
OWNER
1000
GEN
1002
}
  0
ARC
  5
1BEC
  8
0
 10
44.208618184058651
 20
155.1897013278311
 30
0.0
 40
0.5
 50
90.0
 51
180.0
1001
GENIUS_GENODEF_13
1002
{
1000
HIER
1070
     0
1002
}
1002
{
1000
MANEDIT
1070
     0
1002
}
1002
{
1000
NOSEL
1070
     0
1002
}
1002
{
1000
BEHIND
1070
     0
1002
}
1002
{
1000
REACTOR
1002
}
1001
GENIUS_GENOBJ-N-FIL_13
1002
{
1000
OWNER
1000
GEN
1002
}
  0
LINE
  5
1BED
  8
2
 10
59.408618183909539
 20
150.40359806874679
 30
0.0
 11
59.408618183909539
 21
150.4035980687469
 31
0.0
  0
LINE
  5
1BEE
  8
2
 10
59.408618184028221
 20
150.4035980688657
 30
0.0
 11
59.208618183903127
 21
150.20359806875319
 31
0.0
1001
GENIUS_GENODEF_13
1002
{
1000
HIER
1070
     0
1002
}
1002
{
1000
MANEDIT
1070
     0
1002
}
1002
{
1000
NOSEL
1070
     0
1002
}
1002
{
1000
BEHIND
1070
     0
1002
}
1002
{
1000
REACTOR
1002
}
1001
GENIUS_GENOBJ-N-CHA_13
1002
{
1000
OWNER
1000
GEN
1002
}
1001
GENIUS_GENFIL_13
1070
     0
1040
0.4
1040
0.4
1040
0.0
1040
0.0
1002
{
1002
}
  0
LINE
  5
1BEF
  8
2
 10
67.208618183903127
 20
150.2035980685007
 30
0.0
 11
67.208618183729186
 21
144.68970132709461
 31
0.0
  0
LINE
  5
1BF0
  8
0
 10
79.208618183928365
 20
120.6897013277146
 30
0.0
 11
79.208618183928593
 21
151.68970132783079
 31
0.0
  0
LINE
  5
1BF1
  8
3
 10
75.208618183928593
 20
155.68970132783079
 30
0.0
 11
75.208618183931321
 21
120.1897013277146
 31
0.0
  0
LINE
  5
1BF8
  8
2
 10
73.208618183932458
 20
143.48970132712441
 30
0.0
 11
73.208618183660974
 21
119.6897013277142
 31
0.0
  0
LINE
  5
1BF9
  8
0
 10
73.008618183886924
 20
117.6897013275813
 30
0.0
 11
68.208602100550479
 21
117.689701327585
 31
0.0
  0
ARC
  5
1BFA
  8
0
 10
68.208618183939052
 20
116.6897013277144
 30
0.0
 40
1.0
 50
90.000000002641315
 51
180.00000000264129
  0
LINE
  5
1BFB
  8
0
 10
67.008618183909434
 20
110.9758045862558
 30
0.0
 11
67.208618183903127
 21
111.1758045862621
 31
0.0
1001
GENIUS_GENODEF_13
1002
{
1000
HIER
1070
     0
1002
}
1002
{
1000
MANEDIT
1070
     0
1002
}
1002
{
1000
NOSEL
1070
     0
1002
}
1002
{
1000
BEHIND
1070
     0
1002
}
1002
{
1000
REACTOR
1002
}
1001
GENIUS_GENOBJ-N-CHA_13
1002
{
1000
OWNER
1000
GEN
1002
}
1001
GENIUS_GENFIL_13
1070
     0
1040
0.4
1040
0.4
1040
0.0
1040
0.0
1002
{
1002
}
  0
LINE
  5
1BFC
  8
0
 10
67.008618183909434
 20
110.9758045862558
 30
0.0
 11
67.008618183909434
 21
110.9758045862558
 31
0.0
  0
LINE
  5
1BFD
  8
0
 10
67.208618183903127
 20
111.1758045862621
 30
0.0
 11
67.208618183729186
 21
116.6897013276682
 31
0.0
  0
ARC
  5
1BFE
  8
3
 10
77.208618183928365
 20
119.1345484475445
 30
0.0
 40
1.0551528801701691
 50
31.744683614608839
 51
90.000000000003084
  0
ARC
  5
1BFF
  8
0
 10
78.20861818392882
 20
120.6897013277146
 30
0.0
 40
1.0
 50
269.99999999997232
 51
0.0
1001
GENIUS_GENODEF_13
1002
{
1000
HIER
1070
     0
1002
}
1002
{
1000
MANEDIT
1070
     0
1002
}
1002
{
1000
NOSEL
1070
     0
1002
}
1002
{
1000
BEHIND
1070
     0
1002
}
1002
{
1000
REACTOR
1002
}
1001
GENIUS_GENOBJ-N-FIL_13
1002
{
1000
OWNER
1000
GEN
1002
}
  0
LINE
  5
1C00
  8
0
 10
73.008618183906492
 20
117.6897013276009
 30
0.0
 11
73.208618183900853
 21
117.8897013276067
 31
0.0
1001
GENIUS_GENODEF_13
1002
{
1000
HIER
1070
     0
1002
}
1002
{
1000
MANEDIT
1070
     0
1002
}
1002
{
1000
NOSEL
1070
     0
1002
}
1002
{
1000
BEHIND
1070
     0
1002
}
1002
{
1000
REACTOR
1002
}
1001
GENIUS_GENOBJ-N-CHA_13
1002
{
1000
OWNER
1000
GEN
1002
}
1001
GENIUS_GENFIL_13
1070
     0
1040
0.2
1040
0.2
1040
0.0
1040
0.0
1002
{
1002
}
  0
LINE
  5
1C01
  8
0
 10
73.208618183932458
 20
117.88970132763841
 30
0.0
 11
73.208618183660974
 21
119.6897013277142
 31
0.0
  0
LINE
  5
1C02
  8
2
 10
73.008618183886924
 20
143.6897013271815
 30
0.0
 11
68.208602100550479
 21
143.6897013271778
 31
0.0
  0
ARC
  5
1C03
  8
2
 10
68.208618183939052
 20
144.6897013270484
 30
0.0
 40
1.0
 50
179.9999999973586
 51
269.99999999735871
  0
LINE
  5
1C04
  8
2
 10
73.008618183906492
 20
143.68970132716191
 30
0.0
 11
73.208618183900853
 21
143.48970132715621
 31
0.0
1001
GENIUS_GENODEF_13
1002
{
1000
HIER
1070
     0
1002
}
1002
{
1000
MANEDIT
1070
     0
1002
}
1002
{
1000
NOSEL
1070
     0
1002
}
1002
{
1000
BEHIND
1070
     0
1002
}
1002
{
1000
REACTOR
1002
}
1001
GENIUS_GENOBJ-N-CHA_13
1002
{
1000
OWNER
1000
GEN
1002
}
1001
GENIUS_GENFIL_13
1070
     0
1040
0.2
1040
0.2
1040
0.0
1040
0.0
1002
{
1002
}
  0
LINE
  5
1C05
  8
2
 10
67.008618183909434
 20
150.40359806850699
 30
0.0
 11
67.208618183903127
 21
150.2035980685007
 31
0.0
1001
GENIUS_GENODEF_13
1002
{
1000
HIER
1070
     0
1002
}
1002
{
1000
MANEDIT
1070
     0
1002
}
1002
{
1000
NOSEL
1070
     0
1002
}
1002
{
1000
BEHIND
1070
     0
1002
}
1002
{
1000
REACTOR
1002
}
1001
GENIUS_GENOBJ-N-CHA_13
1002
{
1000
OWNER
1000
GEN
1002
}
1001
GENIUS_GENFIL_13
1070
     0
1040
0.4
1040
0.4
1040
0.0
1040
0.0
1002
{
1002
}
  0
LINE
  5
1C06
  8
2
 10
67.008618183909434
 20
150.40359806850699
 30
0.0
 11
67.008618183909434
 21
150.40359806850699
 31
0.0
  0
ARC
  5
1C07
  8
0
 10
75.208618183928593
 20
151.68970132783079
 30
0.0
 40
4.0
 50
0.0
 51
90.0
1001
GENIUS_GENODEF_13
1002
{
1000
HIER
1070
     0
1002
}
1002
{
1000
MANEDIT
1070
     0
1002
}
1002
{
1000
NOSEL
1070
     0
1002
}
1002
{
1000
BEHIND
1070
     0
1002
}
1002
{
1000
REACTOR
1002
}
1001
GENIUS_GENOBJ-N-FIL_13
1002
{
1000
OWNER
1000
GEN
1002
}
  0
TEXT
  5
1E57
  8
0
 62
     3
 10
0.0
 20
0.0
 30
0.0
 40
10.0
  1
CSU8
  7
STANDARD1
  0
ENDSEC
  0
EOF
