  0
SECTION
  2
HEADER
  9
$ACADVER
  1
AC1009
  9
$INSBASE
 10
0.0
 20
0.0
 30
0.0
  9
$EXTMIN
 10
0.0
 20
-2.960436562073669
 30
0.0
  9
$EXTMAX
 10
147.5
 20
283.0000000000001137
 30
0.0
  9
$LIMMIN
 10
0.0
 20
0.0
  9
$LIMMAX
 10
400.0
 20
277.0
  9
$ORTHOMODE
 70
     1
  9
$REGENMODE
 70
     1
  9
$FILLMODE
 70
     1
  9
$QTEXTMODE
 70
     0
  9
$MIRRTEXT
 70
     1
  9
$DRAGMODE
 70
     2
  9
$LTSCALE
 40
5.0
  9
$OSMODE
 70
    37
  9
$ATTMODE
 70
     1
  9
$TEXTSIZE
 40
2.5
  9
$TRACEWID
 40
1.0
  9
$TEXTSTYLE
  7
STANDARD
  9
$CLAYER
  8
0
  9
$CELTYPE
  6
BYLAYER
  9
$CECOLOR
 62
   256
  9
$DIMSCALE
 40
1.0
  9
$DIMASZ
 40
3.0
  9
$DIMEXO
 40
1.0
  9
$DIMDLI
 40
6.0
  9
$DIMRND
 40
0.0
  9
$DIMDLE
 40
0.0
  9
$DIMEXE
 40
1.0
  9
$DIMTP
 40
495.0
  9
$DIMTM
 40
0.0
  9
$DIMTXT
 40
3.0
  9
$DIMCEN
 40
0.0
  9
$DIMTSZ
 40
0.0
  9
$DIMTOL
 70
     0
  9
$DIMLIM
 70
     0
  9
$DIMTIH
 70
     0
  9
$DIMTOH
 70
     0
  9
$DIMSE1
 70
     0
  9
$DIMSE2
 70
     0
  9
$DIMTAD
 70
     3
  9
$DIMZIN
 70
     8
  9
$DIMBLK
  1

  9
$DIMASO
 70
     0
  9
$DIMSHO
 70
     1
  9
$DIMPOST
  1

  9
$DIMAPOST
  1

  9
$DIMALT
 70
     0
  9
$DIMALTD
 70
     2
  9
$DIMALTF
 40
25.3999999999999986
  9
$DIMLFAC
 40
1.0
  9
$DIMTOFL
 70
     1
  9
$DIMTVP
 40
0.0
  9
$DIMTIX
 70
     1
  9
$DIMSOXD
 70
     0
  9
$DIMSAH
 70
     1
  9
$DIMBLK1
  1
ARROW1
  9
$DIMBLK2
  1
ARROW1
  9
$DIMSTYLE
  2
ITM
  9
$DIMCLRD
 70
     4
  9
$DIMCLRE
 70
     4
  9
$DIMCLRT
 70
     4
  9
$DIMTFAC
 40
1.0
  9
$DIMGAP
 40
1.0
  9
$LUNITS
 70
     2
  9
$LUPREC
 70
     1
  9
$SKETCHINC
 40
1.0
  9
$FILLETRAD
 40
0.0
  9
$AUNITS
 70
     0
  9
$AUPREC
 70
     0
  9
$MENU
  1
.
  9
$ELEVATION
 40
0.0
  9
$PELEVATION
 40
0.0
  9
$THICKNESS
 40
0.0
  9
$LIMCHECK
 70
     0
  9
$BLIPMODE
 70
     0
  9
$CHAMFERA
 40
10.0
  9
$CHAMFERB
 40
10.0
  9
$SKPOLY
 70
     0
  9
$TDCREATE
 40
2451415.6127083338797092
  9
$TDUPDATE
 40
2460725.6421296298503876
  9
$TDINDWG
 40
0.3532225347
  9
$TDUSRTIMER
 40
0.3532225347
  9
$USRTIMER
 70
     1
  9
$ANGBASE
 50
0.0
  9
$ANGDIR
 70
     0
  9
$PDMODE
 70
     0
  9
$PDSIZE
 40
0.0
  9
$PLINEWID
 40
0.0
  9
$COORDS
 70
     1
  9
$SPLFRAME
 70
     0
  9
$SPLINETYPE
 70
     6
  9
$SPLINESEGS
 70
     8
  9
$ATTDIA
 70
     1
  9
$ATTREQ
 70
     1
  9
$HANDLING
 70
     1
  9
$HANDSEED
  5
2B4C
  9
$SURFTAB1
 70
     6
  9
$SURFTAB2
 70
     6
  9
$SURFTYPE
 70
     6
  9
$SURFU
 70
     6
  9
$SURFV
 70
     6
  9
$UCSNAME
  2

  9
$UCSORG
 10
0.0
 20
0.0
 30
0.0
  9
$UCSXDIR
 10
1.0
 20
0.0
 30
0.0
  9
$UCSYDIR
 10
0.0
 20
1.0
 30
0.0
  9
$PUCSNAME
  2

  9
$PUCSORG
 10
0.0
 20
0.0
 30
0.0
  9
$PUCSXDIR
 10
1.0
 20
0.0
 30
0.0
  9
$PUCSYDIR
 10
0.0
 20
1.0
 30
0.0
  9
$USERI1
 70
     3
  9
$USERI2
 70
     1
  9
$USERI3
 70
     1
  9
$USERI4
 70
     0
  9
$USERI5
 70
     0
  9
$USERR1
 40
1.0
  9
$USERR2
 40
3.0
  9
$USERR3
 40
3.0
  9
$USERR4
 40
3.0
  9
$USERR5
 40
10.0
  9
$WORLDVIEW
 70
     1
  9
$SHADEDGE
 70
     3
  9
$SHADEDIF
 70
    70
  9
$TILEMODE
 70
     1
  9
$MAXACTVP
 70
    16
  9
$PLIMCHECK
 70
     0
  9
$PEXTMIN
 10
1.0000000000000000E+20
 20
1.0000000000000000E+20
 30
1.0000000000000000E+20
  9
$PEXTMAX
 10
-1.0000000000000000E+20
 20
-1.0000000000000000E+20
 30
-1.0000000000000000E+20
  9
$PLIMMIN
 10
0.0
 20
0.0
  9
$PLIMMAX
 10
420.0
 20
297.0
  9
$UNITMODE
 70
     0
  9
$VISRETAIN
 70
     0
  9
$PLINEGEN
 70
     0
  9
$PSLTSCALE
 70
     1
  0
ENDSEC
  0
SECTION
  2
TABLES
  0
TABLE
  2
VPORT
 70
     1
  0
VPORT
  2
*ACTIVE
 70
     0
 10
0.0
 20
0.0
 11
1.0
 21
1.0
 12
589.7577092511013461
 22
251.1186470434683997
 13
0.0
 23
0.0
 14
10.0
 24
10.0
 15
10.0
 25
10.0
 16
0.0
 26
0.0
 36
1.0
 17
0.0
 27
0.0
 37
0.0
 40
502.2372940869367994
 41
2.3485221674876842
 42
50.0
 43
0.0
 44
0.0
 50
0.0
 51
0.0
 71
     0
 72
   100
 73
     1
 74
     1
 75
     0
 76
     0
 77
     0
 78
     0
  0
ENDTAB
  0
TABLE
  2
LTYPE
 70
     4
  0
LTYPE
  2
CONTINUOUS
 70
     0
  3
Solid line
 72
    65
 73
     0
 40
0.0
  0
LTYPE
  2
CENTER
 70
     0
  3
____ _ ____ _ ____ _ ____ _ ____ _ ____ _ ____ 
 72
    65
 73
     4
 40
2.0
 49
1.25
 49
-0.25
 49
0.25
 49
-0.25
  0
LTYPE
  2
PHANTOM2
 70
     0
  3
___ _ _ ___ _ _ ___ _ _ ___ _ _
 72
    65
 73
     6
 40
1.25
 49
0.625
 49
-0.125
 49
0.125
 49
-0.125
 49
0.125
 49
-0.125
  0
LTYPE
  2
HIDDEN
 70
     0
  3
Hidden __ __ __ __ __ __ __ __ __ __ __ __ __ __
 72
    65
 73
     2
 40
1.905
 49
1.27
 49
-0.635
  0
ENDTAB
  0
TABLE
  2
LAYER
 70
     5
  0
LAYER
  2
0
 70
     0
 62
     7
  6
CONTINUOUS
  0
LAYER
  2
WAKU
 70
     0
 62
     5
  6
CONTINUOUS
  0
LAYER
  2
1
 70
     0
 62
     1
  6
CENTER
  0
LAYER
  2
DEFPOINTS
 70
     0
 62
     7
  6
CONTINUOUS
  0
LAYER
  2
2
 70
     0
 62
     2
  6
HIDDEN
  0
ENDTAB
  0
TABLE
  2
STYLE
 70
     3
  0
STYLE
  2
STANDARD
 70
     0
 40
0.0
 41
1.0
 50
0.0
 71
     0
 42
2.5
  3
ROMANS
  4
EXTFONT
  0
STYLE
  2
K
 70
     0
 40
0.0
 41
1.0
 50
0.0
 71
     0
 42
3.0
  3
ROMANS
  4
bigfont
  0
STYLE
  2
STANDARD1
 70
     0
 40
0.0
 41
1.0
 50
0.0
 71
     0
 42
3.0
  3
txt
  4

  0
ENDTAB
  0
TABLE
  2
VIEW
 70
     0
  0
ENDTAB
  0
TABLE
  2
UCS
 70
     0
  0
ENDTAB
  0
TABLE
  2
APPID
 70
    43
  0
APPID
  2
ACAD
 70
     0
  0
APPID
  2
ACAD_NAV_VCDISPLAY
 70
     0
  0
APPID
  2
DCO15
 70
     0
  0
APPID
  2
GENIUS_GENOREF_13
 70
     0
  0
APPID
  2
GENIUS_GENOENT_13
 70
     0
  0
APPID
  2
GENIUS_GENBH_13
 70
     0
  0
APPID
  2
GENIUS_GENOBJ_13
 70
     0
  0
APPID
  2
GENIUS_GENODEF_13
 70
     0
  0
APPID
  2
GENIUS_GENOLIS_13
 70
     0
  0
APPID
  2
GENIUS_GENOBJ-NBEHI-BHF_13
 70
     0
  0
APPID
  2
GENIUS_GENOBJ-NBEHI-BHB_13
 70
     0
  0
APPID
  2
GENIUS_GENOBJ-F-PART_13
 70
     0
  0
APPID
  2
GENIUS_GEFSTDP_13
 70
     0
  0
APPID
  2
GENIUS_GENOBJ-N-RSSYM_13
 70
     0
  0
APPID
  2
GENIUS_GENSYMENT_13
 70
     0
  0
APPID
  2
GENIUS_GENOBJ-N-TIT_13
 70
     0
  0
APPID
  2
GENIUS_GENTITLE_13
 70
     0
  0
APPID
  2
GENIUS_GENZVEED_13
 70
     0
  0
APPID
  2
GENIUS_GENOBJ-N-LEADER_13
 70
     0
  0
APPID
  2
GENIUS_GENOBJ-N-FIL_13
 70
     0
  0
APPID
  2
GENIUS_GENOBJ-N-SEC_13
 70
     0
  0
APPID
  2
GENIUS_GENOBJ-N-CRS_13
 70
     0
  0
APPID
  2
GENIUS_GENOBJ-N-ZOO_13
 70
     0
  0
APPID
  2
GENIUS_GENZOO_13
 70
     0
  0
APPID
  2
GENIUS_GENOBJ-F-TOL_13
 70
     0
  0
APPID
  2
GENIUS_GENFIL_13
 70
     0
  0
APPID
  2
GENIUS_GENOBJ-N-CHA_13
 70
     0
  0
APPID
  2
_CALL_MAC$
 70
     0
  0
APPID
  2
ASM_BASE
 70
     0
  0
APPID
  2
ASM_EXPLO_VER_2_00
 70
     0
  0
APPID
  2
ASM_CADM_VER_12_00
 70
     0
  0
APPID
  2
ASM_BASEFORO
 70
     0
  0
APPID
  2
ASM_BASETRAVI
 70
     0
  0
APPID
  2
ASM_BASETRAVI1
 70
     0
  0
APPID
  2
ASM_GRUPPI
 70
     0
  0
APPID
  2
ASM_CADM_ALBERO
 70
     0
  0
APPID
  2
ASM_GOLE
 70
     0
  0
APPID
  2
ACAD_EXEMPT_FROM_CAD_STANDARDS
 70
     0
  0
APPID
  2
ACAD_DSTYLE_DIMJAG
 70
     0
  0
APPID
  2
ACAD_DSTYLE_DIMTALN
 70
     0
  0
APPID
  2
GRADIENTCOLOR1ACI
 70
     0
  0
APPID
  2
GRADIENTCOLOR2ACI
 70
     0
  0
APPID
  2
ACAD_MLEADERVER
 70
     0
  0
ENDTAB
  0
TABLE
  2
DIMSTYLE
 70
     2
  0
DIMSTYLE
  2
STANDARD
 70
     0
  3

  4

  5

  6

  7

 40
1.0
 41
0.18
 42
0.0625
 43
0.38
 44
0.18
 45
0.0
 46
0.0
 47
0.0
 48
0.0
140
0.18
141
0.09
142
0.0
143
25.3999999999999986
144
1.0
145
0.0
146
1.0
147
0.09
 71
     0
 72
     0
 73
     1
 74
     1
 75
     0
 76
     0
 77
     0
 78
     0
170
     0
171
     2
172
     0
173
     0
174
     0
175
     0
176
     0
177
     0
178
     0
  0
DIMSTYLE
  2
ITM
 70
     0
  3

  4

  5
ARROWANG
  6
ARROWANG
  7
ARROWANG
 40
1.0
 41
1.5
 42
1.0
 43
6.0
 44
1.0
 45
0.0
 46
0.0
 47
495.0
 48
0.0
140
3.0
141
0.0
142
0.0
143
25.3999999999999986
144
1.0
145
0.0
146
1.0
147
0.5
 71
     0
 72
     0
 73
     0
 74
     0
 75
     0
 76
     0
 77
     3
 78
     8
170
     0
171
     2
172
     1
173
     1
174
     1
175
     0
176
     0
177
     0
178
     0
  0
ENDTAB
  0
ENDSEC
  0
SECTION
  2
BLOCKS
  0
BLOCK
  8
0
  2
$MODEL_SPACE
 70
     0
 10
0.0
 20
0.0
 30
0.0
  3
$MODEL_SPACE
  1

  0
ENDBLK
  5
1C
  8
0
  0
BLOCK
 67
     1
  8
0
  2
$PAPER_SPACE
 70
     0
 10
0.0
 20
0.0
 30
0.0
  3
$PAPER_SPACE
  1

  0
ENDBLK
  5
19
 67
     1
  8
0
  0
BLOCK
  8
0
  2
ARROWANG
 70
     0
 10
0.0
 20
0.0
 30
0.0
  3
ARROWANG
  1

  0
LINE
  5
C9
  8
0
 10
0.0
 20
0.0
 30
0.0
 11
-1.4999999999999429
 21
0.4019237886467409
 31
0.0
  0
LINE
  5
CA
  8
0
 10
0.0
 20
0.0
 30
0.0
 11
-1.5
 21
-0.4019237886467124
 31
0.0
  0
ENDBLK
  5
CB
  8
0
  0
BLOCK
  8
0
  2
ARROW1
 70
     0
 10
0.0
 20
0.0
 30
0.0
  3
ARROW1
  1

  0
SOLID
  5
EE
  8
WAKU
  6
CONTINUOUS
 62
     4
 10
-1.0
 20
0.1666666666666714
 30
0.0
 11
-1.0
 21
-0.1666666666666714
 31
0.0
 12
0.0
 22
0.0
 32
0.0
 13
0.0
 23
0.0
 33
0.0
  0
ENDBLK
  5
F0
  8
0
  0
BLOCK
  8
0
  2
*U2
 70
     1
 10
0.0
 20
0.0
 30
0.0
  3
*U2
  1

  0
LINE
  5
2AA1
  8
1
 10
7.1771338290434414
 20
7.1771338290434414
 30
0.0
 11
-7.1771338290434414
 21
-7.1771338290433837
 31
0.0
  0
ENDBLK
  5
2AA2
  8
0
  0
BLOCK
  8
0
  2
*U3
 70
     1
 10
0.0
 20
0.0
 30
0.0
  3
*U3
  1

  0
INSERT
  5
2AA7
  8
1
  6
BYBLOCK
 62
     0
  2
*U2
 10
970.6098438808138553
 20
264.8802351325709878
 30
0.0
  0
INSERT
  5
2AA8
  8
1
  6
BYBLOCK
 62
     0
  2
*U2
 10
923.9407963225016829
 20
264.8802351325708742
 30
0.0
 50
90.0
  0
INSERT
  5
2AA9
  8
1
  6
BYBLOCK
 62
     0
  2
*U2
 10
923.9407963225016829
 20
218.2111875742587017
 30
0.0
 50
180.0
  0
INSERT
  5
2AAA
  8
1
  6
BYBLOCK
 62
     0
  2
*U2
 10
970.6098438808138553
 20
218.211187574258787
 30
0.0
 41
0.9999999999999998
 42
0.9999999999999998
 43
0.9999999999999998
 50
270.0
  0
ENDBLK
  5
2AAB
  8
0
  0
ENDSEC
  0
SECTION
  2
ENTITIES
  0
TEXT
  5
1EED
  8
0
 62
     3
 10
0.0
 20
0.0
 30
0.0
 40
10.0
  1
CP780-50085W
  7
STANDARD1
  0
LINE
  5
2A63
  8
0
 10
57.4999999999998224
 20
155.5
 30
0.0
 11
57.9999999999998224
 21
155.0
 31
0.0
  0
LINE
  5
2A64
  8
0
 10
141.999999999999801
 20
155.0
 30
0.0
 11
142.499999999999801
 21
155.5
 31
0.0
  0
LINE
  5
2A65
  8
0
 10
57.4999999999998224
 20
162.5
 30
0.0
 11
57.4999999999998224
 21
155.5
 31
0.0
  0
LINE
  5
2A66
  8
0
 10
142.499999999999801
 20
155.5
 30
0.0
 11
142.499999999999801
 21
162.5
 31
0.0
  0
LINE
  5
2A67
  8
0
 10
142.499999999999801
 20
162.5
 30
0.0
 11
141.999999999999801
 21
163.0
 31
0.0
  0
LINE
  5
2A68
  8
0
 10
57.9999999999998224
 20
163.0
 30
0.0
 11
57.4999999999998224
 21
162.5
 31
0.0
  0
LINE
  5
2A69
  8
0
 10
57.4999999999998224
 20
155.5
 30
0.0
 11
142.499999999999801
 21
155.5
 31
0.0
  0
LINE
  5
2A6A
  8
0
 10
141.999999999999801
 20
155.0
 30
0.0
 11
57.9999999999998224
 21
155.0
 31
0.0
  0
LINE
  5
2A6B
  8
0
 10
142.499999999999801
 20
162.5
 30
0.0
 11
57.4999999999998224
 21
162.5000000000003126
 31
0.0
  0
LINE
  5
2A6C
  8
0
 10
58.0000000000000426
 20
163.0000000000003126
 30
0.0
 11
141.999999999999801
 21
163.0
 31
0.0
  0
LINE
  5
2A6D
  8
2
 10
73.3654762208434903
 20
159.1500000000000909
 30
0.0
 11
79.9654762208438541
 21
159.1500000000000909
 31
0.0
  0
LINE
  5
2A6E
  8
2
 10
120.0345237791560038
 20
159.1500000000000909
 30
0.0
 11
126.6345237791558986
 21
159.1500000000000909
 31
0.0
  0
LINE
  5
2A6F
  8
2
 10
69.5154762208438086
 20
163.0
 30
0.0
 11
73.3654762208437035
 21
159.1500000000000909
 31
0.0
  0
LINE
  5
2A70
  8
2
 10
79.9654762208438541
 20
159.1500000000000909
 30
0.0
 11
83.8154762208437631
 21
163.0
 31
0.0
  0
LINE
  5
2A71
  8
2
 10
116.1845237791557963
 20
163.0
 30
0.0
 11
120.0345237791560038
 21
159.1500000000000057
 31
0.0
  0
LINE
  5
2A72
  8
2
 10
126.6345237791558986
 20
159.1500000000000057
 30
0.0
 11
130.4845237791558077
 21
163.0
 31
0.0
  0
LINE
  5
2A73
  8
2
 10
73.3654762208437035
 20
159.1500000000000909
 30
0.0
 11
73.3654762208437035
 21
155.0
 31
0.0
  0
LINE
  5
2A74
  8
2
 10
79.9654762208438541
 20
155.0
 30
0.0
 11
79.9654762208438541
 21
159.1500000000000909
 31
0.0
  0
LINE
  5
2A75
  8
2
 10
120.0345237791560038
 20
159.1500000000000909
 30
0.0
 11
120.0345237791560038
 21
155.0
 31
0.0
  0
LINE
  5
2A76
  8
2
 10
126.6345237791556997
 20
155.0
 30
0.0
 11
126.6345237791558986
 21
159.1500000000000909
 31
0.0
  0
LINE
  5
2A77
  8
2
 10
108.999999999999801
 20
155.0
 30
0.0
 11
108.499999999999801
 21
155.5
 31
0.0
  0
LINE
  5
2A78
  8
2
 10
91.4999999999998153
 20
155.5
 30
0.0
 11
90.9999999999998153
 21
155.0
 31
0.0
  0
LINE
  5
2A79
  8
2
 10
90.9999999999998153
 20
163.0
 30
0.0
 11
91.4999999999998153
 21
162.5
 31
0.0
  0
LINE
  5
2A7A
  8
2
 10
108.499999999999801
 20
162.5
 30
0.0
 11
108.999999999999801
 21
163.0
 31
0.0
  0
LINE
  5
2A7B
  8
2
 10
91.4999999999998153
 20
162.5
 30
0.0
 11
91.4999999999998153
 21
155.5
 31
0.0
  0
LINE
  5
2A7C
  8
2
 10
108.499999999999801
 20
155.5
 30
0.0
 11
108.499999999999801
 21
162.5
 31
0.0
  0
CIRCLE
  5
2A7D
  8
0
 10
100.0
 20
82.5
 30
0.0
 40
42.5
  0
CIRCLE
  5
2A7F
  8
0
 10
100.0
 20
82.5
 30
0.0
 40
9.0
  0
CIRCLE
  5
2A80
  8
0
 10
76.6654762208441269
 20
59.1654762208439706
 30
0.0
 40
3.2999999999999972
  0
CIRCLE
  5
2A81
  8
0
 10
123.3345237791559015
 20
59.1654762208438783
 30
0.0
 40
3.2999999999999972
  0
CIRCLE
  5
2A82
  8
0
 10
100.0
 20
82.5
 30
0.0
 40
8.5000000000000142
  0
CIRCLE
  5
2A83
  8
0
 10
123.3345237791559015
 20
105.834523779156001
 30
0.0
 40
3.3000000000000109
  0
CIRCLE
  5
2A84
  8
0
 10
76.6654762208441269
 20
105.8345237791561004
 30
0.0
 40
3.2999999999999972
  0
CIRCLE
  5
2A86
  8
0
 10
100.0
 20
235.5000000000001137
 30
0.0
 40
42.4999999999999716
  0
CIRCLE
  5
2A87
  8
0
 10
76.6654762208441269
 20
258.8345237791563136
 30
0.0
 40
7.1499999999999773
  0
CIRCLE
  5
2A88
  8
0
 10
76.6654762208441269
 20
212.1654762208441127
 30
0.0
 40
7.1500000000000341
  0
CIRCLE
  5
2A89
  8
0
 10
123.3345237791559015
 20
212.1654762208441127
 30
0.0
 40
7.1500000000000048
  0
CIRCLE
  5
2A8A
  8
0
 10
123.3345237791559015
 20
258.8345237791563136
 30
0.0
 40
7.1499999999999773
  0
CIRCLE
  5
2A8B
  8
0
 10
100.0
 20
235.5000000000001137
 30
0.0
 40
8.9999999999999716
  0
CIRCLE
  5
2A8C
  8
0
 10
76.6654762208441269
 20
212.165476220843999
 30
0.0
 40
3.3000000000000389
  0
CIRCLE
  5
2A8D
  8
0
 10
123.3345237791559015
 20
212.1654762208441127
 30
0.0
 40
3.3000000000000109
  0
CIRCLE
  5
2A8E
  8
0
 10
100.0
 20
235.5000000000001137
 30
0.0
 40
8.4999999999999716
  0
CIRCLE
  5
2A8F
  8
0
 10
123.3345237791559015
 20
258.8345237791563136
 30
0.0
 40
3.3000000000000109
  0
CIRCLE
  5
2A90
  8
0
 10
76.6654762208441269
 20
258.8345237791560862
 30
0.0
 40
3.3000000000000109
  0
LINE
  5
2A91
  8
1
 10
147.5
 20
235.5000000000001137
 30
0.0
 11
52.5000000000000426
 21
235.5000000000001137
 31
0.0
  0
LINE
  5
2A92
  8
1
 10
100.0
 20
188.0000000000001137
 30
0.0
 11
100.0
 21
283.0000000000001137
 31
0.0
  0
CIRCLE
  5
2A93
  8
1
 10
100.0
 20
235.5000000000001137
 30
0.0
 40
33.0000000000000284
  0
INSERT
  5
2A94
  8
1
  2
*U3
 10
-847.2753201016578259
 20
-6.0457113534147231
 30
0.0
  0
LINE
  5
2A95
  8
1
 10
100.0
 20
168.0000000000001137
 30
0.0
 11
100.0
 21
150.0
 31
0.0
  0
LINE
  5
2A96
  8
1
 10
76.6654762208441269
 20
152.0
 30
0.0
 11
76.6654762208438996
 21
166.000000000000199
 31
0.0
  0
LINE
  5
2A97
  8
1
 10
123.3345237791563989
 20
152.0
 30
0.0
 11
123.3345237791561999
 21
166.0
 31
0.0
  0
LINE
  5
2A98
  8
1
 10
147.5
 20
82.5
 30
0.0
 11
52.5000000000000426
 21
82.5
 31
0.0
  0
LINE
  5
2A99
  8
1
 10
100.0
 20
35.0000000000000284
 30
0.0
 11
100.0
 21
130.0
 31
0.0
  0
CIRCLE
  5
2A9A
  8
1
 10
100.0
 20
82.5
 30
0.0
 40
33.0000000000000284
  0
LINE
  5
2A9B
  8
1
 10
127.7892965006312949
 20
110.2892965006312949
 30
0.0
 11
118.8797510576805934
 21
101.379751057680906
 31
0.0
  0
LINE
  5
2A9C
  8
1
 10
72.210703499368762
 20
110.2892965006311954
 30
0.0
 11
81.1202489423190372
 21
101.379751057680707
 31
0.0
  0
LINE
  5
2A9D
  8
1
 10
72.210703499368762
 20
54.710703499368627
 30
0.0
 11
81.1202489423194777
 21
63.6202489423191508
 31
0.0
  0
LINE
  5
2A9E
  8
1
 10
127.7892965006312949
 20
54.710703499368762
 30
0.0
 11
118.8797510576810055
 21
63.6202489423193072
 31
0.0
  0
LINE
  5
2ADF
  8
2
 10
91.4999999999998153
 20
162.5
 30
0.0
 11
108.499999999999801
 21
162.5
 31
0.0
  0
LINE
  5
2AE0
  8
2
 10
91.4999999999998153
 20
155.5
 30
0.0
 11
108.499999999999801
 21
155.5
 31
0.0
  0
VIEWPORT
  5
22
 67
     1
  8
0
 10
261.517699115044195
 20
148.5
 30
0.0
 40
523.0353982300885036
 41
297.0
 68
     1
 69
     1
1001
ACAD
1000
MVIEW
1002
{
1070
    16
1010
0.0
1020
0.0
1030
0.0
1010
0.0
1020
0.0
1030
1.0
1040
0.0
1040
297.0
1040
261.517699115044195
1040
148.5
1040
50.0
1040
0.0
1040
0.0
1070
     0
1070
   100
1070
     1
1070
     1
1070
     0
1070
     0
1070
     0
1070
     0
1040
0.0
1040
0.0
1040
0.0
1040
1.0
1040
1.0
1040
10.0
1040
10.0
1070
     0
1002
{
1002
}
1002
}
  0
ENDSEC
  0
EOF
