  0
SECTION
  2
HEADER
  9
$ACADVER
  1
AC1009
  9
$INSBASE
 10
0.0
 20
0.0
 30
0.0
  9
$EXTMIN
 10
0.0
 20
-2.960436562073669
 30
0.0
  9
$EXTMAX
 10
147.5
 20
294.9999999999998863
 30
0.0
  9
$LIMMIN
 10
0.0
 20
0.0
  9
$LIMMAX
 10
400.0
 20
277.0
  9
$ORTHOMODE
 70
     1
  9
$REGENMODE
 70
     1
  9
$FILLMODE
 70
     1
  9
$QTEXTMODE
 70
     0
  9
$MIRRTEXT
 70
     1
  9
$DRAGMODE
 70
     2
  9
$LTSCALE
 40
5.0
  9
$OSMODE
 70
    37
  9
$ATTMODE
 70
     1
  9
$TEXTSIZE
 40
2.5
  9
$TRACEWID
 40
1.0
  9
$TEXTSTYLE
  7
STANDARD
  9
$CLAYER
  8
0
  9
$CELTYPE
  6
BYLAYER
  9
$CECOLOR
 62
   256
  9
$DIMSCALE
 40
1.0
  9
$DIMASZ
 40
3.0
  9
$DIMEXO
 40
1.0
  9
$DIMDLI
 40
6.0
  9
$DIMRND
 40
0.0
  9
$DIMDLE
 40
0.0
  9
$DIMEXE
 40
1.0
  9
$DIMTP
 40
495.0
  9
$DIMTM
 40
0.0
  9
$DIMTXT
 40
3.0
  9
$DIMCEN
 40
0.0
  9
$DIMTSZ
 40
0.0
  9
$DIMTOL
 70
     0
  9
$DIMLIM
 70
     0
  9
$DIMTIH
 70
     0
  9
$DIMTOH
 70
     0
  9
$DIMSE1
 70
     0
  9
$DIMSE2
 70
     0
  9
$DIMTAD
 70
     3
  9
$DIMZIN
 70
     8
  9
$DIMBLK
  1

  9
$DIMASO
 70
     0
  9
$DIMSHO
 70
     1
  9
$DIMPOST
  1

  9
$DIMAPOST
  1

  9
$DIMALT
 70
     0
  9
$DIMALTD
 70
     2
  9
$DIMALTF
 40
25.3999999999999986
  9
$DIMLFAC
 40
1.0
  9
$DIMTOFL
 70
     1
  9
$DIMTVP
 40
0.0
  9
$DIMTIX
 70
     1
  9
$DIMSOXD
 70
     0
  9
$DIMSAH
 70
     1
  9
$DIMBLK1
  1
ARROW1
  9
$DIMBLK2
  1
ARROW1
  9
$DIMSTYLE
  2
ITM
  9
$DIMCLRD
 70
     4
  9
$DIMCLRE
 70
     4
  9
$DIMCLRT
 70
     4
  9
$DIMTFAC
 40
1.0
  9
$DIMGAP
 40
1.0
  9
$LUNITS
 70
     2
  9
$LUPREC
 70
     1
  9
$SKETCHINC
 40
1.0
  9
$FILLETRAD
 40
0.0
  9
$AUNITS
 70
     0
  9
$AUPREC
 70
     0
  9
$MENU
  1
.
  9
$ELEVATION
 40
0.0
  9
$PELEVATION
 40
0.0
  9
$THICKNESS
 40
0.0
  9
$LIMCHECK
 70
     0
  9
$BLIPMODE
 70
     0
  9
$CHAMFERA
 40
10.0
  9
$CHAMFERB
 40
10.0
  9
$SKPOLY
 70
     0
  9
$TDCREATE
 40
2451415.6127083338797092
  9
$TDUPDATE
 40
2460725.6421296298503876
  9
$TDINDWG
 40
0.3530373495
  9
$TDUSRTIMER
 40
0.3530373495
  9
$USRTIMER
 70
     1
  9
$ANGBASE
 50
0.0
  9
$ANGDIR
 70
     0
  9
$PDMODE
 70
     0
  9
$PDSIZE
 40
0.0
  9
$PLINEWID
 40
0.0
  9
$COORDS
 70
     1
  9
$SPLFRAME
 70
     0
  9
$SPLINETYPE
 70
     6
  9
$SPLINESEGS
 70
     8
  9
$ATTDIA
 70
     1
  9
$ATTREQ
 70
     1
  9
$HANDLING
 70
     1
  9
$HANDSEED
  5
2ADD
  9
$SURFTAB1
 70
     6
  9
$SURFTAB2
 70
     6
  9
$SURFTYPE
 70
     6
  9
$SURFU
 70
     6
  9
$SURFV
 70
     6
  9
$UCSNAME
  2

  9
$UCSORG
 10
0.0
 20
0.0
 30
0.0
  9
$UCSXDIR
 10
1.0
 20
0.0
 30
0.0
  9
$UCSYDIR
 10
0.0
 20
1.0
 30
0.0
  9
$PUCSNAME
  2

  9
$PUCSORG
 10
0.0
 20
0.0
 30
0.0
  9
$PUCSXDIR
 10
1.0
 20
0.0
 30
0.0
  9
$PUCSYDIR
 10
0.0
 20
1.0
 30
0.0
  9
$USERI1
 70
     3
  9
$USERI2
 70
     1
  9
$USERI3
 70
     1
  9
$USERI4
 70
     0
  9
$USERI5
 70
     0
  9
$USERR1
 40
1.0
  9
$USERR2
 40
3.0
  9
$USERR3
 40
3.0
  9
$USERR4
 40
3.0
  9
$USERR5
 40
10.0
  9
$WORLDVIEW
 70
     1
  9
$SHADEDGE
 70
     3
  9
$SHADEDIF
 70
    70
  9
$TILEMODE
 70
     1
  9
$MAXACTVP
 70
    16
  9
$PLIMCHECK
 70
     0
  9
$PEXTMIN
 10
1.0000000000000000E+20
 20
1.0000000000000000E+20
 30
1.0000000000000000E+20
  9
$PEXTMAX
 10
-1.0000000000000000E+20
 20
-1.0000000000000000E+20
 30
-1.0000000000000000E+20
  9
$PLIMMIN
 10
0.0
 20
0.0
  9
$PLIMMAX
 10
420.0
 20
297.0
  9
$UNITMODE
 70
     0
  9
$VISRETAIN
 70
     0
  9
$PLINEGEN
 70
     0
  9
$PSLTSCALE
 70
     1
  0
ENDSEC
  0
SECTION
  2
TABLES
  0
TABLE
  2
VPORT
 70
     1
  0
VPORT
  2
*ACTIVE
 70
     0
 10
0.0
 20
0.0
 11
1.0
 21
1.0
 12
589.7577092511013461
 22
251.1186470434683997
 13
0.0
 23
0.0
 14
10.0
 24
10.0
 15
10.0
 25
10.0
 16
0.0
 26
0.0
 36
1.0
 17
0.0
 27
0.0
 37
0.0
 40
502.2372940869367994
 41
2.3485221674876842
 42
50.0
 43
0.0
 44
0.0
 50
0.0
 51
0.0
 71
     0
 72
   100
 73
     1
 74
     1
 75
     0
 76
     0
 77
     0
 78
     0
  0
ENDTAB
  0
TABLE
  2
LTYPE
 70
     4
  0
LTYPE
  2
CONTINUOUS
 70
     0
  3
Solid line
 72
    65
 73
     0
 40
0.0
  0
LTYPE
  2
CENTER
 70
     0
  3
____ _ ____ _ ____ _ ____ _ ____ _ ____ _ ____ 
 72
    65
 73
     4
 40
2.0
 49
1.25
 49
-0.25
 49
0.25
 49
-0.25
  0
LTYPE
  2
PHANTOM2
 70
     0
  3
___ _ _ ___ _ _ ___ _ _ ___ _ _
 72
    65
 73
     6
 40
1.25
 49
0.625
 49
-0.125
 49
0.125
 49
-0.125
 49
0.125
 49
-0.125
  0
LTYPE
  2
HIDDEN
 70
     0
  3
Hidden __ __ __ __ __ __ __ __ __ __ __ __ __ __
 72
    65
 73
     2
 40
1.905
 49
1.27
 49
-0.635
  0
ENDTAB
  0
TABLE
  2
LAYER
 70
     6
  0
LAYER
  2
0
 70
     0
 62
     7
  6
CONTINUOUS
  0
LAYER
  2
WAKU
 70
     0
 62
     5
  6
CONTINUOUS
  0
LAYER
  2
1
 70
     0
 62
     1
  6
CENTER
  0
LAYER
  2
3
 70
     0
 62
     3
  6
CONTINUOUS
  0
LAYER
  2
DEFPOINTS
 70
     0
 62
     7
  6
CONTINUOUS
  0
LAYER
  2
2
 70
     0
 62
     2
  6
HIDDEN
  0
ENDTAB
  0
TABLE
  2
STYLE
 70
     3
  0
STYLE
  2
STANDARD
 70
     0
 40
0.0
 41
1.0
 50
0.0
 71
     0
 42
2.5
  3
ROMANS
  4
EXTFONT
  0
STYLE
  2
K
 70
     0
 40
0.0
 41
1.0
 50
0.0
 71
     0
 42
3.0
  3
ROMANS
  4
bigfont
  0
STYLE
  2
STANDARD1
 70
     0
 40
0.0
 41
1.0
 50
0.0
 71
     0
 42
3.0
  3
txt
  4

  0
ENDTAB
  0
TABLE
  2
VIEW
 70
     0
  0
ENDTAB
  0
TABLE
  2
UCS
 70
     0
  0
ENDTAB
  0
TABLE
  2
APPID
 70
    43
  0
APPID
  2
ACAD
 70
     0
  0
APPID
  2
ACAD_NAV_VCDISPLAY
 70
     0
  0
APPID
  2
DCO15
 70
     0
  0
APPID
  2
GENIUS_GENOREF_13
 70
     0
  0
APPID
  2
GENIUS_GENOENT_13
 70
     0
  0
APPID
  2
GENIUS_GENBH_13
 70
     0
  0
APPID
  2
GENIUS_GENOBJ_13
 70
     0
  0
APPID
  2
GENIUS_GENODEF_13
 70
     0
  0
APPID
  2
GENIUS_GENOLIS_13
 70
     0
  0
APPID
  2
GENIUS_GENOBJ-NBEHI-BHF_13
 70
     0
  0
APPID
  2
GENIUS_GENOBJ-NBEHI-BHB_13
 70
     0
  0
APPID
  2
GENIUS_GENOBJ-F-PART_13
 70
     0
  0
APPID
  2
GENIUS_GEFSTDP_13
 70
     0
  0
APPID
  2
GENIUS_GENOBJ-N-RSSYM_13
 70
     0
  0
APPID
  2
GENIUS_GENSYMENT_13
 70
     0
  0
APPID
  2
GENIUS_GENOBJ-N-TIT_13
 70
     0
  0
APPID
  2
GENIUS_GENTITLE_13
 70
     0
  0
APPID
  2
GENIUS_GENZVEED_13
 70
     0
  0
APPID
  2
GENIUS_GENOBJ-N-LEADER_13
 70
     0
  0
APPID
  2
GENIUS_GENOBJ-N-FIL_13
 70
     0
  0
APPID
  2
GENIUS_GENOBJ-N-SEC_13
 70
     0
  0
APPID
  2
GENIUS_GENOBJ-N-CRS_13
 70
     0
  0
APPID
  2
GENIUS_GENOBJ-N-ZOO_13
 70
     0
  0
APPID
  2
GENIUS_GENZOO_13
 70
     0
  0
APPID
  2
GENIUS_GENOBJ-F-TOL_13
 70
     0
  0
APPID
  2
GENIUS_GENFIL_13
 70
     0
  0
APPID
  2
GENIUS_GENOBJ-N-CHA_13
 70
     0
  0
APPID
  2
_CALL_MAC$
 70
     0
  0
APPID
  2
ASM_BASE
 70
     0
  0
APPID
  2
ASM_EXPLO_VER_2_00
 70
     0
  0
APPID
  2
ASM_CADM_VER_12_00
 70
     0
  0
APPID
  2
ASM_BASEFORO
 70
     0
  0
APPID
  2
ASM_BASETRAVI
 70
     0
  0
APPID
  2
ASM_BASETRAVI1
 70
     0
  0
APPID
  2
ASM_GRUPPI
 70
     0
  0
APPID
  2
ASM_CADM_ALBERO
 70
     0
  0
APPID
  2
ASM_GOLE
 70
     0
  0
APPID
  2
ACAD_EXEMPT_FROM_CAD_STANDARDS
 70
     0
  0
APPID
  2
ACAD_DSTYLE_DIMJAG
 70
     0
  0
APPID
  2
ACAD_DSTYLE_DIMTALN
 70
     0
  0
APPID
  2
GRADIENTCOLOR1ACI
 70
     0
  0
APPID
  2
GRADIENTCOLOR2ACI
 70
     0
  0
APPID
  2
ACAD_MLEADERVER
 70
     0
  0
ENDTAB
  0
TABLE
  2
DIMSTYLE
 70
     2
  0
DIMSTYLE
  2
STANDARD
 70
     0
  3

  4

  5

  6

  7

 40
1.0
 41
0.18
 42
0.0625
 43
0.38
 44
0.18
 45
0.0
 46
0.0
 47
0.0
 48
0.0
140
0.18
141
0.09
142
0.0
143
25.3999999999999986
144
1.0
145
0.0
146
1.0
147
0.09
 71
     0
 72
     0
 73
     1
 74
     1
 75
     0
 76
     0
 77
     0
 78
     0
170
     0
171
     2
172
     0
173
     0
174
     0
175
     0
176
     0
177
     0
178
     0
  0
DIMSTYLE
  2
ITM
 70
     0
  3

  4

  5
ARROWANG
  6
ARROWANG
  7
ARROWANG
 40
1.0
 41
1.5
 42
1.0
 43
6.0
 44
1.0
 45
0.0
 46
0.0
 47
495.0
 48
0.0
140
3.0
141
0.0
142
0.0
143
25.3999999999999986
144
1.0
145
0.0
146
1.0
147
0.5
 71
     0
 72
     0
 73
     0
 74
     0
 75
     0
 76
     0
 77
     3
 78
     8
170
     0
171
     2
172
     1
173
     1
174
     1
175
     0
176
     0
177
     0
178
     0
  0
ENDTAB
  0
ENDSEC
  0
SECTION
  2
BLOCKS
  0
BLOCK
  8
0
  2
$MODEL_SPACE
 70
     0
 10
0.0
 20
0.0
 30
0.0
  3
$MODEL_SPACE
  1

  0
ENDBLK
  5
1C
  8
0
  0
BLOCK
 67
     1
  8
0
  2
$PAPER_SPACE
 70
     0
 10
0.0
 20
0.0
 30
0.0
  3
$PAPER_SPACE
  1

  0
ENDBLK
  5
19
 67
     1
  8
0
  0
BLOCK
  8
0
  2
ARROWANG
 70
     0
 10
0.0
 20
0.0
 30
0.0
  3
ARROWANG
  1

  0
LINE
  5
C9
  8
0
 10
0.0
 20
0.0
 30
0.0
 11
-1.4999999999999429
 21
0.4019237886467409
 31
0.0
  0
LINE
  5
CA
  8
0
 10
0.0
 20
0.0
 30
0.0
 11
-1.5
 21
-0.4019237886467124
 31
0.0
  0
ENDBLK
  5
CB
  8
0
  0
BLOCK
  8
0
  2
ARROW1
 70
     0
 10
0.0
 20
0.0
 30
0.0
  3
ARROW1
  1

  0
SOLID
  5
EE
  8
WAKU
  6
CONTINUOUS
 62
     4
 10
-1.0
 20
0.1666666666666714
 30
0.0
 11
-1.0
 21
-0.1666666666666714
 31
0.0
 12
0.0
 22
0.0
 32
0.0
 13
0.0
 23
0.0
 33
0.0
  0
ENDBLK
  5
F0
  8
0
  0
BLOCK
  8
0
  2
*U2
 70
     1
 10
0.0
 20
0.0
 30
0.0
  3
*U2
  1

  0
LINE
  5
29EF
  8
1
 10
7.1771338290434414
 20
7.1771338290434414
 30
0.0
 11
-7.1771338290434414
 21
-7.1771338290433837
 31
0.0
  0
ENDBLK
  5
29F0
  8
0
  0
BLOCK
  8
0
  2
*U3
 70
     1
 10
0.0
 20
0.0
 30
0.0
  3
*U3
  1

  0
INSERT
  5
29F5
  8
1
  6
BYBLOCK
 62
     0
  2
*U2
 10
970.6098438808138553
 20
264.8802351325709878
 30
0.0
  0
INSERT
  5
29F6
  8
1
  6
BYBLOCK
 62
     0
  2
*U2
 10
923.9407963225016829
 20
264.8802351325708742
 30
0.0
 50
90.0
  0
INSERT
  5
29F7
  8
1
  6
BYBLOCK
 62
     0
  2
*U2
 10
923.9407963225016829
 20
218.2111875742587017
 30
0.0
 50
180.0
  0
INSERT
  5
29F8
  8
1
  6
BYBLOCK
 62
     0
  2
*U2
 10
970.6098438808138553
 20
218.211187574258787
 30
0.0
 41
0.9999999999999998
 42
0.9999999999999998
 43
0.9999999999999998
 50
270.0
  0
ENDBLK
  5
29F9
  8
0
  0
ENDSEC
  0
SECTION
  2
ENTITIES
  0
TEXT
  5
1EED
  8
0
 62
     3
 10
0.0
 20
0.0
 30
0.0
 40
10.0
  1
CP780-50085L
  7
STANDARD1
  0
LINE
  5
297D
  8
0
 10
57.4999999999997797
 20
167.5
 30
0.0
 11
57.9999999999997868
 21
167.0
 31
0.0
  0
LINE
  5
297E
  8
0
 10
142.0
 20
167.0
 30
0.0
 11
142.499999999999801
 21
167.5
 31
0.0
  0
LINE
  5
297F
  8
0
 10
57.4999999999997797
 20
174.5
 30
0.0
 11
57.4999999999997797
 21
167.5
 31
0.0
  0
LINE
  5
2980
  8
0
 10
142.499999999999801
 20
167.5
 30
0.0
 11
142.499999999999801
 21
174.5
 31
0.0
  0
LINE
  5
2981
  8
0
 10
142.499999999999801
 20
174.5
 30
0.0
 11
142.0
 21
175.0
 31
0.0
  0
LINE
  5
2982
  8
0
 10
57.9999999999997868
 20
175.0
 30
0.0
 11
57.4999999999997797
 21
174.5
 31
0.0
  0
LINE
  5
2983
  8
0
 10
75.0000000000000142
 20
165.0
 30
0.0
 11
75.0000000000000142
 21
159.0999999999999943
 31
0.0
  0
LINE
  5
2984
  8
0
 10
124.999999999999801
 20
159.0999999999999943
 30
0.0
 11
124.999999999999801
 21
165.0
 31
0.0
  0
LINE
  5
2985
  8
0
 10
75.0000000000000142
 20
159.0999999999999943
 30
0.0
 11
75.0999999999999233
 21
159.0
 31
0.0
  0
LINE
  5
2986
  8
0
 10
124.8999999999998067
 20
159.0
 30
0.0
 11
124.999999999999801
 21
159.0999999999999943
 31
0.0
  0
LINE
  5
2987
  8
0
 10
124.999999999999801
 20
165.0
 30
0.0
 11
124.499999999999801
 21
165.5
 31
0.0
  0
LINE
  5
2988
  8
0
 10
75.5000000000000142
 20
165.5
 30
0.0
 11
75.0000000000000142
 21
165.0
 31
0.0
  0
LINE
  5
2989
  8
0
 10
75.0999999999999233
 20
159.0
 30
0.0
 11
75.0999999999999233
 21
155.5
 31
0.0
  0
LINE
  5
298A
  8
0
 10
124.8999999999998067
 20
155.5
 30
0.0
 11
124.8999999999998067
 21
159.0
 31
0.0
  0
LINE
  5
298B
  8
0
 10
75.0999999999999233
 20
155.5
 30
0.0
 11
75.5999999999999233
 21
155.0
 31
0.0
  0
LINE
  5
298C
  8
0
 10
124.3999999999999062
 20
155.0
 30
0.0
 11
124.8999999999998067
 21
155.5
 31
0.0
  0
LINE
  5
298D
  8
0
 10
75.5000000000000142
 20
167.0000000000001137
 30
0.0
 11
75.5000000000000142
 21
165.5
 31
0.0
  0
LINE
  5
298E
  8
0
 10
124.499999999999801
 20
165.5
 30
0.0
 11
124.499999999999801
 21
167.0000000000001137
 31
0.0
  0
LINE
  5
298F
  8
0
 10
57.4999999999997797
 20
167.5
 30
0.0
 11
142.499999999999801
 21
167.5
 31
0.0
  0
LINE
  5
2990
  8
0
 10
142.0
 20
167.0
 30
0.0
 11
58.0000000000000071
 21
167.0
 31
0.0
  0
LINE
  5
2991
  8
0
 10
142.499999999999801
 20
174.5
 30
0.0
 11
57.5000000000000071
 21
174.500000000000199
 31
0.0
  0
LINE
  5
2992
  8
0
 10
58.0000000000000071
 20
175.0000000000003126
 30
0.0
 11
142.0
 21
175.0
 31
0.0
  0
LINE
  5
2993
  8
0
 10
75.0000000000000142
 20
159.1000000000001933
 30
0.0
 11
124.999999999999801
 21
159.0999999999999943
 31
0.0
  0
LINE
  5
2994
  8
0
 10
75.0000000000000142
 20
165.0000000000001137
 30
0.0
 11
124.999999999999801
 21
165.0
 31
0.0
  0
LINE
  5
2995
  8
0
 10
75.0999999999996959
 20
159.0000000000001137
 30
0.0
 11
124.8999999999998067
 21
159.0
 31
0.0
  0
LINE
  5
2996
  8
0
 10
75.5000000000000142
 20
165.500000000000199
 30
0.0
 11
124.499999999999801
 21
165.5
 31
0.0
  0
LINE
  5
2997
  8
0
 10
75.0999999999999233
 20
155.5
 30
0.0
 11
124.8999999999998067
 21
155.5
 31
0.0
  0
LINE
  5
2998
  8
0
 10
124.3999999999999062
 20
155.0
 30
0.0
 11
75.5999999999999233
 21
155.0
 31
0.0
  0
LINE
  5
2999
  8
2
 10
73.3654762208436892
 20
171.1500000000000909
 30
0.0
 11
79.965476220844053
 21
171.1500000000000909
 31
0.0
  0
LINE
  5
299A
  8
2
 10
120.0345237791559043
 20
171.1500000000000909
 30
0.0
 11
126.6345237791558986
 21
171.1500000000000909
 31
0.0
  0
LINE
  5
299B
  8
2
 10
121.999999999999801
 20
173.2562927780795121
 30
0.0
 11
77.9999999999997868
 21
173.2562927780795121
 31
0.0
  0
LINE
  5
299D
  8
2
 10
81.9999999999997868
 20
159.306635002716007
 30
0.0
 11
117.999999999999801
 21
159.306635002716007
 31
0.0
  0
LINE
  5
299E
  8
2
 10
69.5154762208437802
 20
175.0000000000001137
 30
0.0
 11
73.3654762208436892
 21
171.1500000000000909
 31
0.0
  0
LINE
  5
299F
  8
2
 10
79.965476220844053
 20
171.1500000000000909
 30
0.0
 11
83.8154762208439479
 21
175.0000000000001137
 31
0.0
  0
LINE
  5
29A0
  8
2
 10
116.1845237791557963
 20
175.0000000000001137
 30
0.0
 11
120.0345237791559043
 21
171.1500000000000909
 31
0.0
  0
LINE
  5
29A1
  8
2
 10
126.6345237791558986
 20
171.1500000000000909
 30
0.0
 11
130.4845237791558077
 21
175.0000000000001137
 31
0.0
  0
LINE
  5
29A2
  8
2
 10
73.3654762208436892
 20
171.1500000000000909
 30
0.0
 11
73.3654762208436892
 21
167.0
 31
0.0
  0
LINE
  5
29A3
  8
2
 10
79.9654762208442804
 20
167.0
 30
0.0
 11
79.965476220844053
 21
171.1500000000000909
 31
0.0
  0
LINE
  5
29A4
  8
2
 10
120.0345237791559043
 20
171.1500000000000909
 30
0.0
 11
120.0345237791559043
 21
167.0
 31
0.0
  0
LINE
  5
29A5
  8
2
 10
126.6345237791560976
 20
167.0
 30
0.0
 11
126.6345237791558986
 21
171.1500000000000909
 31
0.0
  0
LINE
  5
29A6
  8
2
 10
125.999999999999801
 20
167.0
 30
0.0
 11
125.5
 21
167.5
 31
0.0
  0
LINE
  5
29A7
  8
2
 10
74.4999999999997868
 20
167.5
 30
0.0
 11
73.9999999999997868
 21
167.0
 31
0.0
  0
ARC
  5
29A8
  8
2
 10
75.0999999999999233
 20
167.0999999999999943
 30
0.0
 40
0.400000000000091
 50
0.0
 51
90.0
  0
ARC
  5
29A9
  8
2
 10
124.8999999999998067
 20
167.0999999999999943
 30
0.0
 40
0.400000000000091
 50
90.0
 51
180.0
  0
LINE
  5
29AA
  8
2
 10
75.5000000000000142
 20
167.0999999999999943
 30
0.0
 11
75.5000000000000142
 21
167.0000000000001137
 31
0.0
  0
LINE
  5
29AB
  8
2
 10
124.499999999999801
 20
167.0000000000001137
 30
0.0
 11
124.499999999999801
 21
167.0999999999999943
 31
0.0
  0
LINE
  5
29AC
  8
2
 10
76.2562927780793558
 20
175.0
 30
0.0
 11
77.9999999999997868
 21
173.2562927780795121
 31
0.0
  0
LINE
  5
29AD
  8
2
 10
121.999999999999801
 20
173.2562927780795121
 30
0.0
 11
123.7437072219202037
 21
175.0
 31
0.0
  0
LINE
  5
29AE
  8
2
 10
77.9999999999997868
 20
173.2562927780795121
 30
0.0
 11
81.9999999999997868
 21
159.306635002716007
 31
0.0
  0
LINE
  5
29AF
  8
2
 10
117.999999999999801
 20
159.306635002716007
 30
0.0
 11
121.999999999999801
 21
173.2562927780795121
 31
0.0
  0
LINE
  5
29B0
  8
2
 10
118.499999999999801
 20
155.0
 30
0.0
 11
117.999999999999801
 21
155.5
 31
0.0
  0
LINE
  5
29B1
  8
2
 10
81.9999999999997868
 20
155.5
 30
0.0
 11
81.5000000000000142
 21
155.0
 31
0.0
  0
LINE
  5
29B2
  8
2
 10
81.9999999999997868
 20
159.306635002716007
 30
0.0
 11
81.9999999999997868
 21
155.5
 31
0.0
  0
LINE
  5
29B3
  8
2
 10
117.999999999999801
 20
155.5
 30
0.0
 11
117.999999999999801
 21
159.306635002716007
 31
0.0
  0
CIRCLE
  5
29B4
  8
0
 10
100.0
 20
82.5000000000000568
 30
0.0
 40
24.4000000000000092
  0
CIRCLE
  5
29B5
  8
0
 10
100.0
 20
82.5000000000000568
 30
0.0
 40
18.5000000000000107
  0
CIRCLE
  5
29B6
  8
0
 10
100.0
 20
82.5000000000000568
 30
0.0
 40
24.8999999999999986
  0
CIRCLE
  5
29B7
  8
0
 10
100.0
 20
82.5000000000000568
 30
0.0
 40
18.0
  0
CIRCLE
  5
29B8
  8
0
 10
100.0
 20
82.5000000000000284
 30
0.0
 40
25.0
  0
CIRCLE
  5
29B9
  8
0
 10
100.0
 20
82.5
 30
0.0
 40
42.5
  0
CIRCLE
  5
29BB
  8
0
 10
100.0
 20
82.5
 30
0.0
 40
26.0
  0
CIRCLE
  5
29BC
  8
0
 10
123.3345237791561004
 20
59.1654762208438783
 30
0.0
 40
3.3000000000000038
  0
CIRCLE
  5
29BD
  8
0
 10
76.6654762208440843
 20
59.1654762208439706
 30
0.0
 40
3.3000000000000038
  0
CIRCLE
  5
29BE
  8
0
 10
123.3345237791561004
 20
105.834523779156001
 30
0.0
 40
3.2999999999999972
  0
CIRCLE
  5
29BF
  8
0
 10
76.6654762208440843
 20
105.8345237791561004
 30
0.0
 40
3.2999999999999972
  0
CIRCLE
  5
29C1
  8
0
 10
76.6654762208441269
 20
270.8345237791560862
 30
0.0
 40
7.1499999999999773
  0
CIRCLE
  5
29C2
  8
0
 10
76.6654762208441269
 20
224.165476220843999
 30
0.0
 40
7.1500000000000341
  0
CIRCLE
  5
29C3
  8
0
 10
123.3345237791561999
 20
224.1654762208441127
 30
0.0
 40
7.1500000000000048
  0
CIRCLE
  5
29C4
  8
0
 10
123.3345237791561999
 20
270.8345237791561999
 30
0.0
 40
7.1499999999999773
  0
CIRCLE
  5
29C5
  8
0
 10
100.0
 20
247.5000000000001137
 30
0.0
 40
42.4999999999999716
  0
CIRCLE
  5
29C6
  8
0
 10
76.6654762208441269
 20
224.165476220843999
 30
0.0
 40
3.3000000000000389
  0
CIRCLE
  5
29C7
  8
0
 10
123.3345237791561999
 20
224.1654762208441127
 30
0.0
 40
3.3000000000000109
  0
CIRCLE
  5
29C8
  8
0
 10
76.6654762208441269
 20
270.8345237791560862
 30
0.0
 40
3.3000000000000109
  0
CIRCLE
  5
29C9
  8
0
 10
123.3345237791561999
 20
270.8345237791561999
 30
0.0
 40
3.3000000000000109
  0
CIRCLE
  5
29CA
  8
3
 10
67.0000000000000426
 20
247.5
 30
0.0
 40
3.0
  0
CIRCLE
  5
29CB
  8
3
 10
133.0
 20
247.5
 30
0.0
 40
3.0
  0
CIRCLE
  5
29CC
  8
0
 10
133.0
 20
247.5
 30
0.0
 40
2.458499999999999
  0
CIRCLE
  5
29CD
  8
0
 10
67.0000000000000426
 20
247.5
 30
0.0
 40
2.458499999999999
  0
LINE
  5
29CE
  8
1
 10
147.5
 20
247.5
 30
0.0
 11
52.5000000000000426
 21
247.5
 31
0.0
  0
LINE
  5
29CF
  8
1
 10
100.0
 20
200.0
 30
0.0
 11
100.0
 21
294.9999999999998863
 31
0.0
  0
CIRCLE
  5
29D0
  8
1
 10
100.0
 20
247.5
 30
0.0
 40
33.0000000000000284
  0
INSERT
  5
29D1
  8
1
  2
*U3
 10
-847.2753201016578259
 20
5.954288646585197
 30
0.0
  0
LINE
  5
29D2
  8
1
 10
100.0
 20
180.000000000000199
 30
0.0
 11
100.0
 21
150.0
 31
0.0
  0
LINE
  5
29D3
  8
1
 10
67.0000000000000142
 20
164.0
 30
0.0
 11
67.0000000000000142
 21
178.0000000000003126
 31
0.0
  0
LINE
  5
29D4
  8
1
 10
76.6654762208440985
 20
164.0
 30
0.0
 11
76.6654762208438711
 21
178.000000000000199
 31
0.0
  0
LINE
  5
29D5
  8
1
 10
123.3345237791563989
 20
164.0
 30
0.0
 11
123.3345237791561004
 21
178.0
 31
0.0
  0
LINE
  5
29D6
  8
1
 10
133.000000000000199
 20
164.0
 30
0.0
 11
132.999999999999801
 21
178.0
 31
0.0
  0
LINE
  5
29D7
  8
2
 10
136.0000000000001137
 20
175.0
 30
0.0
 11
136.0000000000001137
 21
167.0
 31
0.0
  0
LINE
  5
29D8
  8
2
 10
135.4584999999999866
 20
175.0
 30
0.0
 11
135.4584999999999866
 21
167.0
 31
0.0
  0
LINE
  5
29D9
  8
2
 10
130.0
 20
175.0
 30
0.0
 11
130.0000000000003979
 21
167.0
 31
0.0
  0
LINE
  5
29DA
  8
2
 10
130.5415000000000134
 20
175.0
 30
0.0
 11
130.5415000000002124
 21
167.0
 31
0.0
  0
LINE
  5
29DB
  8
2
 10
64.0
 20
175.000000000000199
 30
0.0
 11
64.0
 21
167.000000000000199
 31
0.0
  0
LINE
  5
29DC
  8
2
 10
64.5415000000000418
 20
175.000000000000199
 30
0.0
 11
64.5415000000000418
 21
167.000000000000199
 31
0.0
  0
LINE
  5
29DD
  8
2
 10
70.0000000000000853
 20
175.0000000000001137
 30
0.0
 11
69.9999999999996305
 21
167.0000000000001137
 31
0.0
  0
LINE
  5
29DE
  8
2
 10
69.4585000000000434
 20
175.000000000000199
 30
0.0
 11
69.4584999999998161
 21
167.0000000000001137
 31
0.0
  0
CIRCLE
  5
29DF
  8
3
 10
67.0
 20
82.4999999999999858
 30
0.0
 40
3.0
  0
CIRCLE
  5
29E0
  8
3
 10
133.0
 20
82.4999999999999858
 30
0.0
 40
3.0
  0
CIRCLE
  5
29E1
  8
0
 10
133.0
 20
82.4999999999999574
 30
0.0
 40
2.458499999999999
  0
CIRCLE
  5
29E2
  8
0
 10
67.0
 20
82.4999999999999858
 30
0.0
 40
2.458499999999999
  0
LINE
  5
29E3
  8
1
 10
147.5
 20
82.4999999999999858
 30
0.0
 11
52.5
 21
82.4999999999999858
 31
0.0
  0
LINE
  5
29E4
  8
1
 10
100.0
 20
35.0000000000000213
 30
0.0
 11
100.0
 21
130.0
 31
0.0
  0
CIRCLE
  5
29E5
  8
1
 10
100.0
 20
82.4999999999999858
 30
0.0
 40
33.0000000000000284
  0
LINE
  5
29E6
  8
1
 10
127.7892965006312949
 20
110.2892965006312949
 30
0.0
 11
118.8797510576804939
 21
101.3797510576808065
 31
0.0
  0
LINE
  5
29E7
  8
1
 10
72.2107034993687193
 20
110.2892965006311954
 30
0.0
 11
81.1202489423189945
 21
101.3797510576805934
 31
0.0
  0
LINE
  5
29E8
  8
1
 10
72.2107034993687193
 20
54.7107034993686128
 30
0.0
 11
81.1202489423194493
 21
63.6202489423191224
 31
0.0
  0
LINE
  5
29E9
  8
1
 10
127.7892965006312949
 20
54.7107034993687265
 30
0.0
 11
118.8797510576810055
 21
63.620248942319293
 31
0.0
  0
CIRCLE
  5
29EA
  8
0
 10
100.0
 20
247.5
 30
0.0
 40
23.743707221920431
  0
CIRCLE
  5
29EB
  8
0
 10
100.0
 20
247.5
 30
0.0
 40
22.0
  0
CIRCLE
  5
29EC
  8
0
 10
100.0
 20
247.4999999999998863
 30
0.0
 40
18.0
  0
VIEWPORT
  5
22
 67
     1
  8
0
 10
261.517699115044195
 20
148.5
 30
0.0
 40
523.0353982300885036
 41
297.0
 68
     1
 69
     1
1001
ACAD
1000
MVIEW
1002
{
1070
    16
1010
0.0
1020
0.0
1030
0.0
1010
0.0
1020
0.0
1030
1.0
1040
0.0
1040
297.0
1040
261.517699115044195
1040
148.5
1040
50.0
1040
0.0
1040
0.0
1070
     0
1070
   100
1070
     1
1070
     1
1070
     0
1070
     0
1070
     0
1070
     0
1040
0.0
1040
0.0
1040
0.0
1040
1.0
1040
1.0
1040
10.0
1040
10.0
1070
     0
1002
{
1002
}
1002
}
  0
ENDSEC
  0
EOF
