  0
SECTION
  2
HEADER
  9
$ACADVER
  1
AC1009
  9
$INSBASE
 10
0.0
 20
0.0
 30
0.0
  9
$EXTMIN
 10
0.0
 20
-2.960436562073669
 30
0.0
  9
$EXTMAX
 10
147.5
 20
294.5000000000001137
 30
0.0
  9
$LIMMIN
 10
0.0
 20
0.0
  9
$LIMMAX
 10
400.0
 20
277.0
  9
$ORTHOMODE
 70
     1
  9
$REGENMODE
 70
     1
  9
$FILLMODE
 70
     1
  9
$QTEXTMODE
 70
     0
  9
$MIRRTEXT
 70
     1
  9
$DRAGMODE
 70
     2
  9
$LTSCALE
 40
5.0
  9
$OSMODE
 70
    37
  9
$ATTMODE
 70
     1
  9
$TEXTSIZE
 40
2.5
  9
$TRACEWID
 40
1.0
  9
$TEXTSTYLE
  7
STANDARD
  9
$CLAYER
  8
0
  9
$CELTYPE
  6
BYLAYER
  9
$CECOLOR
 62
   256
  9
$DIMSCALE
 40
1.0
  9
$DIMASZ
 40
3.0
  9
$DIMEXO
 40
1.0
  9
$DIMDLI
 40
6.0
  9
$DIMRND
 40
0.0
  9
$DIMDLE
 40
0.0
  9
$DIMEXE
 40
1.0
  9
$DIMTP
 40
495.0
  9
$DIMTM
 40
0.0
  9
$DIMTXT
 40
3.0
  9
$DIMCEN
 40
0.0
  9
$DIMTSZ
 40
0.0
  9
$DIMTOL
 70
     0
  9
$DIMLIM
 70
     0
  9
$DIMTIH
 70
     0
  9
$DIMTOH
 70
     0
  9
$DIMSE1
 70
     0
  9
$DIMSE2
 70
     0
  9
$DIMTAD
 70
     3
  9
$DIMZIN
 70
     8
  9
$DIMBLK
  1

  9
$DIMASO
 70
     0
  9
$DIMSHO
 70
     1
  9
$DIMPOST
  1

  9
$DIMAPOST
  1

  9
$DIMALT
 70
     0
  9
$DIMALTD
 70
     2
  9
$DIMALTF
 40
25.3999999999999986
  9
$DIMLFAC
 40
1.0
  9
$DIMTOFL
 70
     1
  9
$DIMTVP
 40
0.0
  9
$DIMTIX
 70
     1
  9
$DIMSOXD
 70
     0
  9
$DIMSAH
 70
     1
  9
$DIMBLK1
  1
ARROW1
  9
$DIMBLK2
  1
ARROW1
  9
$DIMSTYLE
  2
ITM
  9
$DIMCLRD
 70
     4
  9
$DIMCLRE
 70
     4
  9
$DIMCLRT
 70
     4
  9
$DIMTFAC
 40
1.0
  9
$DIMGAP
 40
1.0
  9
$LUNITS
 70
     2
  9
$LUPREC
 70
     1
  9
$SKETCHINC
 40
1.0
  9
$FILLETRAD
 40
0.0
  9
$AUNITS
 70
     0
  9
$AUPREC
 70
     0
  9
$MENU
  1
.
  9
$ELEVATION
 40
0.0
  9
$PELEVATION
 40
0.0
  9
$THICKNESS
 40
0.0
  9
$LIMCHECK
 70
     0
  9
$BLIPMODE
 70
     0
  9
$CHAMFERA
 40
10.0
  9
$CHAMFERB
 40
10.0
  9
$SKPOLY
 70
     0
  9
$TDCREATE
 40
2451415.6127083338797092
  9
$TDUPDATE
 40
2460725.6421180558390915
  9
$TDINDWG
 40
0.352794294
  9
$TDUSRTIMER
 40
0.352794294
  9
$USRTIMER
 70
     1
  9
$ANGBASE
 50
0.0
  9
$ANGDIR
 70
     0
  9
$PDMODE
 70
     0
  9
$PDSIZE
 40
0.0
  9
$PLINEWID
 40
0.0
  9
$COORDS
 70
     1
  9
$SPLFRAME
 70
     0
  9
$SPLINETYPE
 70
     6
  9
$SPLINESEGS
 70
     8
  9
$ATTDIA
 70
     1
  9
$ATTREQ
 70
     1
  9
$HANDLING
 70
     1
  9
$HANDSEED
  5
2B0F
  9
$SURFTAB1
 70
     6
  9
$SURFTAB2
 70
     6
  9
$SURFTYPE
 70
     6
  9
$SURFU
 70
     6
  9
$SURFV
 70
     6
  9
$UCSNAME
  2

  9
$UCSORG
 10
0.0
 20
0.0
 30
0.0
  9
$UCSXDIR
 10
1.0
 20
0.0
 30
0.0
  9
$UCSYDIR
 10
0.0
 20
1.0
 30
0.0
  9
$PUCSNAME
  2

  9
$PUCSORG
 10
0.0
 20
0.0
 30
0.0
  9
$PUCSXDIR
 10
1.0
 20
0.0
 30
0.0
  9
$PUCSYDIR
 10
0.0
 20
1.0
 30
0.0
  9
$USERI1
 70
     3
  9
$USERI2
 70
     1
  9
$USERI3
 70
     1
  9
$USERI4
 70
     0
  9
$USERI5
 70
     0
  9
$USERR1
 40
1.0
  9
$USERR2
 40
3.0
  9
$USERR3
 40
3.0
  9
$USERR4
 40
3.0
  9
$USERR5
 40
10.0
  9
$WORLDVIEW
 70
     1
  9
$SHADEDGE
 70
     3
  9
$SHADEDIF
 70
    70
  9
$TILEMODE
 70
     1
  9
$MAXACTVP
 70
    16
  9
$PLIMCHECK
 70
     0
  9
$PEXTMIN
 10
1.0000000000000000E+20
 20
1.0000000000000000E+20
 30
1.0000000000000000E+20
  9
$PEXTMAX
 10
-1.0000000000000000E+20
 20
-1.0000000000000000E+20
 30
-1.0000000000000000E+20
  9
$PLIMMIN
 10
0.0
 20
0.0
  9
$PLIMMAX
 10
420.0
 20
297.0
  9
$UNITMODE
 70
     0
  9
$VISRETAIN
 70
     0
  9
$PLINEGEN
 70
     0
  9
$PSLTSCALE
 70
     1
  0
ENDSEC
  0
SECTION
  2
TABLES
  0
TABLE
  2
VPORT
 70
     1
  0
VPORT
  2
*ACTIVE
 70
     0
 10
0.0
 20
0.0
 11
1.0
 21
1.0
 12
589.7577092511013461
 22
251.1186470434683997
 13
0.0
 23
0.0
 14
10.0
 24
10.0
 15
10.0
 25
10.0
 16
0.0
 26
0.0
 36
1.0
 17
0.0
 27
0.0
 37
0.0
 40
502.2372940869367994
 41
2.3485221674876842
 42
50.0
 43
0.0
 44
0.0
 50
0.0
 51
0.0
 71
     0
 72
   100
 73
     1
 74
     1
 75
     0
 76
     0
 77
     0
 78
     0
  0
ENDTAB
  0
TABLE
  2
LTYPE
 70
     4
  0
LTYPE
  2
CONTINUOUS
 70
     0
  3
Solid line
 72
    65
 73
     0
 40
0.0
  0
LTYPE
  2
CENTER
 70
     0
  3
____ _ ____ _ ____ _ ____ _ ____ _ ____ _ ____ 
 72
    65
 73
     4
 40
2.0
 49
1.25
 49
-0.25
 49
0.25
 49
-0.25
  0
LTYPE
  2
PHANTOM2
 70
     0
  3
___ _ _ ___ _ _ ___ _ _ ___ _ _
 72
    65
 73
     6
 40
1.25
 49
0.625
 49
-0.125
 49
0.125
 49
-0.125
 49
0.125
 49
-0.125
  0
LTYPE
  2
HIDDEN
 70
     0
  3
Hidden __ __ __ __ __ __ __ __ __ __ __ __ __ __
 72
    65
 73
     2
 40
1.905
 49
1.27
 49
-0.635
  0
ENDTAB
  0
TABLE
  2
LAYER
 70
     6
  0
LAYER
  2
0
 70
     0
 62
     7
  6
CONTINUOUS
  0
LAYER
  2
WAKU
 70
     0
 62
     5
  6
CONTINUOUS
  0
LAYER
  2
1
 70
     0
 62
     1
  6
CENTER
  0
LAYER
  2
3
 70
     0
 62
     3
  6
CONTINUOUS
  0
LAYER
  2
DEFPOINTS
 70
     0
 62
     7
  6
CONTINUOUS
  0
LAYER
  2
2
 70
     0
 62
     2
  6
HIDDEN
  0
ENDTAB
  0
TABLE
  2
STYLE
 70
     3
  0
STYLE
  2
STANDARD
 70
     0
 40
0.0
 41
1.0
 50
0.0
 71
     0
 42
2.5
  3
ROMANS
  4
EXTFONT
  0
STYLE
  2
K
 70
     0
 40
0.0
 41
1.0
 50
0.0
 71
     0
 42
3.0
  3
ROMANS
  4
bigfont
  0
STYLE
  2
STANDARD1
 70
     0
 40
0.0
 41
1.0
 50
0.0
 71
     0
 42
3.0
  3
txt
  4

  0
ENDTAB
  0
TABLE
  2
VIEW
 70
     0
  0
ENDTAB
  0
TABLE
  2
UCS
 70
     0
  0
ENDTAB
  0
TABLE
  2
APPID
 70
    43
  0
APPID
  2
ACAD
 70
     0
  0
APPID
  2
ACAD_NAV_VCDISPLAY
 70
     0
  0
APPID
  2
DCO15
 70
     0
  0
APPID
  2
GENIUS_GENOREF_13
 70
     0
  0
APPID
  2
GENIUS_GENOENT_13
 70
     0
  0
APPID
  2
GENIUS_GENBH_13
 70
     0
  0
APPID
  2
GENIUS_GENOBJ_13
 70
     0
  0
APPID
  2
GENIUS_GENODEF_13
 70
     0
  0
APPID
  2
GENIUS_GENOLIS_13
 70
     0
  0
APPID
  2
GENIUS_GENOBJ-NBEHI-BHF_13
 70
     0
  0
APPID
  2
GENIUS_GENOBJ-NBEHI-BHB_13
 70
     0
  0
APPID
  2
GENIUS_GENOBJ-F-PART_13
 70
     0
  0
APPID
  2
GENIUS_GEFSTDP_13
 70
     0
  0
APPID
  2
GENIUS_GENOBJ-N-RSSYM_13
 70
     0
  0
APPID
  2
GENIUS_GENSYMENT_13
 70
     0
  0
APPID
  2
GENIUS_GENOBJ-N-TIT_13
 70
     0
  0
APPID
  2
GENIUS_GENTITLE_13
 70
     0
  0
APPID
  2
GENIUS_GENZVEED_13
 70
     0
  0
APPID
  2
GENIUS_GENOBJ-N-LEADER_13
 70
     0
  0
APPID
  2
GENIUS_GENOBJ-N-FIL_13
 70
     0
  0
APPID
  2
GENIUS_GENOBJ-N-SEC_13
 70
     0
  0
APPID
  2
GENIUS_GENOBJ-N-CRS_13
 70
     0
  0
APPID
  2
GENIUS_GENOBJ-N-ZOO_13
 70
     0
  0
APPID
  2
GENIUS_GENZOO_13
 70
     0
  0
APPID
  2
GENIUS_GENOBJ-F-TOL_13
 70
     0
  0
APPID
  2
GENIUS_GENFIL_13
 70
     0
  0
APPID
  2
GENIUS_GENOBJ-N-CHA_13
 70
     0
  0
APPID
  2
_CALL_MAC$
 70
     0
  0
APPID
  2
ASM_BASE
 70
     0
  0
APPID
  2
ASM_EXPLO_VER_2_00
 70
     0
  0
APPID
  2
ASM_CADM_VER_12_00
 70
     0
  0
APPID
  2
ASM_BASEFORO
 70
     0
  0
APPID
  2
ASM_BASETRAVI
 70
     0
  0
APPID
  2
ASM_BASETRAVI1
 70
     0
  0
APPID
  2
ASM_GRUPPI
 70
     0
  0
APPID
  2
ASM_CADM_ALBERO
 70
     0
  0
APPID
  2
ASM_GOLE
 70
     0
  0
APPID
  2
ACAD_EXEMPT_FROM_CAD_STANDARDS
 70
     0
  0
APPID
  2
ACAD_DSTYLE_DIMJAG
 70
     0
  0
APPID
  2
ACAD_DSTYLE_DIMTALN
 70
     0
  0
APPID
  2
GRADIENTCOLOR1ACI
 70
     0
  0
APPID
  2
GRADIENTCOLOR2ACI
 70
     0
  0
APPID
  2
ACAD_MLEADERVER
 70
     0
  0
ENDTAB
  0
TABLE
  2
DIMSTYLE
 70
     2
  0
DIMSTYLE
  2
STANDARD
 70
     0
  3

  4

  5

  6

  7

 40
1.0
 41
0.18
 42
0.0625
 43
0.38
 44
0.18
 45
0.0
 46
0.0
 47
0.0
 48
0.0
140
0.18
141
0.09
142
0.0
143
25.3999999999999986
144
1.0
145
0.0
146
1.0
147
0.09
 71
     0
 72
     0
 73
     1
 74
     1
 75
     0
 76
     0
 77
     0
 78
     0
170
     0
171
     2
172
     0
173
     0
174
     0
175
     0
176
     0
177
     0
178
     0
  0
DIMSTYLE
  2
ITM
 70
     0
  3

  4

  5
ARROWANG
  6
ARROWANG
  7
ARROWANG
 40
1.0
 41
1.5
 42
1.0
 43
6.0
 44
1.0
 45
0.0
 46
0.0
 47
495.0
 48
0.0
140
3.0
141
0.0
142
0.0
143
25.3999999999999986
144
1.0
145
0.0
146
1.0
147
0.5
 71
     0
 72
     0
 73
     0
 74
     0
 75
     0
 76
     0
 77
     3
 78
     8
170
     0
171
     2
172
     1
173
     1
174
     1
175
     0
176
     0
177
     0
178
     0
  0
ENDTAB
  0
ENDSEC
  0
SECTION
  2
BLOCKS
  0
BLOCK
  8
0
  2
$MODEL_SPACE
 70
     0
 10
0.0
 20
0.0
 30
0.0
  3
$MODEL_SPACE
  1

  0
ENDBLK
  5
1C
  8
0
  0
BLOCK
 67
     1
  8
0
  2
$PAPER_SPACE
 70
     0
 10
0.0
 20
0.0
 30
0.0
  3
$PAPER_SPACE
  1

  0
ENDBLK
  5
19
 67
     1
  8
0
  0
BLOCK
  8
0
  2
ARROWANG
 70
     0
 10
0.0
 20
0.0
 30
0.0
  3
ARROWANG
  1

  0
LINE
  5
C9
  8
0
 10
0.0
 20
0.0
 30
0.0
 11
-1.4999999999999429
 21
0.4019237886467409
 31
0.0
  0
LINE
  5
CA
  8
0
 10
0.0
 20
0.0
 30
0.0
 11
-1.5
 21
-0.4019237886467124
 31
0.0
  0
ENDBLK
  5
CB
  8
0
  0
BLOCK
  8
0
  2
ARROW1
 70
     0
 10
0.0
 20
0.0
 30
0.0
  3
ARROW1
  1

  0
SOLID
  5
EE
  8
WAKU
  6
CONTINUOUS
 62
     4
 10
-1.0
 20
0.1666666666666714
 30
0.0
 11
-1.0
 21
-0.1666666666666714
 31
0.0
 12
0.0
 22
0.0
 32
0.0
 13
0.0
 23
0.0
 33
0.0
  0
ENDBLK
  5
F0
  8
0
  0
ENDSEC
  0
SECTION
  2
ENTITIES
  0
TEXT
  5
1EED
  8
0
 62
     3
 10
0.0
 20
0.0
 30
0.0
 40
10.0
  1
CP780-50085D
  7
STANDARD1
  0
LINE
  5
2844
  8
0
 10
57.5000000000000071
 20
174.5
 30
0.0
 11
57.5000000000000071
 21
167.5
 31
0.0
  0
LINE
  5
2845
  8
0
 10
142.5
 20
167.5
 30
0.0
 11
142.5
 21
174.5
 31
0.0
  0
LINE
  5
2846
  8
0
 10
57.5000000000000071
 20
167.5
 30
0.0
 11
58.0000000000000071
 21
167.0
 31
0.0
  0
LINE
  5
2847
  8
0
 10
142.0
 20
167.0
 30
0.0
 11
142.5
 21
167.5
 31
0.0
  0
LINE
  5
2848
  8
0
 10
142.5
 20
174.5
 30
0.0
 11
142.0
 21
175.0
 31
0.0
  0
LINE
  5
2849
  8
0
 10
58.0000000000000071
 20
175.0
 30
0.0
 11
57.5000000000000071
 21
174.5
 31
0.0
  0
LINE
  5
284A
  8
0
 10
75.0000000000000142
 20
165.0
 30
0.0
 11
75.0000000000000142
 21
159.0999999999999943
 31
0.0
  0
LINE
  5
284B
  8
0
 10
125.0
 20
159.0999999999999943
 30
0.0
 11
125.0
 21
165.0
 31
0.0
  0
LINE
  5
284C
  8
0
 10
75.0000000000000142
 20
159.0999999999999943
 30
0.0
 11
75.0999999999999233
 21
159.0
 31
0.0
  0
LINE
  5
284D
  8
0
 10
124.9000000000000057
 20
159.0
 30
0.0
 11
125.0
 21
159.0999999999999943
 31
0.0
  0
LINE
  5
284E
  8
0
 10
125.0
 20
165.0
 30
0.0
 11
124.5
 21
165.5
 31
0.0
  0
LINE
  5
284F
  8
0
 10
75.5000000000000142
 20
165.5
 30
0.0
 11
75.0000000000000142
 21
165.0
 31
0.0
  0
LINE
  5
2850
  8
0
 10
75.0999999999999233
 20
159.0
 30
0.0
 11
75.0999999999999233
 21
155.5
 31
0.0
  0
LINE
  5
2851
  8
0
 10
124.9000000000000057
 20
155.5
 30
0.0
 11
124.9000000000000057
 21
159.0
 31
0.0
  0
LINE
  5
2852
  8
0
 10
75.0999999999999233
 20
155.5
 30
0.0
 11
75.6000000000000369
 21
155.0
 31
0.0
  0
LINE
  5
2853
  8
0
 10
124.4000000000000057
 20
155.0
 30
0.0
 11
124.9000000000000057
 21
155.5
 31
0.0
  0
LINE
  5
2854
  8
0
 10
75.5000000000000142
 20
167.0000000000001137
 30
0.0
 11
75.5000000000000142
 21
165.5
 31
0.0
  0
LINE
  5
2855
  8
0
 10
124.5
 20
165.5
 30
0.0
 11
124.5
 21
167.0000000000001137
 31
0.0
  0
LINE
  5
2856
  8
0
 10
57.5000000000000071
 20
167.5
 30
0.0
 11
142.5
 21
167.5
 31
0.0
  0
LINE
  5
2857
  8
0
 10
142.5
 20
174.5
 30
0.0
 11
57.5000000000000071
 21
174.5
 31
0.0
  0
LINE
  5
2859
  8
0
 10
141.9999999999998863
 20
167.0
 30
0.0
 11
58.0000000000002416
 21
167.0
 31
0.0
  0
LINE
  5
285B
  8
0
 10
58.0000000000002416
 20
175.0
 30
0.0
 11
141.9999999999998863
 21
175.0
 31
0.0
  0
LINE
  5
285D
  8
0
 10
75.0000000000000142
 20
159.0999999999999943
 30
0.0
 11
125.0
 21
159.0999999999999943
 31
0.0
  0
LINE
  5
285F
  8
0
 10
75.0000000000000142
 20
165.0
 30
0.0
 11
125.0
 21
165.0
 31
0.0
  0
LINE
  5
2861
  8
0
 10
75.0999999999999233
 20
159.0
 30
0.0
 11
124.9000000000000057
 21
159.0
 31
0.0
  0
LINE
  5
2863
  8
0
 10
75.5000000000000142
 20
165.5
 30
0.0
 11
124.5
 21
165.5
 31
0.0
  0
LINE
  5
2864
  8
0
 10
75.0999999999999233
 20
155.5
 30
0.0
 11
124.9000000000000057
 21
155.5
 31
0.0
  0
LINE
  5
2865
  8
0
 10
124.4000000000000057
 20
155.0
 30
0.0
 11
75.6000000000000369
 21
155.0
 31
0.0
  0
LINE
  5
2867
  8
2
 10
73.3654762208440303
 20
171.1500000000000909
 30
0.0
 11
79.9654762208439394
 21
171.1500000000000909
 31
0.0
  0
LINE
  5
2869
  8
2
 10
120.0345237791561033
 20
171.1500000000000909
 30
0.0
 11
126.6345237791560976
 21
171.1500000000000909
 31
0.0
  0
LINE
  5
286A
  8
2
 10
88.8541475351030527
 20
173.5479977078736056
 30
0.0
 11
77.7082950702059634
 21
173.5479977078734919
 31
0.0
  0
LINE
  5
286C
  8
2
 10
109.4254549701080066
 20
173.2562927780795974
 30
0.0
 11
90.5745450298920929
 21
173.2562927780795974
 31
0.0
  0
LINE
  5
286E
  8
2
 10
122.291704929793795
 20
173.5479977078734066
 30
0.0
 11
111.1458524648970041
 21
173.5479977078736056
 31
0.0
  0
LINE
  5
2873
  8
2
 10
82.0000000000000142
 20
158.9698762547839976
 30
0.0
 11
91.0000000000000142
 21
158.9698762547839976
 31
0.0
  0
LINE
  5
2874
  8
2
 10
109.0
 20
158.9698762547839976
 30
0.0
 11
118.0
 21
158.9698762547839976
 31
0.0
  0
POLYLINE
  5
2875
  8
2
 10
107.7701318251417746
 20
158.985269541855132
 30
0.0
 66
     1
 70
     8
  0
VERTEX
  8
2
  5
2A0B
 10
107.770
 20
158.985
 30
0.00000
  70
    32
  0
VERTEX
  8
2
  5
2A0C
 10
107.780
 20
158.985
 30
0.00000
  70
    32
  0
VERTEX
  8
2
  5
2A0D
 10
107.790
 20
158.985
 30
0.00000
  70
    32
  0
VERTEX
  8
2
  5
2A0E
 10
107.800
 20
158.985
 30
0.00000
  70
    32
  0
VERTEX
  8
2
  5
2A0F
 10
107.809
 20
158.984
 30
0.00000
  70
    32
  0
VERTEX
  8
2
  5
2A10
 10
107.819
 20
158.984
 30
0.00000
  70
    32
  0
VERTEX
  8
2
  5
2A11
 10
107.829
 20
158.984
 30
0.00000
  70
    32
  0
VERTEX
  8
2
  5
2A12
 10
107.839
 20
158.984
 30
0.00000
  70
    32
  0
VERTEX
  8
2
  5
2A13
 10
107.848
 20
158.983
 30
0.00000
  70
    32
  0
VERTEX
  8
2
  5
2A14
 10
107.858
 20
158.983
 30
0.00000
  70
    32
  0
VERTEX
  8
2
  5
2A15
 10
107.868
 20
158.983
 30
0.00000
  70
    32
  0
VERTEX
  8
2
  5
2A16
 10
107.878
 20
158.983
 30
0.00000
  70
    32
  0
VERTEX
  8
2
  5
2A17
 10
107.888
 20
158.983
 30
0.00000
  70
    32
  0
VERTEX
  8
2
  5
2A18
 10
107.897
 20
158.982
 30
0.00000
  70
    32
  0
VERTEX
  8
2
  5
2A19
 10
107.907
 20
158.982
 30
0.00000
  70
    32
  0
VERTEX
  8
2
  5
2A1A
 10
107.917
 20
158.982
 30
0.00000
  70
    32
  0
VERTEX
  8
2
  5
2A1B
 10
107.927
 20
158.982
 30
0.00000
  70
    32
  0
VERTEX
  8
2
  5
2A1C
 10
107.936
 20
158.981
 30
0.00000
  70
    32
  0
VERTEX
  8
2
  5
2A1D
 10
107.946
 20
158.981
 30
0.00000
  70
    32
  0
VERTEX
  8
2
  5
2A1E
 10
107.956
 20
158.981
 30
0.00000
  70
    32
  0
VERTEX
  8
2
  5
2A1F
 10
107.966
 20
158.981
 30
0.00000
  70
    32
  0
VERTEX
  8
2
  5
2A20
 10
107.975
 20
158.981
 30
0.00000
  70
    32
  0
VERTEX
  8
2
  5
2A21
 10
107.985
 20
158.980
 30
0.00000
  70
    32
  0
VERTEX
  8
2
  5
2A22
 10
107.995
 20
158.980
 30
0.00000
  70
    32
  0
VERTEX
  8
2
  5
2A23
 10
108.004
 20
158.980
 30
0.00000
  70
    32
  0
VERTEX
  8
2
  5
2A24
 10
108.014
 20
158.980
 30
0.00000
  70
    32
  0
VERTEX
  8
2
  5
2A25
 10
108.024
 20
158.980
 30
0.00000
  70
    32
  0
VERTEX
  8
2
  5
2A26
 10
108.034
 20
158.979
 30
0.00000
  70
    32
  0
VERTEX
  8
2
  5
2A27
 10
108.043
 20
158.979
 30
0.00000
  70
    32
  0
VERTEX
  8
2
  5
2A28
 10
108.053
 20
158.979
 30
0.00000
  70
    32
  0
VERTEX
  8
2
  5
2A29
 10
108.063
 20
158.979
 30
0.00000
  70
    32
  0
VERTEX
  8
2
  5
2A2A
 10
108.073
 20
158.979
 30
0.00000
  70
    32
  0
VERTEX
  8
2
  5
2A2B
 10
108.082
 20
158.979
 30
0.00000
  70
    32
  0
VERTEX
  8
2
  5
2A2C
 10
108.092
 20
158.978
 30
0.00000
  70
    32
  0
VERTEX
  8
2
  5
2A2D
 10
108.102
 20
158.978
 30
0.00000
  70
    32
  0
VERTEX
  8
2
  5
2A2E
 10
108.111
 20
158.978
 30
0.00000
  70
    32
  0
VERTEX
  8
2
  5
2A2F
 10
108.121
 20
158.978
 30
0.00000
  70
    32
  0
VERTEX
  8
2
  5
2A30
 10
108.131
 20
158.978
 30
0.00000
  70
    32
  0
VERTEX
  8
2
  5
2A31
 10
108.140
 20
158.977
 30
0.00000
  70
    32
  0
VERTEX
  8
2
  5
2A32
 10
108.150
 20
158.977
 30
0.00000
  70
    32
  0
VERTEX
  8
2
  5
2A33
 10
108.160
 20
158.977
 30
0.00000
  70
    32
  0
VERTEX
  8
2
  5
2A34
 10
108.169
 20
158.977
 30
0.00000
  70
    32
  0
VERTEX
  8
2
  5
2A35
 10
108.179
 20
158.977
 30
0.00000
  70
    32
  0
VERTEX
  8
2
  5
2A36
 10
108.189
 20
158.977
 30
0.00000
  70
    32
  0
VERTEX
  8
2
  5
2A37
 10
108.199
 20
158.977
 30
0.00000
  70
    32
  0
VERTEX
  8
2
  5
2A38
 10
108.208
 20
158.976
 30
0.00000
  70
    32
  0
VERTEX
  8
2
  5
2A39
 10
108.218
 20
158.976
 30
0.00000
  70
    32
  0
VERTEX
  8
2
  5
2A3A
 10
108.228
 20
158.976
 30
0.00000
  70
    32
  0
VERTEX
  8
2
  5
2A3B
 10
108.237
 20
158.976
 30
0.00000
  70
    32
  0
VERTEX
  8
2
  5
2A3C
 10
108.247
 20
158.976
 30
0.00000
  70
    32
  0
VERTEX
  8
2
  5
2A3D
 10
108.256
 20
158.976
 30
0.00000
  70
    32
  0
VERTEX
  8
2
  5
2A3E
 10
108.266
 20
158.975
 30
0.00000
  70
    32
  0
VERTEX
  8
2
  5
2A3F
 10
108.276
 20
158.975
 30
0.00000
  70
    32
  0
VERTEX
  8
2
  5
2A40
 10
108.285
 20
158.975
 30
0.00000
  70
    32
  0
VERTEX
  8
2
  5
2A41
 10
108.295
 20
158.975
 30
0.00000
  70
    32
  0
VERTEX
  8
2
  5
2A42
 10
108.305
 20
158.975
 30
0.00000
  70
    32
  0
VERTEX
  8
2
  5
2A43
 10
108.314
 20
158.975
 30
0.00000
  70
    32
  0
VERTEX
  8
2
  5
2A44
 10
108.324
 20
158.975
 30
0.00000
  70
    32
  0
VERTEX
  8
2
  5
2A45
 10
108.334
 20
158.974
 30
0.00000
  70
    32
  0
VERTEX
  8
2
  5
2A46
 10
108.343
 20
158.974
 30
0.00000
  70
    32
  0
VERTEX
  8
2
  5
2A47
 10
108.353
 20
158.974
 30
0.00000
  70
    32
  0
VERTEX
  8
2
  5
2A48
 10
108.362
 20
158.974
 30
0.00000
  70
    32
  0
VERTEX
  8
2
  5
2A49
 10
108.372
 20
158.974
 30
0.00000
  70
    32
  0
VERTEX
  8
2
  5
2A4A
 10
108.382
 20
158.974
 30
0.00000
  70
    32
  0
VERTEX
  8
2
  5
2A4B
 10
108.391
 20
158.974
 30
0.00000
  70
    32
  0
VERTEX
  8
2
  5
2A4C
 10
108.401
 20
158.974
 30
0.00000
  70
    32
  0
VERTEX
  8
2
  5
2A4D
 10
108.411
 20
158.973
 30
0.00000
  70
    32
  0
VERTEX
  8
2
  5
2A4E
 10
108.420
 20
158.973
 30
0.00000
  70
    32
  0
VERTEX
  8
2
  5
2A4F
 10
108.430
 20
158.973
 30
0.00000
  70
    32
  0
VERTEX
  8
2
  5
2A50
 10
108.439
 20
158.973
 30
0.00000
  70
    32
  0
VERTEX
  8
2
  5
2A51
 10
108.449
 20
158.973
 30
0.00000
  70
    32
  0
VERTEX
  8
2
  5
2A52
 10
108.459
 20
158.973
 30
0.00000
  70
    32
  0
VERTEX
  8
2
  5
2A53
 10
108.468
 20
158.973
 30
0.00000
  70
    32
  0
VERTEX
  8
2
  5
2A54
 10
108.478
 20
158.973
 30
0.00000
  70
    32
  0
VERTEX
  8
2
  5
2A55
 10
108.487
 20
158.973
 30
0.00000
  70
    32
  0
VERTEX
  8
2
  5
2A56
 10
108.497
 20
158.973
 30
0.00000
  70
    32
  0
VERTEX
  8
2
  5
2A57
 10
108.506
 20
158.972
 30
0.00000
  70
    32
  0
VERTEX
  8
2
  5
2A58
 10
108.516
 20
158.972
 30
0.00000
  70
    32
  0
VERTEX
  8
2
  5
2A59
 10
108.526
 20
158.972
 30
0.00000
  70
    32
  0
VERTEX
  8
2
  5
2A5A
 10
108.535
 20
158.972
 30
0.00000
  70
    32
  0
VERTEX
  8
2
  5
2A5B
 10
108.545
 20
158.972
 30
0.00000
  70
    32
  0
VERTEX
  8
2
  5
2A5C
 10
108.554
 20
158.972
 30
0.00000
  70
    32
  0
VERTEX
  8
2
  5
2A5D
 10
108.564
 20
158.972
 30
0.00000
  70
    32
  0
VERTEX
  8
2
  5
2A5E
 10
108.573
 20
158.972
 30
0.00000
  70
    32
  0
VERTEX
  8
2
  5
2A5F
 10
108.583
 20
158.972
 30
0.00000
  70
    32
  0
VERTEX
  8
2
  5
2A60
 10
108.592
 20
158.972
 30
0.00000
  70
    32
  0
VERTEX
  8
2
  5
2A61
 10
108.602
 20
158.972
 30
0.00000
  70
    32
  0
VERTEX
  8
2
  5
2A62
 10
108.612
 20
158.971
 30
0.00000
  70
    32
  0
VERTEX
  8
2
  5
2A63
 10
108.621
 20
158.971
 30
0.00000
  70
    32
  0
VERTEX
  8
2
  5
2A64
 10
108.631
 20
158.971
 30
0.00000
  70
    32
  0
VERTEX
  8
2
  5
2A65
 10
108.640
 20
158.971
 30
0.00000
  70
    32
  0
VERTEX
  8
2
  5
2A66
 10
108.650
 20
158.971
 30
0.00000
  70
    32
  0
VERTEX
  8
2
  5
2A67
 10
108.659
 20
158.971
 30
0.00000
  70
    32
  0
VERTEX
  8
2
  5
2A68
 10
108.669
 20
158.971
 30
0.00000
  70
    32
  0
VERTEX
  8
2
  5
2A69
 10
108.678
 20
158.971
 30
0.00000
  70
    32
  0
VERTEX
  8
2
  5
2A6A
 10
108.688
 20
158.971
 30
0.00000
  70
    32
  0
VERTEX
  8
2
  5
2A6B
 10
108.697
 20
158.971
 30
0.00000
  70
    32
  0
VERTEX
  8
2
  5
2A6C
 10
108.707
 20
158.971
 30
0.00000
  70
    32
  0
VERTEX
  8
2
  5
2A6D
 10
108.716
 20
158.971
 30
0.00000
  70
    32
  0
VERTEX
  8
2
  5
2A6E
 10
108.726
 20
158.971
 30
0.00000
  70
    32
  0
VERTEX
  8
2
  5
2A6F
 10
108.735
 20
158.971
 30
0.00000
  70
    32
  0
VERTEX
  8
2
  5
2A70
 10
108.745
 20
158.971
 30
0.00000
  70
    32
  0
VERTEX
  8
2
  5
2A71
 10
108.754
 20
158.971
 30
0.00000
  70
    32
  0
VERTEX
  8
2
  5
2A72
 10
108.764
 20
158.970
 30
0.00000
  70
    32
  0
VERTEX
  8
2
  5
2A73
 10
108.773
 20
158.970
 30
0.00000
  70
    32
  0
VERTEX
  8
2
  5
2A74
 10
108.783
 20
158.970
 30
0.00000
  70
    32
  0
VERTEX
  8
2
  5
2A75
 10
108.792
 20
158.970
 30
0.00000
  70
    32
  0
VERTEX
  8
2
  5
2A76
 10
108.802
 20
158.970
 30
0.00000
  70
    32
  0
VERTEX
  8
2
  5
2A77
 10
108.811
 20
158.970
 30
0.00000
  70
    32
  0
VERTEX
  8
2
  5
2A78
 10
108.821
 20
158.970
 30
0.00000
  70
    32
  0
VERTEX
  8
2
  5
2A79
 10
108.830
 20
158.970
 30
0.00000
  70
    32
  0
VERTEX
  8
2
  5
2A7A
 10
108.840
 20
158.970
 30
0.00000
  70
    32
  0
VERTEX
  8
2
  5
2A7B
 10
108.849
 20
158.970
 30
0.00000
  70
    32
  0
VERTEX
  8
2
  5
2A7C
 10
108.859
 20
158.970
 30
0.00000
  70
    32
  0
VERTEX
  8
2
  5
2A7D
 10
108.868
 20
158.970
 30
0.00000
  70
    32
  0
VERTEX
  8
2
  5
2A7E
 10
108.877
 20
158.970
 30
0.00000
  70
    32
  0
VERTEX
  8
2
  5
2A7F
 10
108.887
 20
158.970
 30
0.00000
  70
    32
  0
VERTEX
  8
2
  5
2A80
 10
108.896
 20
158.970
 30
0.00000
  70
    32
  0
VERTEX
  8
2
  5
2A81
 10
108.906
 20
158.970
 30
0.00000
  70
    32
  0
VERTEX
  8
2
  5
2A82
 10
108.915
 20
158.970
 30
0.00000
  70
    32
  0
VERTEX
  8
2
  5
2A83
 10
108.925
 20
158.970
 30
0.00000
  70
    32
  0
VERTEX
  8
2
  5
2A84
 10
108.934
 20
158.970
 30
0.00000
  70
    32
  0
VERTEX
  8
2
  5
2A85
 10
108.943
 20
158.970
 30
0.00000
  70
    32
  0
VERTEX
  8
2
  5
2A86
 10
108.953
 20
158.970
 30
0.00000
  70
    32
  0
VERTEX
  8
2
  5
2A87
 10
108.962
 20
158.970
 30
0.00000
  70
    32
  0
VERTEX
  8
2
  5
2A88
 10
108.972
 20
158.970
 30
0.00000
  70
    32
  0
VERTEX
  8
2
  5
2A89
 10
108.981
 20
158.970
 30
0.00000
  70
    32
  0
VERTEX
  8
2
  5
2A8A
 10
108.991
 20
158.970
 30
0.00000
  70
    32
  0
VERTEX
  8
2
  5
2A8B
 10
109.000
 20
158.970
 30
0.00000
  70
    32
  0
SEQEND
  8
2
  5
2A8C
  0
POLYLINE
  5
2876
  8
2
 10
91.0000000000002558
 20
158.9698762547839976
 30
0.0
 66
     1
 70
     8
  0
VERTEX
  8
2
  5
2A8D
 10
91.0000
 20
158.970
 30
0.00000
  70
    32
  0
VERTEX
  8
2
  5
2A8E
 10
91.0094
 20
158.970
 30
0.00000
  70
    32
  0
VERTEX
  8
2
  5
2A8F
 10
91.0188
 20
158.970
 30
0.00000
  70
    32
  0
VERTEX
  8
2
  5
2A90
 10
91.0282
 20
158.970
 30
0.00000
  70
    32
  0
VERTEX
  8
2
  5
2A91
 10
91.0377
 20
158.970
 30
0.00000
  70
    32
  0
VERTEX
  8
2
  5
2A92
 10
91.0471
 20
158.970
 30
0.00000
  70
    32
  0
VERTEX
  8
2
  5
2A93
 10
91.0565
 20
158.970
 30
0.00000
  70
    32
  0
VERTEX
  8
2
  5
2A94
 10
91.0659
 20
158.970
 30
0.00000
  70
    32
  0
VERTEX
  8
2
  5
2A95
 10
91.0754
 20
158.970
 30
0.00000
  70
    32
  0
VERTEX
  8
2
  5
2A96
 10
91.0848
 20
158.970
 30
0.00000
  70
    32
  0
VERTEX
  8
2
  5
2A97
 10
91.0942
 20
158.970
 30
0.00000
  70
    32
  0
VERTEX
  8
2
  5
2A98
 10
91.1037
 20
158.970
 30
0.00000
  70
    32
  0
VERTEX
  8
2
  5
2A99
 10
91.1131
 20
158.970
 30
0.00000
  70
    32
  0
VERTEX
  8
2
  5
2A9A
 10
91.1226
 20
158.970
 30
0.00000
  70
    32
  0
VERTEX
  8
2
  5
2A9B
 10
91.1320
 20
158.970
 30
0.00000
  70
    32
  0
VERTEX
  8
2
  5
2A9C
 10
91.1415
 20
158.970
 30
0.00000
  70
    32
  0
VERTEX
  8
2
  5
2A9D
 10
91.1509
 20
158.970
 30
0.00000
  70
    32
  0
VERTEX
  8
2
  5
2A9E
 10
91.1604
 20
158.970
 30
0.00000
  70
    32
  0
VERTEX
  8
2
  5
2A9F
 10
91.1699
 20
158.970
 30
0.00000
  70
    32
  0
VERTEX
  8
2
  5
2AA0
 10
91.1793
 20
158.970
 30
0.00000
  70
    32
  0
VERTEX
  8
2
  5
2AA1
 10
91.1888
 20
158.970
 30
0.00000
  70
    32
  0
VERTEX
  8
2
  5
2AA2
 10
91.1983
 20
158.970
 30
0.00000
  70
    32
  0
VERTEX
  8
2
  5
2AA3
 10
91.2078
 20
158.970
 30
0.00000
  70
    32
  0
VERTEX
  8
2
  5
2AA4
 10
91.2172
 20
158.970
 30
0.00000
  70
    32
  0
VERTEX
  8
2
  5
2AA5
 10
91.2267
 20
158.970
 30
0.00000
  70
    32
  0
VERTEX
  8
2
  5
2AA6
 10
91.2362
 20
158.970
 30
0.00000
  70
    32
  0
VERTEX
  8
2
  5
2AA7
 10
91.2457
 20
158.971
 30
0.00000
  70
    32
  0
VERTEX
  8
2
  5
2AA8
 10
91.2552
 20
158.971
 30
0.00000
  70
    32
  0
VERTEX
  8
2
  5
2AA9
 10
91.2647
 20
158.971
 30
0.00000
  70
    32
  0
VERTEX
  8
2
  5
2AAA
 10
91.2742
 20
158.971
 30
0.00000
  70
    32
  0
VERTEX
  8
2
  5
2AAB
 10
91.2837
 20
158.971
 30
0.00000
  70
    32
  0
VERTEX
  8
2
  5
2AAC
 10
91.2932
 20
158.971
 30
0.00000
  70
    32
  0
VERTEX
  8
2
  5
2AAD
 10
91.3027
 20
158.971
 30
0.00000
  70
    32
  0
VERTEX
  8
2
  5
2AAE
 10
91.3122
 20
158.971
 30
0.00000
  70
    32
  0
VERTEX
  8
2
  5
2AAF
 10
91.3217
 20
158.971
 30
0.00000
  70
    32
  0
VERTEX
  8
2
  5
2AB0
 10
91.3313
 20
158.971
 30
0.00000
  70
    32
  0
VERTEX
  8
2
  5
2AB1
 10
91.3408
 20
158.971
 30
0.00000
  70
    32
  0
VERTEX
  8
2
  5
2AB2
 10
91.3503
 20
158.971
 30
0.00000
  70
    32
  0
VERTEX
  8
2
  5
2AB3
 10
91.3598
 20
158.971
 30
0.00000
  70
    32
  0
VERTEX
  8
2
  5
2AB4
 10
91.3694
 20
158.971
 30
0.00000
  70
    32
  0
VERTEX
  8
2
  5
2AB5
 10
91.3789
 20
158.971
 30
0.00000
  70
    32
  0
VERTEX
  8
2
  5
2AB6
 10
91.3884
 20
158.971
 30
0.00000
  70
    32
  0
VERTEX
  8
2
  5
2AB7
 10
91.3980
 20
158.972
 30
0.00000
  70
    32
  0
VERTEX
  8
2
  5
2AB8
 10
91.4075
 20
158.972
 30
0.00000
  70
    32
  0
VERTEX
  8
2
  5
2AB9
 10
91.4171
 20
158.972
 30
0.00000
  70
    32
  0
VERTEX
  8
2
  5
2ABA
 10
91.4266
 20
158.972
 30
0.00000
  70
    32
  0
VERTEX
  8
2
  5
2ABB
 10
91.4362
 20
158.972
 30
0.00000
  70
    32
  0
VERTEX
  8
2
  5
2ABC
 10
91.4457
 20
158.972
 30
0.00000
  70
    32
  0
VERTEX
  8
2
  5
2ABD
 10
91.4553
 20
158.972
 30
0.00000
  70
    32
  0
VERTEX
  8
2
  5
2ABE
 10
91.4649
 20
158.972
 30
0.00000
  70
    32
  0
VERTEX
  8
2
  5
2ABF
 10
91.4744
 20
158.972
 30
0.00000
  70
    32
  0
VERTEX
  8
2
  5
2AC0
 10
91.4840
 20
158.972
 30
0.00000
  70
    32
  0
VERTEX
  8
2
  5
2AC1
 10
91.4936
 20
158.972
 30
0.00000
  70
    32
  0
VERTEX
  8
2
  5
2AC2
 10
91.5031
 20
158.973
 30
0.00000
  70
    32
  0
VERTEX
  8
2
  5
2AC3
 10
91.5127
 20
158.973
 30
0.00000
  70
    32
  0
VERTEX
  8
2
  5
2AC4
 10
91.5223
 20
158.973
 30
0.00000
  70
    32
  0
VERTEX
  8
2
  5
2AC5
 10
91.5319
 20
158.973
 30
0.00000
  70
    32
  0
VERTEX
  8
2
  5
2AC6
 10
91.5415
 20
158.973
 30
0.00000
  70
    32
  0
VERTEX
  8
2
  5
2AC7
 10
91.5511
 20
158.973
 30
0.00000
  70
    32
  0
VERTEX
  8
2
  5
2AC8
 10
91.5607
 20
158.973
 30
0.00000
  70
    32
  0
VERTEX
  8
2
  5
2AC9
 10
91.5703
 20
158.973
 30
0.00000
  70
    32
  0
VERTEX
  8
2
  5
2ACA
 10
91.5799
 20
158.973
 30
0.00000
  70
    32
  0
VERTEX
  8
2
  5
2ACB
 10
91.5895
 20
158.973
 30
0.00000
  70
    32
  0
VERTEX
  8
2
  5
2ACC
 10
91.5991
 20
158.974
 30
0.00000
  70
    32
  0
VERTEX
  8
2
  5
2ACD
 10
91.6087
 20
158.974
 30
0.00000
  70
    32
  0
VERTEX
  8
2
  5
2ACE
 10
91.6183
 20
158.974
 30
0.00000
  70
    32
  0
VERTEX
  8
2
  5
2ACF
 10
91.6279
 20
158.974
 30
0.00000
  70
    32
  0
VERTEX
  8
2
  5
2AD0
 10
91.6375
 20
158.974
 30
0.00000
  70
    32
  0
VERTEX
  8
2
  5
2AD1
 10
91.6471
 20
158.974
 30
0.00000
  70
    32
  0
VERTEX
  8
2
  5
2AD2
 10
91.6568
 20
158.974
 30
0.00000
  70
    32
  0
VERTEX
  8
2
  5
2AD3
 10
91.6664
 20
158.974
 30
0.00000
  70
    32
  0
VERTEX
  8
2
  5
2AD4
 10
91.6760
 20
158.975
 30
0.00000
  70
    32
  0
VERTEX
  8
2
  5
2AD5
 10
91.6857
 20
158.975
 30
0.00000
  70
    32
  0
VERTEX
  8
2
  5
2AD6
 10
91.6953
 20
158.975
 30
0.00000
  70
    32
  0
VERTEX
  8
2
  5
2AD7
 10
91.7049
 20
158.975
 30
0.00000
  70
    32
  0
VERTEX
  8
2
  5
2AD8
 10
91.7146
 20
158.975
 30
0.00000
  70
    32
  0
VERTEX
  8
2
  5
2AD9
 10
91.7242
 20
158.975
 30
0.00000
  70
    32
  0
VERTEX
  8
2
  5
2ADA
 10
91.7339
 20
158.975
 30
0.00000
  70
    32
  0
VERTEX
  8
2
  5
2ADB
 10
91.7435
 20
158.976
 30
0.00000
  70
    32
  0
VERTEX
  8
2
  5
2ADC
 10
91.7532
 20
158.976
 30
0.00000
  70
    32
  0
VERTEX
  8
2
  5
2ADD
 10
91.7628
 20
158.976
 30
0.00000
  70
    32
  0
VERTEX
  8
2
  5
2ADE
 10
91.7725
 20
158.976
 30
0.00000
  70
    32
  0
VERTEX
  8
2
  5
2ADF
 10
91.7822
 20
158.976
 30
0.00000
  70
    32
  0
VERTEX
  8
2
  5
2AE0
 10
91.7918
 20
158.976
 30
0.00000
  70
    32
  0
VERTEX
  8
2
  5
2AE1
 10
91.8015
 20
158.977
 30
0.00000
  70
    32
  0
VERTEX
  8
2
  5
2AE2
 10
91.8112
 20
158.977
 30
0.00000
  70
    32
  0
VERTEX
  8
2
  5
2AE3
 10
91.8208
 20
158.977
 30
0.00000
  70
    32
  0
VERTEX
  8
2
  5
2AE4
 10
91.8305
 20
158.977
 30
0.00000
  70
    32
  0
VERTEX
  8
2
  5
2AE5
 10
91.8402
 20
158.977
 30
0.00000
  70
    32
  0
VERTEX
  8
2
  5
2AE6
 10
91.8499
 20
158.977
 30
0.00000
  70
    32
  0
VERTEX
  8
2
  5
2AE7
 10
91.8596
 20
158.977
 30
0.00000
  70
    32
  0
VERTEX
  8
2
  5
2AE8
 10
91.8693
 20
158.978
 30
0.00000
  70
    32
  0
VERTEX
  8
2
  5
2AE9
 10
91.8790
 20
158.978
 30
0.00000
  70
    32
  0
VERTEX
  8
2
  5
2AEA
 10
91.8887
 20
158.978
 30
0.00000
  70
    32
  0
VERTEX
  8
2
  5
2AEB
 10
91.8984
 20
158.978
 30
0.00000
  70
    32
  0
VERTEX
  8
2
  5
2AEC
 10
91.9081
 20
158.978
 30
0.00000
  70
    32
  0
VERTEX
  8
2
  5
2AED
 10
91.9178
 20
158.979
 30
0.00000
  70
    32
  0
VERTEX
  8
2
  5
2AEE
 10
91.9275
 20
158.979
 30
0.00000
  70
    32
  0
VERTEX
  8
2
  5
2AEF
 10
91.9372
 20
158.979
 30
0.00000
  70
    32
  0
VERTEX
  8
2
  5
2AF0
 10
91.9469
 20
158.979
 30
0.00000
  70
    32
  0
VERTEX
  8
2
  5
2AF1
 10
91.9566
 20
158.979
 30
0.00000
  70
    32
  0
VERTEX
  8
2
  5
2AF2
 10
91.9663
 20
158.979
 30
0.00000
  70
    32
  0
VERTEX
  8
2
  5
2AF3
 10
91.9761
 20
158.980
 30
0.00000
  70
    32
  0
VERTEX
  8
2
  5
2AF4
 10
91.9858
 20
158.980
 30
0.00000
  70
    32
  0
VERTEX
  8
2
  5
2AF5
 10
91.9955
 20
158.980
 30
0.00000
  70
    32
  0
VERTEX
  8
2
  5
2AF6
 10
92.0052
 20
158.980
 30
0.00000
  70
    32
  0
VERTEX
  8
2
  5
2AF7
 10
92.0150
 20
158.980
 30
0.00000
  70
    32
  0
VERTEX
  8
2
  5
2AF8
 10
92.0247
 20
158.981
 30
0.00000
  70
    32
  0
VERTEX
  8
2
  5
2AF9
 10
92.0345
 20
158.981
 30
0.00000
  70
    32
  0
VERTEX
  8
2
  5
2AFA
 10
92.0442
 20
158.981
 30
0.00000
  70
    32
  0
VERTEX
  8
2
  5
2AFB
 10
92.0539
 20
158.981
 30
0.00000
  70
    32
  0
VERTEX
  8
2
  5
2AFC
 10
92.0637
 20
158.981
 30
0.00000
  70
    32
  0
VERTEX
  8
2
  5
2AFD
 10
92.0734
 20
158.982
 30
0.00000
  70
    32
  0
VERTEX
  8
2
  5
2AFE
 10
92.0832
 20
158.982
 30
0.00000
  70
    32
  0
VERTEX
  8
2
  5
2AFF
 10
92.0930
 20
158.982
 30
0.00000
  70
    32
  0
VERTEX
  8
2
  5
2B00
 10
92.1027
 20
158.982
 30
0.00000
  70
    32
  0
VERTEX
  8
2
  5
2B01
 10
92.1125
 20
158.983
 30
0.00000
  70
    32
  0
VERTEX
  8
2
  5
2B02
 10
92.1222
 20
158.983
 30
0.00000
  70
    32
  0
VERTEX
  8
2
  5
2B03
 10
92.1320
 20
158.983
 30
0.00000
  70
    32
  0
VERTEX
  8
2
  5
2B04
 10
92.1418
 20
158.983
 30
0.00000
  70
    32
  0
VERTEX
  8
2
  5
2B05
 10
92.1516
 20
158.983
 30
0.00000
  70
    32
  0
VERTEX
  8
2
  5
2B06
 10
92.1613
 20
158.984
 30
0.00000
  70
    32
  0
VERTEX
  8
2
  5
2B07
 10
92.1711
 20
158.984
 30
0.00000
  70
    32
  0
VERTEX
  8
2
  5
2B08
 10
92.1809
 20
158.984
 30
0.00000
  70
    32
  0
VERTEX
  8
2
  5
2B09
 10
92.1907
 20
158.984
 30
0.00000
  70
    32
  0
VERTEX
  8
2
  5
2B0A
 10
92.2005
 20
158.985
 30
0.00000
  70
    32
  0
VERTEX
  8
2
  5
2B0B
 10
92.2103
 20
158.985
 30
0.00000
  70
    32
  0
VERTEX
  8
2
  5
2B0C
 10
92.2201
 20
158.985
 30
0.00000
  70
    32
  0
VERTEX
  8
2
  5
2B0D
 10
92.2299
 20
158.985
 30
0.00000
  70
    32
  0
SEQEND
  8
2
  5
2B0E
  0
LINE
  5
2879
  8
2
 10
92.6469457630691977
 20
159.306635002716007
 30
0.0
 11
107.3530542369307028
 21
159.306635002716007
 31
0.0
  0
LINE
  5
287C
  8
2
 10
69.5154762208440076
 20
175.0000000000001137
 30
0.0
 11
73.3654762208440303
 21
171.1500000000000909
 31
0.0
  0
LINE
  5
287D
  8
2
 10
79.965476220844053
 20
171.1500000000000909
 30
0.0
 11
83.8154762208439479
 21
175.0000000000001137
 31
0.0
  0
LINE
  5
287E
  8
2
 10
116.1845237791561942
 20
175.0000000000001137
 30
0.0
 11
120.0345237791562027
 21
171.1500000000000909
 31
0.0
  0
LINE
  5
287F
  8
2
 10
126.6345237791560976
 20
171.1500000000000909
 30
0.0
 11
130.4845237791560919
 21
175.0000000000001137
 31
0.0
  0
LINE
  5
2880
  8
2
 10
73.3654762208440303
 20
171.1500000000000909
 30
0.0
 11
73.3654762208439166
 21
167.0
 31
0.0
  0
LINE
  5
2881
  8
2
 10
79.9654762208438257
 20
167.0
 30
0.0
 11
79.9654762208439394
 21
171.1500000000000909
 31
0.0
  0
LINE
  5
2882
  8
2
 10
120.0345237791561033
 20
171.1500000000000909
 30
0.0
 11
120.0345237791563022
 21
167.0
 31
0.0
  0
LINE
  5
2883
  8
2
 10
126.6345237791561971
 20
167.0
 30
0.0
 11
126.6345237791560976
 21
171.1500000000000909
 31
0.0
  0
LINE
  5
2884
  8
2
 10
126.0
 20
167.0
 30
0.0
 11
125.5
 21
167.5
 31
0.0
  0
LINE
  5
2885
  8
2
 10
74.5000000000000142
 20
167.5
 30
0.0
 11
74.0000000000000142
 21
167.0
 31
0.0
  0
ARC
  5
2886
  8
2
 10
75.0999999999999233
 20
167.0999999999999943
 30
0.0
 40
0.400000000000091
 50
0.0
 51
90.0
  0
ARC
  5
2887
  8
2
 10
124.9000000000000057
 20
167.0999999999999943
 30
0.0
 40
0.4000000000000057
 50
90.0
 51
180.0
  0
LINE
  5
2888
  8
2
 10
75.5000000000000142
 20
167.0999999999999943
 30
0.0
 11
75.5000000000000142
 21
167.0000000000001137
 31
0.0
  0
LINE
  5
2889
  8
2
 10
124.5
 20
167.0000000000001137
 30
0.0
 11
124.5
 21
167.0999999999999943
 31
0.0
  0
LINE
  5
288A
  8
2
 10
76.2562927780795832
 20
175.0
 30
0.0
 11
77.7082950702059634
 21
173.5479977078736056
 31
0.0
  0
LINE
  5
288B
  8
2
 10
122.291704929793795
 20
173.5479977078734066
 30
0.0
 11
123.7437072219204026
 21
175.0
 31
0.0
  0
LINE
  5
288C
  8
2
 10
118.1030248652236025
 20
158.9403343500626136
 30
0.0
 11
122.291704929793795
 21
173.5479977078734066
 31
0.0
  0
LINE
  5
288D
  8
2
 10
77.708295070206205
 20
173.5479977078734919
 30
0.0
 11
81.8969751347764543
 21
158.9403343500626136
 31
0.0
  0
LINE
  5
288E
  8
2
 10
118.5
 20
155.0
 30
0.0
 11
118.0
 21
155.5
 31
0.0
  0
LINE
  5
288F
  8
2
 10
82.0000000000000142
 20
155.5
 30
0.0
 11
81.5000000000000142
 21
155.0
 31
0.0
  0
LINE
  5
2890
  8
2
 10
82.0000000000000142
 20
158.9698762547839976
 30
0.0
 11
82.0000000000000142
 21
155.5
 31
0.0
  0
LINE
  5
2891
  8
2
 10
118.0
 20
155.5
 30
0.0
 11
118.0
 21
158.9698762547839976
 31
0.0
  0
LINE
  5
2892
  8
2
 10
118.1030248652236025
 20
158.9403343500626136
 30
0.0
 11
118.0
 21
158.9698762547839124
 31
0.0
  0
LINE
  5
2893
  8
2
 10
82.0000000000000142
 20
158.9698762547839124
 30
0.0
 11
81.8969751347764543
 21
158.9403343500626136
 31
0.0
  0
LINE
  5
2894
  8
1
 10
100.0
 20
180.000000000000199
 30
0.0
 11
100.0
 21
150.0
 31
0.0
  0
LINE
  5
2895
  8
1
 10
67.0000000000000142
 20
164.0
 30
0.0
 11
67.0000000000000142
 21
178.0000000000003126
 31
0.0
  0
LINE
  5
2896
  8
1
 10
76.6654762208440985
 20
164.0
 30
0.0
 11
76.6654762208439848
 21
178.000000000000199
 31
0.0
  0
LINE
  5
2897
  8
1
 10
123.3345237791563989
 20
164.0
 30
0.0
 11
123.334523779156001
 21
178.0
 31
0.0
  0
LINE
  5
2898
  8
1
 10
133.000000000000199
 20
164.0
 30
0.0
 11
133.0
 21
178.0
 31
0.0
  0
CIRCLE
  5
2899
  8
0
 10
100.0
 20
82.5000000000000568
 30
0.0
 40
24.4000000000000092
  0
CIRCLE
  5
289A
  8
0
 10
100.0
 20
82.5000000000000568
 30
0.0
 40
18.5
  0
CIRCLE
  5
289B
  8
0
 10
100.0
 20
82.5000000000000284
 30
0.0
 40
24.8999999999999915
  0
CIRCLE
  5
289C
  8
0
 10
100.0
 20
82.5000000000000284
 30
0.0
 40
17.9999999999999787
  0
CIRCLE
  5
289D
  8
0
 10
100.0
 20
82.5000000000000284
 30
0.0
 40
25.0000000000000213
  0
CIRCLE
  5
289E
  8
0
 10
100.0
 20
82.5
 30
0.0
 40
42.4999999999999929
  0
CIRCLE
  5
28A0
  8
0
 10
100.0
 20
82.5
 30
0.0
 40
26.0000000000000107
  0
CIRCLE
  5
28A1
  8
0
 10
123.334523779156001
 20
59.1654762208438711
 30
0.0
 40
3.300000000000018
  0
CIRCLE
  5
28A2
  8
0
 10
76.6654762208438427
 20
59.1654762208439777
 30
0.0
 40
3.2999999999999901
  0
CIRCLE
  5
28A3
  8
0
 10
76.6654762208439564
 20
105.8345237791561004
 30
0.0
 40
3.2999999999999972
  0
CIRCLE
  5
28A4
  8
0
 10
123.3345237791561004
 20
105.834523779156001
 30
0.0
 40
3.2999999999999972
  0
CIRCLE
  5
28A5
  8
0
 10
76.6654762208438711
 20
270.3345237791561999
 30
0.0
 40
7.1499999999999773
  0
CIRCLE
  5
28A6
  8
0
 10
76.6654762208439848
 20
223.665476220843999
 30
0.0
 40
7.1500000000000341
  0
CIRCLE
  5
28A7
  8
0
 10
123.3345237791561004
 20
223.6654762208441127
 30
0.0
 40
7.1500000000000048
  0
CIRCLE
  5
28A8
  8
0
 10
123.334523779156001
 20
270.3345237791561999
 30
0.0
 40
7.1499999999999773
  0
CIRCLE
  5
28A9
  8
3
 10
67.0000000000000142
 20
247.0000000000001137
 30
0.0
 40
3.0
  0
CIRCLE
  5
28AA
  8
3
 10
133.0
 20
247.0000000000001137
 30
0.0
 40
3.0
  0
CIRCLE
  5
28AB
  8
0
 10
100.0
 20
247.0000000000001137
 30
0.0
 40
41.9999999999999716
  0
CIRCLE
  5
28AD
  8
0
 10
123.3345237791561004
 20
223.6654762208441127
 30
0.0
 40
3.3000000000000109
  0
CIRCLE
  5
28AE
  8
0
 10
76.6654762208439848
 20
223.665476220843999
 30
0.0
 40
3.3000000000000389
  0
CIRCLE
  5
28AF
  8
0
 10
133.0
 20
247.0000000000001137
 30
0.0
 40
2.458499999999999
  0
CIRCLE
  5
28B0
  8
0
 10
67.0000000000000142
 20
247.0000000000001137
 30
0.0
 40
2.458499999999999
  0
CIRCLE
  5
28B1
  8
0
 10
123.334523779156001
 20
270.3345237791561999
 30
0.0
 40
3.3000000000000109
  0
CIRCLE
  5
28B2
  8
0
 10
76.6654762208438711
 20
270.3345237791561999
 30
0.0
 40
3.3000000000000109
  0
LINE
  5
28B3
  8
1
 10
147.5
 20
247.0000000000001137
 30
0.0
 11
52.5000000000000071
 21
247.0000000000001137
 31
0.0
  0
LINE
  5
28B4
  8
1
 10
100.0
 20
199.5000000000001137
 30
0.0
 11
100.0
 21
294.5000000000001137
 31
0.0
  0
CIRCLE
  5
28B5
  8
1
 10
100.0
 20
247.0000000000001137
 30
0.0
 40
33.0000000000000284
  0
LINE
  5
28B6
  8
1
 10
130.511657608199414
 20
277.5116576081996982
 30
0.0
 11
116.1573899501126022
 21
263.1573899501128722
 31
0.0
  0
LINE
  5
28B7
  8
1
 10
69.4883423918004297
 20
277.5116576081995845
 30
0.0
 11
83.8426100498871989
 21
263.1573899501127016
 31
0.0
  0
LINE
  5
28B8
  8
1
 10
69.4883423918005434
 20
216.488342391800586
 30
0.0
 11
83.8426100498874263
 21
230.8426100498874121
 31
0.0
  0
LINE
  5
28B9
  8
1
 10
130.5116576081996129
 20
216.4883423918006997
 30
0.0
 11
116.1573899501127016
 21
230.842610049887611
 31
0.0
  0
LINE
  5
28BA
  8
2
 10
135.9999999999998863
 20
175.0
 30
0.0
 11
135.9999999999998863
 21
167.0
 31
0.0
  0
LINE
  5
28BB
  8
2
 10
135.4584999999999866
 20
175.0
 30
0.0
 11
135.4584999999999866
 21
167.0
 31
0.0
  0
LINE
  5
28BC
  8
2
 10
130.0000000000001137
 20
174.9999999999998863
 30
0.0
 11
130.0000000000003126
 21
166.9999999999998863
 31
0.0
  0
LINE
  5
28BD
  8
2
 10
130.5415000000000134
 20
175.0
 30
0.0
 11
130.5415000000002124
 21
166.9999999999998863
 31
0.0
  0
LINE
  5
28BE
  8
2
 10
64.0000000000000853
 20
175.0
 30
0.0
 11
64.0000000000000853
 21
166.9999999999998863
 31
0.0
  0
LINE
  5
28BF
  8
2
 10
64.5415000000000134
 20
175.0
 30
0.0
 11
64.5415000000000134
 21
166.9999999999998863
 31
0.0
  0
LINE
  5
28C0
  8
2
 10
69.9999999999999432
 20
175.0
 30
0.0
 11
69.9999999999997158
 21
167.0
 31
0.0
  0
LINE
  5
28C1
  8
2
 10
69.458500000000015
 20
175.0
 30
0.0
 11
69.4584999999997734
 21
167.0
 31
0.0
  0
CIRCLE
  5
28C2
  8
3
 10
66.9999999999999858
 20
82.5000000000000568
 30
0.0
 40
3.0
  0
CIRCLE
  5
28C3
  8
3
 10
133.0
 20
82.5000000000000568
 30
0.0
 40
3.0
  0
CIRCLE
  5
28C4
  8
0
 10
133.0
 20
82.5000000000000284
 30
0.0
 40
2.458499999999999
  0
CIRCLE
  5
28C5
  8
0
 10
66.9999999999999858
 20
82.5000000000000568
 30
0.0
 40
2.458499999999999
  0
LINE
  5
28C6
  8
1
 10
147.5
 20
82.5000000000000568
 30
0.0
 11
52.4999999999999929
 21
82.5000000000000568
 31
0.0
  0
LINE
  5
28C7
  8
1
 10
100.0
 20
35.0000000000000782
 30
0.0
 11
100.0
 21
130.0
 31
0.0
  0
CIRCLE
  5
28C8
  8
1
 10
100.0
 20
82.5000000000000568
 30
0.0
 40
33.0000000000000284
  0
LINE
  5
28C9
  8
1
 10
127.7892965006311954
 20
110.2892965006313943
 30
0.0
 11
118.8797510576805934
 21
101.379751057680906
 31
0.0
  0
LINE
  5
28CA
  8
1
 10
72.2107034993685915
 20
110.2892965006312949
 30
0.0
 11
81.120248942319094
 21
101.379751057680707
 31
0.0
  0
LINE
  5
28CB
  8
1
 10
72.2107034993687051
 20
54.7107034993686767
 30
0.0
 11
81.1202489423193214
 21
63.6202489423191793
 31
0.0
  0
LINE
  5
28CC
  8
1
 10
127.7892965006312949
 20
54.7107034993687975
 30
0.0
 11
118.8797510576808065
 21
63.6202489423193569
 31
0.0
  0
CIRCLE
  5
28CD
  8
0
 10
100.0
 20
247.0000000000001137
 30
0.0
 40
23.7437072219204914
  0
ARC
  5
28CF
  8
0
 10
100.0
 20
247.0000000000001137
 30
0.0
 40
22.0000000000000497
 50
64.6320493050870937
 51
115.3679506949129063
  0
ARC
  5
28D1
  8
0
 10
100.0
 20
247.0000000000001137
 30
0.0
 40
22.2917049297940117
 50
120.0000000000000995
 51
239.9999999999998863
  0
ARC
  5
28D3
  8
0
 10
100.0
 20
247.0000000000001137
 30
0.0
 40
22.0
 50
244.6320493050870937
 51
295.3679506949129063
  0
ARC
  5
28D5
  8
0
 10
100.0
 20
247.0000000000001137
 30
0.0
 40
22.2917049297940117
 50
300.0
 51
59.9999999999999432
  0
ARC
  5
28E4
  8
0
 10
100.0
 20
247.0000000000001137
 30
0.0
 40
18.0000000000000107
 50
245.8891689373093925
 51
294.1108310626976277
  0
ARC
  5
28E5
  8
0
 10
100.0
 20
247.0000000000001137
 30
0.0
 40
18.0000000000000391
 50
65.889168937309492
 51
114.1108310626904938
  0
ARC
  5
28E6
  8
0
 10
100.0
 20
247.0000000000001137
 30
0.0
 40
18.0000000000000213
 50
295.5738427641429098
 51
64.4261643776120962
  0
ARC
  5
28E8
  8
0
 10
100.0
 20
247.0000000000001137
 30
0.0
 40
17.9999999999999893
 50
115.5738427641428956
 51
244.4261445297692035
  0
POLYLINE
  5
2920
  8
0
 66
     1
 10
0.0
 20
0.0
 30
0.0
  0
VERTEX
  5
29C9
  8
0
 10
109.4254549701078929
 20
266.8786518307072129
 30
0.0
  0
VERTEX
  5
29CA
  8
0
 10
107.3530542369307028
 20
263.4296254792603804
 30
0.0
  0
SEQEND
  5
29CB
  8
0
  0
POLYLINE
  5
2921
  8
0
 66
     1
 10
0.0
 20
0.0
 30
0.0
  0
VERTEX
  5
29CC
  8
0
 10
107.3530542369308023
 20
263.4296254792603804
 30
0.0
  0
VERTEX
  5
29CD
  8
0
 10
107.7701298013034972
 20
263.2365354331180924
 30
0.0
  0
SEQEND
  5
29CE
  8
0
  0
POLYLINE
  5
2922
  8
0
 66
     1
 10
0.0
 20
0.0
 30
0.0
  0
VERTEX
  5
29CF
  8
0
 10
90.5745450298920929
 20
227.1213481692932987
 30
0.0
  0
VERTEX
  5
29D0
  8
0
 10
92.6469457630693256
 20
230.5703745207399038
 30
0.0
  0
SEQEND
  5
29D1
  8
0
  0
POLYLINE
  5
2923
  8
0
 66
     1
 10
0.0
 20
0.0
 30
0.0
  0
VERTEX
  5
29D2
  8
0
 10
92.6469457630691977
 20
230.5703745207399891
 30
0.0
  0
VERTEX
  5
29D3
  8
0
 10
92.2298645741953749
 20
230.7634672585353997
 30
0.0
  0
SEQEND
  5
29D4
  8
0
  0
POLYLINE
  5
2924
  8
0
 66
     1
 10
0.0
 20
0.0
 30
0.0
  0
VERTEX
  5
29D5
  8
0
 10
92.6469457630693256
 20
263.4296254792603804
 30
0.0
  0
VERTEX
  5
29D6
  8
0
 10
90.5745450298920929
 20
266.8786518307072129
 30
0.0
  0
SEQEND
  5
29D7
  8
0
  0
POLYLINE
  5
2925
  8
0
 66
     1
 10
0.0
 20
0.0
 30
0.0
  0
VERTEX
  5
29D8
  8
0
 10
92.2298681748583391
 20
263.2365344645933192
 30
0.0
  0
VERTEX
  5
29D9
  8
0
 10
92.6469457630691977
 20
263.4296254792603804
 30
0.0
  0
SEQEND
  5
29DA
  8
0
  0
POLYLINE
  5
2926
  8
0
 66
     1
 10
0.0
 20
0.0
 30
0.0
  0
VERTEX
  5
29DB
  8
0
 10
107.3530542369307028
 20
230.5703745207399038
 30
0.0
  0
VERTEX
  5
29DC
  8
0
 10
109.4254549701080066
 20
227.1213481692934124
 30
0.0
  0
SEQEND
  5
29DD
  8
0
  0
POLYLINE
  5
2927
  8
0
 66
     1
 10
0.0
 20
0.0
 30
0.0
  0
VERTEX
  5
29DE
  8
0
 10
107.7701318251417035
 20
230.7634655354069935
 30
0.0
  0
VERTEX
  5
29DF
  8
0
 10
107.3530542369308023
 20
230.5703745207399891
 30
0.0
  0
SEQEND
  5
29E0
  8
0
  0
POLYLINE
  5
2928
  8
0
 66
     1
 10
0.0
 20
0.0
 30
0.0
  0
VERTEX
  5
29E1
  8
0
 10
109.4254549701080066
 20
227.1213481692934124
 30
0.0
  0
VERTEX
  5
29E2
  8
0
 10
110.0115709193942024
 20
227.2331726669650038
 30
0.0
  0
VERTEX
  5
29E3
  8
0
 10
110.589441835506193
 20
227.4234139630111997
 30
0.0
  0
VERTEX
  5
29E4
  8
0
 10
111.1458524648968051
 20
227.694817237132014
 30
0.0
  0
SEQEND
  5
29E5
  8
0
  0
POLYLINE
  5
2929
  8
0
 66
     1
 10
0.0
 20
0.0
 30
0.0
  0
VERTEX
  5
29E6
  8
0
 10
88.8541475351030527
 20
227.694817237132014
 30
0.0
  0
VERTEX
  5
29E7
  8
0
 10
89.4050877253797154
 20
227.425463274427301
 30
0.0
  0
VERTEX
  5
29E8
  8
0
 10
89.9848573207306401
 20
227.2341397441200002
 30
0.0
  0
VERTEX
  5
29E9
  8
0
 10
90.5745450298920929
 20
227.1213481692932987
 30
0.0
  0
SEQEND
  5
29EA
  8
0
  0
POLYLINE
  5
292A
  8
0
 66
     1
 10
0.0
 20
0.0
 30
0.0
  0
VERTEX
  5
29EB
  8
0
 10
90.5745450298919792
 20
266.8786518307072129
 30
0.0
  0
VERTEX
  5
29EC
  8
0
 10
89.9884290806058402
 20
266.7668273330355078
 30
0.0
  0
VERTEX
  5
29ED
  8
0
 10
89.4105581644937644
 20
266.5765860369892266
 30
0.0
  0
VERTEX
  5
29EE
  8
0
 10
88.8541475351031664
 20
266.305182762868526
 30
0.0
  0
SEQEND
  5
29EF
  8
0
  0
POLYLINE
  5
292B
  8
0
 66
     1
 10
0.0
 20
0.0
 30
0.0
  0
VERTEX
  5
29F0
  8
0
 10
111.1458524648968051
 20
266.305182762868526
 30
0.0
  0
VERTEX
  5
29F1
  8
0
 10
110.5949122746201994
 20
266.5745367255731253
 30
0.0
  0
VERTEX
  5
29F2
  8
0
 10
110.0151426792694025
 20
266.7658602558803977
 30
0.0
  0
VERTEX
  5
29F3
  8
0
 10
109.4254549701080066
 20
266.8786518307072129
 30
0.0
  0
SEQEND
  5
29F4
  8
0
  0
POLYLINE
  5
292C
  8
2
 66
     1
 10
0.0
 20
0.0
 30
0.0
  0
VERTEX
  5
29F5
  8
2
 10
107.7701318251415046
 20
158.9852695418551036
 30
0.0
  0
VERTEX
  5
29F6
  8
2
 10
107.3530542369307028
 20
159.306635002716007
 30
0.0
  0
SEQEND
  5
29F7
  8
2
  0
POLYLINE
  5
292D
  8
2
 66
     1
 10
0.0
 20
0.0
 30
0.0
  0
VERTEX
  5
29F8
  8
2
 10
92.6469457630693256
 20
159.306635002716007
 30
0.0
  0
VERTEX
  5
29F9
  8
2
 10
92.2298681748584386
 20
158.9852695418551036
 30
0.0
  0
SEQEND
  5
29FA
  8
2
  0
POLYLINE
  5
292E
  8
2
 66
     1
 10
0.0
 20
0.0
 30
0.0
  0
VERTEX
  5
29FB
  8
2
 10
90.5745450298920929
 20
173.2562927780795974
 30
0.0
  0
VERTEX
  5
29FC
  8
2
 10
92.6469457630693256
 20
159.306635002716007
 30
0.0
  0
SEQEND
  5
29FD
  8
2
  0
POLYLINE
  5
292F
  8
2
 66
     1
 10
0.0
 20
0.0
 30
0.0
  0
VERTEX
  5
29FE
  8
2
 10
107.3530542369307028
 20
159.306635002716007
 30
0.0
  0
VERTEX
  5
29FF
  8
2
 10
109.4254549701078929
 20
173.2562927780795974
 30
0.0
  0
SEQEND
  5
2A00
  8
2
  0
POLYLINE
  5
2930
  8
2
 66
     1
 10
0.0
 20
0.0
 30
0.0
  0
VERTEX
  5
2A01
  8
2
 10
109.4254549701080066
 20
173.2562927780795974
 30
0.0
  0
VERTEX
  5
2A02
  8
2
 10
110.0115709193942024
 20
173.4138815809035066
 30
0.0
  0
VERTEX
  5
2A03
  8
2
 10
110.589441835506193
 20
173.5134314686808921
 30
0.0
  0
VERTEX
  5
2A04
  8
2
 10
111.1458524648969046
 20
173.5479977078734066
 30
0.0
  0
SEQEND
  5
2A05
  8
2
  0
POLYLINE
  5
2931
  8
2
 66
     1
 10
0.0
 20
0.0
 30
0.0
  0
VERTEX
  5
2A06
  8
2
 10
88.8541475351030527
 20
173.5479977078734066
 30
0.0
  0
VERTEX
  5
2A07
  8
2
 10
89.4050877253797154
 20
173.5142009988408063
 30
0.0
  0
VERTEX
  5
2A08
  8
2
 10
89.9848573207306401
 20
173.4146421319103979
 30
0.0
  0
VERTEX
  5
2A09
  8
2
 10
90.5745450298920929
 20
173.2562927780795974
 30
0.0
  0
SEQEND
  5
2A0A
  8
2
  0
VIEWPORT
  5
22
 67
     1
  8
0
 10
261.517699115044195
 20
148.5
 30
0.0
 40
523.0353982300885036
 41
297.0
 68
     1
 69
     1
1001
ACAD
1000
MVIEW
1002
{
1070
    16
1010
0.0
1020
0.0
1030
0.0
1010
0.0
1020
0.0
1030
1.0
1040
0.0
1040
297.0
1040
261.517699115044195
1040
148.5
1040
50.0
1040
0.0
1040
0.0
1070
     0
1070
   100
1070
     1
1070
     1
1070
     0
1070
     0
1070
     0
1070
     0
1040
0.0
1040
0.0
1040
0.0
1040
1.0
1040
1.0
1040
10.0
1040
10.0
1070
     0
1002
{
1002
}
1002
}
  0
ENDSEC
  0
EOF
