  0
SECTION
  2
HEADER
  9
$ACADVER
  1
AC1009
  9
$INSBASE
 10
0.0
 20
0.0
 30
0.0
  9
$EXTMIN
 10
0.0
 20
-2.960436562073669
 30
0.0
  9
$EXTMAX
 10
142.0
 20
175.0
 30
0.0
  9
$LIMMIN
 10
0.0
 20
0.0
  9
$LIMMAX
 10
375.0
 20
270.0
  9
$ORTHOMODE
 70
     1
  9
$REGENMODE
 70
     1
  9
$FILLMODE
 70
     1
  9
$QTEXTMODE
 70
     0
  9
$MIRRTEXT
 70
     0
  9
$DRAGMODE
 70
     2
  9
$LTSCALE
 40
5.0
  9
$OSMODE
 70
    37
  9
$ATTMODE
 70
     1
  9
$TEXTSIZE
 40
4.000000000000048
  9
$TRACEWID
 40
0.05
  9
$TEXTSTYLE
  7
STANDARD
  9
$CLAYER
  8
0
  9
$CELTYPE
  6
BYLAYER
  9
$CECOLOR
 62
   256
  9
$DIMSCALE
 40
1.0
  9
$DIMASZ
 40
3.0
  9
$DIMEXO
 40
2.0
  9
$DIMDLI
 40
0.38
  9
$DIMRND
 40
0.0
  9
$DIMDLE
 40
0.0
  9
$DIMEXE
 40
2.0
  9
$DIMTP
 40
0.0
  9
$DIMTM
 40
0.0
  9
$DIMTXT
 40
3.2000000000000002
  9
$DIMCEN
 40
0.0
  9
$DIMTSZ
 40
0.0
  9
$DIMTOL
 70
     0
  9
$DIMLIM
 70
     0
  9
$DIMTIH
 70
     0
  9
$DIMTOH
 70
     0
  9
$DIMSE1
 70
     0
  9
$DIMSE2
 70
     0
  9
$DIMTAD
 70
     1
  9
$DIMZIN
 70
     8
  9
$DIMBLK
  1

  9
$DIMASO
 70
     0
  9
$DIMSHO
 70
     0
  9
$DIMPOST
  1

  9
$DIMAPOST
  1

  9
$DIMALT
 70
     0
  9
$DIMALTD
 70
     2
  9
$DIMALTF
 40
25.3999999999999986
  9
$DIMLFAC
 40
1.0
  9
$DIMTOFL
 70
     0
  9
$DIMTVP
 40
1.6000000000000001
  9
$DIMTIX
 70
     1
  9
$DIMSOXD
 70
     0
  9
$DIMSAH
 70
     0
  9
$DIMBLK1
  1

  9
$DIMBLK2
  1

  9
$DIMSTYLE
  2
STANDARD
  9
$DIMCLRD
 70
     4
  9
$DIMCLRE
 70
     4
  9
$DIMCLRT
 70
     4
  9
$DIMTFAC
 40
1.0
  9
$DIMGAP
 40
0.09
  9
$LUNITS
 70
     2
  9
$LUPREC
 70
     1
  9
$SKETCHINC
 40
0.1
  9
$FILLETRAD
 40
22.0
  9
$AUNITS
 70
     0
  9
$AUPREC
 70
     0
  9
$MENU
  1
E:\r13\win\SUPPORT\ACAD
  9
$ELEVATION
 40
0.0
  9
$PELEVATION
 40
0.0
  9
$THICKNESS
 40
0.0
  9
$LIMCHECK
 70
     0
  9
$BLIPMODE
 70
     0
  9
$CHAMFERA
 40
1.1999999999999991
  9
$CHAMFERB
 40
1.1999999999999991
  9
$SKPOLY
 70
     0
  9
$TDCREATE
 40
2449954.6020138887688518
  9
$TDUPDATE
 40
2460651.6462962958030403
  9
$TDINDWG
 40
0.7683851157
  9
$TDUSRTIMER
 40
0.7683851157
  9
$USRTIMER
 70
     1
  9
$ANGBASE
 50
0.0
  9
$ANGDIR
 70
     0
  9
$PDMODE
 70
     0
  9
$PDSIZE
 40
0.0
  9
$PLINEWID
 40
0.0
  9
$COORDS
 70
     1
  9
$SPLFRAME
 70
     0
  9
$SPLINETYPE
 70
     6
  9
$SPLINESEGS
 70
     8
  9
$ATTDIA
 70
     1
  9
$ATTREQ
 70
     1
  9
$HANDLING
 70
     1
  9
$HANDSEED
  5
58B6
  9
$SURFTAB1
 70
     6
  9
$SURFTAB2
 70
     6
  9
$SURFTYPE
 70
     6
  9
$SURFU
 70
     6
  9
$SURFV
 70
     6
  9
$UCSNAME
  2

  9
$UCSORG
 10
0.0
 20
0.0
 30
0.0
  9
$UCSXDIR
 10
1.0
 20
0.0
 30
0.0
  9
$UCSYDIR
 10
0.0
 20
1.0
 30
0.0
  9
$PUCSNAME
  2

  9
$PUCSORG
 10
0.0
 20
0.0
 30
0.0
  9
$PUCSXDIR
 10
1.0
 20
0.0
 30
0.0
  9
$PUCSYDIR
 10
0.0
 20
1.0
 30
0.0
  9
$USERI1
 70
     0
  9
$USERI2
 70
     1
  9
$USERI3
 70
     0
  9
$USERI4
 70
     0
  9
$USERI5
 70
     0
  9
$USERR1
 40
0.0
  9
$USERR2
 40
0.0
  9
$USERR3
 40
0.0
  9
$USERR4
 40
0.0
  9
$USERR5
 40
0.0
  9
$WORLDVIEW
 70
     1
  9
$SHADEDGE
 70
     3
  9
$SHADEDIF
 70
    70
  9
$TILEMODE
 70
     1
  9
$MAXACTVP
 70
    16
  9
$PLIMCHECK
 70
     0
  9
$PEXTMIN
 10
1.0000000000000000E+20
 20
1.0000000000000000E+20
 30
1.0000000000000000E+20
  9
$PEXTMAX
 10
-1.0000000000000000E+20
 20
-1.0000000000000000E+20
 30
-1.0000000000000000E+20
  9
$PLIMMIN
 10
0.0
 20
0.0
  9
$PLIMMAX
 10
12.0
 20
9.0
  9
$UNITMODE
 70
     0
  9
$VISRETAIN
 70
     0
  9
$PLINEGEN
 70
     0
  9
$PSLTSCALE
 70
     0
  0
ENDSEC
  0
SECTION
  2
TABLES
  0
TABLE
  2
VPORT
 70
     1
  0
VPORT
  2
*ACTIVE
 70
     0
 10
0.0
 20
0.0
 11
1.0
 21
1.0
 12
305.1020408163265074
 22
129.9123529852423076
 13
0.0
 23
0.0
 14
10.0
 24
10.0
 15
10.0
 25
10.0
 16
0.0
 26
0.0
 36
1.0
 17
0.0
 27
0.0
 37
0.0
 40
259.824705970484672
 41
2.3485221674876842
 42
50.0
 43
0.0
 44
0.0
 50
0.0
 51
0.0
 71
     0
 72
   500
 73
     1
 74
     0
 75
     0
 76
     0
 77
     0
 78
     2
  0
ENDTAB
  0
TABLE
  2
LTYPE
 70
     4
  0
LTYPE
  2
CONTINUOUS
 70
     0
  3
Solid Line
 72
    65
 73
     0
 40
0.0
  0
LTYPE
  2
CENTER
 70
     0
  3
____ _ ____ _ ____ _ ____ _ ____ _ ____ _ ____
 72
    65
 73
     4
 40
2.0
 49
1.25
 49
-0.25
 49
0.25
 49
-0.25
  0
LTYPE
  2
PHANTOM2
 70
     0
  3
___ _ _ ___ _ _ ___ _ _ ___ _ _
 72
    65
 73
     6
 40
1.25
 49
0.625
 49
-0.125
 49
0.125
 49
-0.125
 49
0.125
 49
-0.125
  0
LTYPE
  2
HIDDEN
 70
     0
  3
__ __ __ __ __ __ __ __ __ __ __ __ __ __ __ __
 72
    65
 73
     2
 40
0.375
 49
0.25
 49
-0.125
  0
ENDTAB
  0
TABLE
  2
LAYER
 70
     4
  0
LAYER
  2
0
 70
     0
 62
     7
  6
CONTINUOUS
  0
LAYER
  2
1
 70
     0
 62
     1
  6
CENTER
  0
LAYER
  2
DEFPOINTS
 70
     0
 62
     7
  6
CONTINUOUS
  0
LAYER
  2
2
 70
     0
 62
     2
  6
HIDDEN
  0
ENDTAB
  0
TABLE
  2
STYLE
 70
     2
  0
STYLE
  2
STANDARD
 70
     0
 40
0.0
 41
1.0
 50
0.0
 71
     0
 42
4.000000000000048
  3
SIMPLEX
  4
BIGFONT
  0
STYLE
  2
STANDARD1
 70
     0
 40
0.0
 41
1.0
 50
0.0
 71
     0
 42
3.0
  3
txt
  4

  0
ENDTAB
  0
TABLE
  2
VIEW
 70
     1
  0
VIEW
  2
ALL
 70
     0
 40
270.0
 10
220.785953177257511
 20
135.0
 41
441.571906354515022
 11
0.0
 21
0.0
 31
1.0
 12
0.0
 22
0.0
 32
0.0
 42
50.0
 43
0.0
 44
0.0
 50
0.0
 71
     0
  0
ENDTAB
  0
TABLE
  2
UCS
 70
     0
  0
ENDTAB
  0
TABLE
  2
APPID
 70
     9
  0
APPID
  2
ACAD
 70
     0
  0
APPID
  2
ACAD_EXEMPT_FROM_CAD_STANDARDS
 70
     0
  0
APPID
  2
ACAD_MLEADERVER
 70
     0
  0
APPID
  2
ACAD_NAV_VCDISPLAY
 70
     0
  0
APPID
  2
ACAD_DSTYLE_DIMJAG
 70
     0
  0
APPID
  2
ACAD_DSTYLE_DIMTALN
 70
     0
  0
APPID
  2
ACAECLAYERSTANDARD
 70
     0
  0
APPID
  2
ACCMTRANSPARENCY
 70
     0
  0
APPID
  2
ACAD_PSEXT
 70
     0
  0
ENDTAB
  0
TABLE
  2
DIMSTYLE
 70
     1
  0
DIMSTYLE
  2
STANDARD
 70
     0
  3

  4

  5

  6

  7

 40
1.0
 41
0.18
 42
0.0625
 43
0.38
 44
0.18
 45
0.0
 46
0.0
 47
0.0
 48
0.0
140
0.18
141
0.09
142
0.0
143
25.3999999999999986
144
1.0
145
0.0
146
1.0
147
0.09
 71
     0
 72
     0
 73
     1
 74
     1
 75
     0
 76
     0
 77
     0
 78
     0
170
     0
171
     2
172
     0
173
     0
174
     0
175
     0
176
     0
177
     0
178
     0
  0
ENDTAB
  0
ENDSEC
  0
SECTION
  2
BLOCKS
  0
BLOCK
  8
0
  2
$MODEL_SPACE
 70
     0
 10
0.0
 20
0.0
 30
0.0
  3
$MODEL_SPACE
  1

  0
ENDBLK
  5
1126
  8
0
  0
BLOCK
 67
     1
  8
0
  2
$PAPER_SPACE
 70
     0
 10
0.0
 20
0.0
 30
0.0
  3
$PAPER_SPACE
  1

  0
ENDBLK
  5
1124
 67
     1
  8
0
  0
ENDSEC
  0
SECTION
  2
ENTITIES
  0
TEXT
  5
5088
  8
0
 62
     3
 10
0.0
 20
0.0
 30
0.0
 40
10.0
  1
CP745-1640S
  7
STANDARD1
  0
LINE
  5
561E
  8
0
 10
29.9999999999999609
 20
88.0
 30
0.0
 11
30.4999999999999609
 21
87.5000000000001137
 31
0.0
  0
LINE
  5
561F
  8
0
 10
69.5000000000000142
 20
87.5000000000001137
 30
0.0
 11
70.0000000000000142
 21
88.0
 31
0.0
  0
LINE
  5
5620
  8
0
 10
70.0000000000000142
 20
88.0
 30
0.0
 11
70.0000000000000142
 21
95.5000000000001137
 31
0.0
  0
LINE
  5
5621
  8
0
 10
29.9999999999999609
 20
95.5000000000001137
 30
0.0
 11
29.9999999999999609
 21
88.0
 31
0.0
  0
LINE
  5
5622
  8
0
 10
69.5000000000000142
 20
87.5000000000001137
 30
0.0
 11
30.4999999999999609
 21
87.5000000000001137
 31
0.0
  0
LINE
  5
5623
  8
0
 10
29.9999999999999609
 20
88.0
 30
0.0
 11
70.0000000000000142
 21
88.0
 31
0.0
  0
LINE
  5
5624
  8
0
 10
46.0000000000000071
 20
95.5000000000001137
 30
0.0
 11
54.0000000000000213
 21
95.5000000000001137
 31
0.0
  0
LINE
  5
5625
  8
0
 10
54.0000000000000213
 20
95.5000000000001137
 30
0.0
 11
54.0000000000000213
 21
100.0
 31
0.0
  0
LINE
  5
5626
  8
0
 10
69.5959179422654444
 20
99.5000000000001137
 30
0.0
 11
54.0000000000000213
 21
99.5000000000001137
 31
0.0
  0
LINE
  5
5627
  8
0
 10
69.5959179422654444
 20
95.5000000000001137
 30
0.0
 11
69.5959179422654444
 21
99.5000000000001137
 31
0.0
  0
LINE
  5
5628
  8
0
 10
69.5959179422654444
 20
95.5000000000001137
 30
0.0
 11
70.0000000000000142
 21
95.5000000000001137
 31
0.0
  0
LINE
  5
5629
  8
0
 10
29.9999999999999609
 20
95.5000000000001137
 30
0.0
 11
30.4040820577345805
 21
95.5000000000001137
 31
0.0
  0
LINE
  5
562A
  8
0
 10
30.4040820577345805
 20
95.5000000000001137
 30
0.0
 11
30.4040820577345805
 21
99.5000000000001137
 31
0.0
  0
LINE
  5
562B
  8
0
 10
46.0000000000000071
 20
99.5000000000001137
 30
0.0
 11
30.4040820577345805
 21
99.5000000000001137
 31
0.0
  0
LINE
  5
562C
  8
0
 10
46.0000000000000071
 20
95.5000000000001137
 30
0.0
 11
46.0000000000000071
 21
100.0
 31
0.0
  0
LINE
  5
562E
  8
0
 10
30.9146653160076603
 20
100.0
 30
0.0
 11
69.0853346839923717
 21
100.0
 31
0.0
  0
CIRCLE
  5
5632
  8
0
 10
50.0
 20
50.0
 30
0.0
 40
19.5
  0
CIRCLE
  5
5633
  8
0
 10
50.0
 20
50.0
 30
0.0
 40
20.0
  0
CIRCLE
  5
5634
  8
0
 10
34.0
 20
50.0
 30
0.0
 40
2.75
  0
CIRCLE
  5
5635
  8
0
 10
50.0000000000000568
 20
66.0
 30
0.0
 40
2.7499999999999432
  0
CIRCLE
  5
5636
  8
0
 10
66.0000000000000568
 20
49.9999999999998934
 30
0.0
 40
2.750000000000056
  0
CIRCLE
  5
5637
  8
0
 10
49.9999999999998295
 20
34.0
 30
0.0
 40
2.75
  0
CIRCLE
  5
5638
  8
0
 10
50.0
 20
50.0
 30
0.0
 40
10.5
  0
CIRCLE
  5
5639
  8
0
 10
49.9999999999998295
 20
34.0
 30
0.0
 40
2.25
  0
CIRCLE
  5
563A
  8
0
 10
50.0
 20
50.0
 30
0.0
 40
10.0
  0
CIRCLE
  5
563B
  8
0
 10
34.0
 20
50.0
 30
0.0
 40
2.25
  0
CIRCLE
  5
563C
  8
0
 10
66.0000000000000568
 20
49.9999999999998934
 30
0.0
 40
2.250000000000056
  0
CIRCLE
  5
563D
  8
0
 10
50.0000000000000568
 20
66.0
 30
0.0
 40
2.2499999999999432
  0
CIRCLE
  5
563E
  8
0
 10
50.0
 20
50.0
 30
0.0
 40
8.0
  0
LINE
  5
563F
  8
0
 10
101.9999999999999005
 20
88.0
 30
0.0
 11
102.4999999999999005
 21
87.5000000000001137
 31
0.0
  0
LINE
  5
5640
  8
0
 10
141.5
 20
87.5000000000001137
 30
0.0
 11
142.0
 21
88.0
 31
0.0
  0
LINE
  5
5641
  8
0
 10
142.0
 20
88.0
 30
0.0
 11
142.0
 21
95.5000000000001137
 31
0.0
  0
LINE
  5
5642
  8
0
 10
101.9999999999999005
 20
95.5000000000001137
 30
0.0
 11
101.9999999999999005
 21
88.0
 31
0.0
  0
LINE
  5
5643
  8
0
 10
141.5
 20
87.5000000000001137
 30
0.0
 11
102.4999999999999005
 21
87.5000000000001137
 31
0.0
  0
LINE
  5
5644
  8
0
 10
101.9999999999999005
 20
88.0
 30
0.0
 11
142.0
 21
88.0
 31
0.0
  0
LINE
  5
5645
  8
0
 10
101.9999999999999005
 20
95.5000000000001137
 30
0.0
 11
102.4040820577345983
 21
95.5000000000001137
 31
0.0
  0
LINE
  5
5646
  8
0
 10
102.4040820577345983
 20
95.5000000000001137
 30
0.0
 11
102.4040820577345983
 21
99.5000000000001137
 31
0.0
  0
LINE
  5
5647
  8
0
 10
118.0000000000000995
 20
99.5000000000001137
 30
0.0
 11
102.4040820577345983
 21
99.5000000000001137
 31
0.0
  0
LINE
  5
5648
  8
0
 10
118.0000000000000995
 20
95.5000000000001137
 30
0.0
 11
118.0000000000000995
 21
100.0
 31
0.0
  0
LINE
  5
5649
  8
0
 10
118.0000000000000995
 20
95.5000000000001137
 30
0.0
 11
126.0000000000000995
 21
95.5000000000001137
 31
0.0
  0
LINE
  5
564A
  8
0
 10
126.0000000000000995
 20
95.5000000000001137
 30
0.0
 11
126.0000000000000995
 21
100.0
 31
0.0
  0
LINE
  5
564B
  8
0
 10
141.5959179422654017
 20
99.5000000000001137
 30
0.0
 11
126.0000000000000995
 21
99.5000000000001137
 31
0.0
  0
LINE
  5
564C
  8
0
 10
141.5959179422654017
 20
95.5000000000001137
 30
0.0
 11
141.5959179422654017
 21
99.5000000000001137
 31
0.0
  0
LINE
  5
564D
  8
0
 10
141.5959179422654017
 20
95.5000000000001137
 30
0.0
 11
142.0
 21
95.5000000000001137
 31
0.0
  0
LINE
  5
5651
  8
0
 10
102.9146653160075999
 20
100.0
 30
0.0
 11
141.0853346839923006
 21
100.0
 31
0.0
  0
ARC
  5
5653
  8
0
 10
33.9999999999999574
 20
150.0
 30
0.0
 40
4.0
 50
270.0
 51
90.0
  0
ARC
  5
5655
  8
0
 10
49.9999999999999574
 20
150.0
 30
0.0
 40
19.4999999999999787
 50
101.8370041558952011
 51
168.1629958441048984
  0
LINE
  5
5656
  8
0
 10
45.9999999999997229
 20
169.595917942265487
 30
0.0
 11
45.9999999999997868
 21
166.0
 31
0.0
  0
ARC
  5
5657
  8
0
 10
49.9999999999997797
 20
166.0
 30
0.0
 40
4.0
 50
180.0
 51
0.0
  0
LINE
  5
5658
  8
0
 10
53.9999999999997868
 20
166.0
 30
0.0
 11
53.99999999999973
 21
169.595917942265487
 31
0.0
  0
ARC
  5
5659
  8
0
 10
49.9999999999999574
 20
150.0
 30
0.0
 40
19.5000000000000604
 50
11.8370041558950891
 51
78.1629958441081243
  0
LINE
  5
565A
  8
0
 10
69.5959179422653875
 20
154.0000000000001137
 30
0.0
 11
66.0000000000000142
 21
154.0000000000001137
 31
0.0
  0
ARC
  5
565B
  8
0
 10
66.0000000000000142
 20
150.0000000000001137
 30
0.0
 40
4.0
 50
90.0
 51
270.0
  0
LINE
  5
565C
  8
0
 10
66.0000000000000142
 20
146.0000000000001137
 30
0.0
 11
69.5959179422654444
 21
146.0000000000001137
 31
0.0
  0
ARC
  5
565D
  8
0
 10
49.9999999999999574
 20
150.0
 30
0.0
 40
19.5000000000000711
 50
281.8370041558952153
 51
348.1629958441076838
  0
ARC
  5
565F
  8
0
 10
50.0000000000000071
 20
134.0
 30
0.0
 40
4.0
 50
0.0
 51
180.0
  0
ARC
  5
5661
  8
0
 10
49.9999999999999574
 20
150.0
 30
0.0
 40
19.4999999999999787
 50
191.8370041558951016
 51
258.1629958441080817
  0
CIRCLE
  5
5663
  8
0
 10
49.9999999999999574
 20
150.0
 30
0.0
 40
9.0
  0
CIRCLE
  5
5664
  8
0
 10
49.9999999999999574
 20
150.0
 30
0.0
 40
8.0
  0
CIRCLE
  5
566D
  8
0
 10
66.0000000000000142
 20
150.0000000000001137
 30
0.0
 40
2.250000000000056
  0
CIRCLE
  5
566E
  8
0
 10
33.9999999999999574
 20
150.0
 30
0.0
 40
2.250000000000056
  0
CIRCLE
  5
566F
  8
0
 10
49.9999999999997797
 20
166.0
 30
0.0
 40
2.2499999999998859
  0
CIRCLE
  5
5670
  8
0
 10
50.0000000000000071
 20
134.0
 30
0.0
 40
2.25
  0
LINE
  5
5671
  8
1
 10
74.9999999999999574
 20
150.0
 30
0.0
 11
24.9999999999999609
 21
150.0
 31
0.0
  0
LINE
  5
5672
  8
1
 10
49.9999999999999574
 20
125.0
 30
0.0
 11
49.9999999999999574
 21
175.0
 31
0.0
  0
CIRCLE
  5
5673
  8
0
 10
49.9999999999999574
 20
150.0
 30
0.0
 40
20.0000000000000604
  0
LINE
  5
5674
  8
1
 10
75.0
 20
50.0
 30
0.0
 11
25.0
 21
50.0
 31
0.0
  0
LINE
  5
5675
  8
1
 10
50.0
 20
25.0
 30
0.0
 11
50.0
 21
75.0
 31
0.0
  0
CIRCLE
  5
5676
  8
1
 10
50.0
 20
50.0
 30
0.0
 40
16.0
  0
CIRCLE
  5
5677
  8
1
 10
49.9999999999999574
 20
150.0
 30
0.0
 40
16.0
  0
LINE
  5
5678
  8
1
 10
49.9999999999999574
 20
82.5000000000001137
 30
0.0
 11
50.0000000000000071
 21
105.0
 31
0.0
  0
LINE
  5
5679
  8
1
 10
65.9999999999999574
 20
84.5000000000001137
 30
0.0
 11
65.9999999999999574
 21
103.0
 31
0.0
  0
LINE
  5
567A
  8
1
 10
33.9999999999997868
 20
84.5000000000003411
 30
0.0
 11
34.0000000000000711
 21
103.000000000000199
 31
0.0
  0
LINE
  5
567B
  8
1
 10
121.9999999999999005
 20
82.5000000000001137
 30
0.0
 11
122.0
 21
105.0
 31
0.0
  0
LINE
  5
567C
  8
1
 10
137.9999999999998863
 20
84.5000000000001137
 30
0.0
 11
137.9999999999998863
 21
103.0
 31
0.0
  0
LINE
  5
567D
  8
1
 10
105.999999999999801
 20
84.5000000000003411
 30
0.0
 11
106.0
 21
103.000000000000199
 31
0.0
  0
POLYLINE
  5
5687
  8
0
 66
     1
 10
0.0
 20
0.0
 30
0.0
  0
VERTEX
  5
58A4
  8
0
 10
30.4040820577345308
 20
146.0
 30
0.0
  0
VERTEX
  5
58A5
  8
0
 10
33.9999999999999574
 20
146.0
 30
0.0
  0
SEQEND
  5
58A6
  8
0
  0
POLYLINE
  5
568B
  8
0
 66
     1
 10
0.0
 20
0.0
 30
0.0
  0
VERTEX
  5
58A7
  8
0
 10
54.0000000000000213
 20
130.4040820577345983
 30
0.0
  0
VERTEX
  5
58A8
  8
0
 10
54.0000000000000213
 20
134.0
 30
0.0
  0
SEQEND
  5
58A9
  8
0
  0
POLYLINE
  5
568D
  8
0
 66
     1
 10
0.0
 20
0.0
 30
0.0
  0
VERTEX
  5
58AA
  8
0
 10
102.4040820577345983
 20
99.5000000000001137
 30
0.0
  0
VERTEX
  5
58AB
  8
0
 10
102.9146653160075999
 20
100.0
 30
0.0
  0
SEQEND
  5
58AC
  8
0
  0
POLYLINE
  5
568E
  8
0
 66
     1
 10
0.0
 20
0.0
 30
0.0
  0
VERTEX
  5
58AD
  8
0
 10
141.0853346839923006
 20
100.0
 30
0.0
  0
VERTEX
  5
58AE
  8
0
 10
141.5959179422654017
 20
99.5000000000001137
 30
0.0
  0
SEQEND
  5
58AF
  8
0
  0
POLYLINE
  5
5690
  8
0
 66
     1
 10
0.0
 20
0.0
 30
0.0
  0
VERTEX
  5
58B0
  8
0
 10
69.0853346839923717
 20
100.0
 30
0.0
  0
VERTEX
  5
58B1
  8
0
 10
69.5959179422654444
 20
99.5000000000001137
 30
0.0
  0
SEQEND
  5
58B2
  8
0
  0
POLYLINE
  5
5693
  8
0
 66
     1
 10
0.0
 20
0.0
 30
0.0
  0
VERTEX
  5
58B3
  8
0
 10
30.4040820577345308
 20
99.5000000000001137
 30
0.0
  0
VERTEX
  5
58B4
  8
0
 10
30.9146653160076603
 20
100.0
 30
0.0
  0
SEQEND
  5
58B5
  8
0
  0
LINE
  5
5694
  8
0
 10
46.0000000000000071
 20
134.0
 30
0.0
 11
46.0000000000000071
 21
130.4040820577345983
 31
0.0
  0
LINE
  5
5695
  8
0
 10
33.9999999999999574
 20
154.0
 30
0.0
 11
30.4040820577345308
 21
154.0
 31
0.0
  0
LINE
  5
57E9
  8
2
 10
62.0000000000000071
 20
100.0000000000000995
 30
0.0
 11
62.0000000000000071
 21
95.5000000000001137
 31
0.0
  0
LINE
  5
57EA
  8
2
 10
69.5959179422654444
 20
95.5000000000001137
 30
0.0
 11
62.0000000000000213
 21
95.5000000000001137
 31
0.0
  0
LINE
  5
57EB
  8
2
 10
63.7836687959255926
 20
95.5000000000001137
 30
0.0
 11
63.7836687959255926
 21
88.0000000000000568
 31
0.0
  0
LINE
  5
57EC
  8
2
 10
63.2836687959255926
 20
87.5000000000001137
 30
0.0
 11
63.7836687959255926
 21
88.0000000000000568
 31
0.0
  0
LINE
  5
57ED
  8
2
 10
60.0336687959255926
 20
88.0000000000000568
 30
0.0
 11
60.5336687959255926
 21
87.5000000000001137
 31
0.0
  0
LINE
  5
57EE
  8
2
 10
60.0336687959255926
 20
88.0000000000000568
 30
0.0
 11
60.0336687959255926
 21
92.0000000000000568
 31
0.0
  0
LINE
  5
57EF
  8
2
 10
60.0336687959255926
 20
92.0000000000000568
 30
0.0
 11
58.0336687959255926
 21
94.0000000000001137
 31
0.0
  0
LINE
  5
57F0
  8
2
 10
58.0336687959255926
 20
94.0000000000001137
 30
0.0
 11
58.0336687959255926
 21
99.0000000000001137
 31
0.0
  0
LINE
  5
57F1
  8
2
 10
59.0336687959255926
 20
100.0000000000000995
 30
0.0
 11
58.0336687959255926
 21
99.0000000000001137
 31
0.0
  0
LINE
  5
57F2
  8
2
 10
58.0336687959255926
 20
99.0000000000001137
 30
0.0
 11
42.033668795925557
 21
99.0000000000001137
 31
0.0
  0
LINE
  5
57F3
  8
2
 10
42.0336687959255926
 20
94.0000000000001137
 30
0.0
 11
58.0336687959255926
 21
94.0000000000001137
 31
0.0
  0
LINE
  5
57F4
  8
2
 10
40.0336687959255926
 20
92.0000000000001137
 30
0.0
 11
60.0336687959255926
 21
92.0000000000000568
 31
0.0
  0
LINE
  5
57F5
  8
2
 10
40.0336687959256423
 20
88.0000000000001137
 30
0.0
 11
60.0336687959255926
 21
88.0000000000000568
 31
0.0
  0
LINE
  5
57F6
  8
2
 10
68.2836687959255926
 20
88.0000000000000568
 30
0.0
 11
68.7836687959255926
 21
87.5000000000001137
 31
0.0
  0
LINE
  5
57F7
  8
2
 10
63.7836687959255926
 20
88.0000000000000568
 30
0.0
 11
68.2836687959255926
 21
88.0000000000000568
 31
0.0
  0
LINE
  5
57F8
  8
2
 10
40.0336687959255926
 20
88.0000000000000568
 30
0.0
 11
39.5336687959255926
 21
87.5000000000001137
 31
0.0
  0
LINE
  5
57F9
  8
2
 10
40.0336687959255926
 20
88.0000000000000568
 30
0.0
 11
40.0336687959255926
 21
92.0000000000000568
 31
0.0
  0
LINE
  5
57FA
  8
2
 10
40.0336687959255926
 20
92.0000000000000568
 30
0.0
 11
42.0336687959255926
 21
94.0000000000001137
 31
0.0
  0
LINE
  5
57FB
  8
2
 10
42.0336687959255926
 20
94.0000000000001137
 30
0.0
 11
42.0336687959255926
 21
99.0000000000001137
 31
0.0
  0
LINE
  5
57FC
  8
2
 10
41.0336687959255926
 20
100.0000000000000995
 30
0.0
 11
42.0336687959255926
 21
99.0000000000001137
 31
0.0
  0
LINE
  5
5803
  8
2
 10
68.2836687959255926
 20
95.5000000000001137
 30
0.0
 11
68.2836687959255926
 21
88.0000000000000568
 31
0.0
  0
LINE
  5
5807
  8
2
 10
38.0000000000000213
 20
100.000000000000199
 30
0.0
 11
37.9999999999999929
 21
95.500000000000199
 31
0.0
  0
LINE
  5
5808
  8
2
 10
30.4040820577345592
 20
95.5000000000002274
 30
0.0
 11
37.9999999999999787
 21
95.500000000000199
 31
0.0
  0
LINE
  5
5809
  8
2
 10
36.2163312040744074
 20
95.5000000000002132
 30
0.0
 11
36.2163312040743506
 21
88.0000000000001563
 31
0.0
  0
LINE
  5
580A
  8
2
 10
36.7163312040743506
 20
87.5000000000001847
 30
0.0
 11
36.2163312040743506
 21
88.0000000000001563
 31
0.0
  0
LINE
  5
580B
  8
2
 10
31.7163312040743506
 20
88.0000000000001847
 30
0.0
 11
31.2163312040743506
 21
87.5000000000002416
 31
0.0
  0
LINE
  5
580C
  8
2
 10
36.2163312040743506
 20
88.0000000000001563
 30
0.0
 11
31.7163312040743506
 21
88.0000000000001847
 31
0.0
  0
LINE
  5
580D
  8
2
 10
31.716331204074411
 20
95.5000000000002274
 30
0.0
 11
31.7163312040743506
 21
88.0000000000001847
 31
0.0
  0
LINE
  5
580E
  8
2
 10
47.7836687959256281
 20
95.5000000000001137
 30
0.0
 11
47.7836687959256281
 21
88.0000000000000568
 31
0.0
  0
LINE
  5
580F
  8
2
 10
47.283668795925621
 20
87.5000000000001137
 30
0.0
 11
47.7836687959256281
 21
88.0000000000000568
 31
0.0
  0
LINE
  5
5810
  8
2
 10
52.2836687959256281
 20
88.0000000000000568
 30
0.0
 11
52.7836687959256281
 21
87.5000000000001137
 31
0.0
  0
LINE
  5
5811
  8
2
 10
47.7836687959256281
 20
88.0000000000000568
 30
0.0
 11
52.2836687959256281
 21
88.0000000000000568
 31
0.0
  0
LINE
  5
5812
  8
2
 10
52.2836687959256281
 20
95.5000000000001137
 30
0.0
 11
52.2836687959256281
 21
88.0000000000000568
 31
0.0
  0
LINE
  5
5813
  8
2
 10
134.0
 20
100.0000000000000995
 30
0.0
 11
134.0
 21
95.5000000000001137
 31
0.0
  0
LINE
  5
5814
  8
2
 10
141.5959179422654017
 20
95.5000000000001137
 30
0.0
 11
134.0
 21
95.5000000000001137
 31
0.0
  0
LINE
  5
5815
  8
2
 10
135.7836687959255926
 20
95.5000000000001137
 30
0.0
 11
135.7836687959255926
 21
88.0000000000000568
 31
0.0
  0
LINE
  5
5816
  8
2
 10
135.2836687959255926
 20
87.5000000000001137
 30
0.0
 11
135.7836687959255926
 21
88.0000000000000568
 31
0.0
  0
LINE
  5
5817
  8
2
 10
132.0336687959255926
 20
88.0000000000000568
 30
0.0
 11
132.5336687959255926
 21
87.5000000000001137
 31
0.0
  0
LINE
  5
5818
  8
2
 10
132.0336687959255926
 20
88.0000000000000568
 30
0.0
 11
132.0336687959255926
 21
92.0000000000000568
 31
0.0
  0
LINE
  5
5819
  8
2
 10
132.0336687959255926
 20
92.0000000000000568
 30
0.0
 11
130.0336687959255926
 21
94.0000000000001137
 31
0.0
  0
LINE
  5
581A
  8
2
 10
130.0336687959255926
 20
94.0000000000001137
 30
0.0
 11
130.0336687959255926
 21
99.0000000000001137
 31
0.0
  0
LINE
  5
581B
  8
2
 10
131.0336687959255926
 20
100.0000000000000995
 30
0.0
 11
130.0336687959255926
 21
99.0000000000001137
 31
0.0
  0
LINE
  5
581C
  8
2
 10
130.0336687959255926
 20
99.0000000000001137
 30
0.0
 11
114.0336687959254931
 21
99.0000000000001137
 31
0.0
  0
LINE
  5
581D
  8
2
 10
114.0336687959256068
 20
94.0000000000001137
 30
0.0
 11
130.0336687959255926
 21
94.0000000000001137
 31
0.0
  0
LINE
  5
581E
  8
2
 10
112.0336687959256068
 20
92.0000000000001137
 30
0.0
 11
132.0336687959255926
 21
92.0000000000000568
 31
0.0
  0
LINE
  5
581F
  8
2
 10
112.0336687959256068
 20
88.0000000000001137
 30
0.0
 11
132.0336687959255926
 21
88.0000000000000568
 31
0.0
  0
LINE
  5
5820
  8
2
 10
140.2836687959255926
 20
88.0000000000000568
 30
0.0
 11
140.7836687959255926
 21
87.5000000000001137
 31
0.0
  0
LINE
  5
5821
  8
2
 10
135.7836687959255926
 20
88.0000000000000568
 30
0.0
 11
140.2836687959255926
 21
88.0000000000000568
 31
0.0
  0
LINE
  5
5822
  8
2
 10
112.0336687959256068
 20
88.0000000000000568
 30
0.0
 11
111.5336687959256068
 21
87.5000000000001137
 31
0.0
  0
LINE
  5
5823
  8
2
 10
112.0336687959256068
 20
88.0000000000000568
 30
0.0
 11
112.0336687959256068
 21
92.0000000000000568
 31
0.0
  0
LINE
  5
5824
  8
2
 10
112.0336687959256068
 20
92.0000000000000568
 30
0.0
 11
114.0336687959256068
 21
94.0000000000001137
 31
0.0
  0
LINE
  5
5825
  8
2
 10
114.0336687959256068
 20
94.0000000000001137
 30
0.0
 11
114.0336687959256068
 21
99.0000000000001137
 31
0.0
  0
LINE
  5
5826
  8
2
 10
113.0336687959256068
 20
100.0000000000000995
 30
0.0
 11
114.0336687959256068
 21
99.0000000000001137
 31
0.0
  0
LINE
  5
5827
  8
2
 10
140.2836687959255926
 20
95.5000000000001137
 30
0.0
 11
140.2836687959255926
 21
88.0000000000000568
 31
0.0
  0
LINE
  5
5828
  8
2
 10
110.0
 20
100.000000000000199
 30
0.0
 11
110.0
 21
95.500000000000199
 31
0.0
  0
LINE
  5
5829
  8
2
 10
102.4040820577344988
 20
95.5000000000002274
 30
0.0
 11
109.9999999999999005
 21
95.500000000000199
 31
0.0
  0
LINE
  5
582A
  8
2
 10
108.2163312040743932
 20
95.5000000000002132
 30
0.0
 11
108.2163312040742937
 21
88.0000000000001563
 31
0.0
  0
LINE
  5
582B
  8
2
 10
108.7163312040742937
 20
87.5000000000001847
 30
0.0
 11
108.2163312040742937
 21
88.0000000000001563
 31
0.0
  0
LINE
  5
582C
  8
2
 10
103.7163312040742937
 20
88.0000000000001847
 30
0.0
 11
103.2163312040742937
 21
87.5000000000002416
 31
0.0
  0
LINE
  5
582D
  8
2
 10
108.2163312040742937
 20
88.0000000000001563
 30
0.0
 11
103.7163312040742937
 21
88.0000000000001847
 31
0.0
  0
LINE
  5
582E
  8
2
 10
103.7163312040743932
 20
95.5000000000002274
 30
0.0
 11
103.7163312040742937
 21
88.0000000000001847
 31
0.0
  0
LINE
  5
582F
  8
2
 10
119.7836687959256068
 20
95.5000000000001137
 30
0.0
 11
119.7836687959256068
 21
88.0000000000000568
 31
0.0
  0
LINE
  5
5830
  8
2
 10
119.2836687959256068
 20
87.5000000000001137
 30
0.0
 11
119.7836687959256068
 21
88.0000000000000568
 31
0.0
  0
LINE
  5
5831
  8
2
 10
124.2836687959256068
 20
88.0000000000000568
 30
0.0
 11
124.7836687959256068
 21
87.5000000000001137
 31
0.0
  0
LINE
  5
5832
  8
2
 10
119.7836687959256068
 20
88.0000000000000568
 30
0.0
 11
124.2836687959256068
 21
88.0000000000000568
 31
0.0
  0
LINE
  5
5833
  8
2
 10
124.2836687959256068
 20
95.5000000000001137
 30
0.0
 11
124.2836687959256068
 21
88.0000000000000568
 31
0.0
  0
ENDSEC
  0
EOF
