  0
SECTION
  2
HEADER
  9
$ACADVER
  1
AC1009
  9
$INSBASE
 10
0.0
 20
0.0
 30
0.0
  9
$EXTMIN
 10
0.0
 20
-2.960436562073669
 30
0.0
  9
$EXTMAX
 10
141.9999999999998863
 20
175.0
 30
0.0
  9
$LIMMIN
 10
0.0
 20
0.0
  9
$LIMMAX
 10
375.0
 20
270.0
  9
$ORTHOMODE
 70
     1
  9
$REGENMODE
 70
     1
  9
$FILLMODE
 70
     1
  9
$QTEXTMODE
 70
     0
  9
$MIRRTEXT
 70
     0
  9
$DRAGMODE
 70
     2
  9
$LTSCALE
 40
5.0
  9
$OSMODE
 70
    37
  9
$ATTMODE
 70
     1
  9
$TEXTSIZE
 40
4.000000000000048
  9
$TRACEWID
 40
0.05
  9
$TEXTSTYLE
  7
STANDARD
  9
$CLAYER
  8
0
  9
$CELTYPE
  6
BYLAYER
  9
$CECOLOR
 62
   256
  9
$DIMSCALE
 40
1.0
  9
$DIMASZ
 40
3.0
  9
$DIMEXO
 40
2.0
  9
$DIMDLI
 40
0.38
  9
$DIMRND
 40
0.0
  9
$DIMDLE
 40
0.0
  9
$DIMEXE
 40
2.0
  9
$DIMTP
 40
0.0
  9
$DIMTM
 40
0.0
  9
$DIMTXT
 40
3.2000000000000002
  9
$DIMCEN
 40
0.0
  9
$DIMTSZ
 40
0.0
  9
$DIMTOL
 70
     0
  9
$DIMLIM
 70
     0
  9
$DIMTIH
 70
     0
  9
$DIMTOH
 70
     0
  9
$DIMSE1
 70
     0
  9
$DIMSE2
 70
     0
  9
$DIMTAD
 70
     1
  9
$DIMZIN
 70
     8
  9
$DIMBLK
  1

  9
$DIMASO
 70
     0
  9
$DIMSHO
 70
     0
  9
$DIMPOST
  1

  9
$DIMAPOST
  1

  9
$DIMALT
 70
     0
  9
$DIMALTD
 70
     2
  9
$DIMALTF
 40
25.3999999999999986
  9
$DIMLFAC
 40
1.0
  9
$DIMTOFL
 70
     0
  9
$DIMTVP
 40
1.6000000000000001
  9
$DIMTIX
 70
     1
  9
$DIMSOXD
 70
     0
  9
$DIMSAH
 70
     0
  9
$DIMBLK1
  1

  9
$DIMBLK2
  1

  9
$DIMSTYLE
  2
STANDARD
  9
$DIMCLRD
 70
     4
  9
$DIMCLRE
 70
     4
  9
$DIMCLRT
 70
     4
  9
$DIMTFAC
 40
1.0
  9
$DIMGAP
 40
0.09
  9
$LUNITS
 70
     2
  9
$LUPREC
 70
     1
  9
$SKETCHINC
 40
0.1
  9
$FILLETRAD
 40
22.0
  9
$AUNITS
 70
     0
  9
$AUPREC
 70
     0
  9
$MENU
  1
E:\r13\win\SUPPORT\ACAD
  9
$ELEVATION
 40
0.0
  9
$PELEVATION
 40
0.0
  9
$THICKNESS
 40
0.0
  9
$LIMCHECK
 70
     0
  9
$BLIPMODE
 70
     0
  9
$CHAMFERA
 40
1.1999999999999991
  9
$CHAMFERB
 40
1.1999999999999991
  9
$SKPOLY
 70
     0
  9
$TDCREATE
 40
2449954.6020138887688518
  9
$TDUPDATE
 40
2460651.6462962958030403
  9
$TDINDWG
 40
0.7794267824
  9
$TDUSRTIMER
 40
0.7794267824
  9
$USRTIMER
 70
     1
  9
$ANGBASE
 50
0.0
  9
$ANGDIR
 70
     0
  9
$PDMODE
 70
     0
  9
$PDSIZE
 40
0.0
  9
$PLINEWID
 40
0.0
  9
$COORDS
 70
     1
  9
$SPLFRAME
 70
     0
  9
$SPLINETYPE
 70
     6
  9
$SPLINESEGS
 70
     8
  9
$ATTDIA
 70
     1
  9
$ATTREQ
 70
     1
  9
$HANDLING
 70
     1
  9
$HANDSEED
  5
5876
  9
$SURFTAB1
 70
     6
  9
$SURFTAB2
 70
     6
  9
$SURFTYPE
 70
     6
  9
$SURFU
 70
     6
  9
$SURFV
 70
     6
  9
$UCSNAME
  2

  9
$UCSORG
 10
0.0
 20
0.0
 30
0.0
  9
$UCSXDIR
 10
1.0
 20
0.0
 30
0.0
  9
$UCSYDIR
 10
0.0
 20
1.0
 30
0.0
  9
$PUCSNAME
  2

  9
$PUCSORG
 10
0.0
 20
0.0
 30
0.0
  9
$PUCSXDIR
 10
1.0
 20
0.0
 30
0.0
  9
$PUCSYDIR
 10
0.0
 20
1.0
 30
0.0
  9
$USERI1
 70
     0
  9
$USERI2
 70
     1
  9
$USERI3
 70
     0
  9
$USERI4
 70
     0
  9
$USERI5
 70
     0
  9
$USERR1
 40
0.0
  9
$USERR2
 40
0.0
  9
$USERR3
 40
0.0
  9
$USERR4
 40
0.0
  9
$USERR5
 40
0.0
  9
$WORLDVIEW
 70
     1
  9
$SHADEDGE
 70
     3
  9
$SHADEDIF
 70
    70
  9
$TILEMODE
 70
     1
  9
$MAXACTVP
 70
    16
  9
$PLIMCHECK
 70
     0
  9
$PEXTMIN
 10
1.0000000000000000E+20
 20
1.0000000000000000E+20
 30
1.0000000000000000E+20
  9
$PEXTMAX
 10
-1.0000000000000000E+20
 20
-1.0000000000000000E+20
 30
-1.0000000000000000E+20
  9
$PLIMMIN
 10
0.0
 20
0.0
  9
$PLIMMAX
 10
12.0
 20
9.0
  9
$UNITMODE
 70
     0
  9
$VISRETAIN
 70
     0
  9
$PLINEGEN
 70
     0
  9
$PSLTSCALE
 70
     0
  0
ENDSEC
  0
SECTION
  2
TABLES
  0
TABLE
  2
VPORT
 70
     1
  0
VPORT
  2
*ACTIVE
 70
     0
 10
0.0
 20
0.0
 11
1.0
 21
1.0
 12
305.1020408163265074
 22
129.9123529852423076
 13
0.0
 23
0.0
 14
10.0
 24
10.0
 15
10.0
 25
10.0
 16
0.0
 26
0.0
 36
1.0
 17
0.0
 27
0.0
 37
0.0
 40
259.824705970484672
 41
2.3485221674876842
 42
50.0
 43
0.0
 44
0.0
 50
0.0
 51
0.0
 71
     0
 72
   500
 73
     1
 74
     0
 75
     0
 76
     0
 77
     0
 78
     2
  0
ENDTAB
  0
TABLE
  2
LTYPE
 70
     4
  0
LTYPE
  2
CONTINUOUS
 70
     0
  3
Solid Line
 72
    65
 73
     0
 40
0.0
  0
LTYPE
  2
CENTER
 70
     0
  3
____ _ ____ _ ____ _ ____ _ ____ _ ____ _ ____
 72
    65
 73
     4
 40
2.0
 49
1.25
 49
-0.25
 49
0.25
 49
-0.25
  0
LTYPE
  2
PHANTOM2
 70
     0
  3
___ _ _ ___ _ _ ___ _ _ ___ _ _
 72
    65
 73
     6
 40
1.25
 49
0.625
 49
-0.125
 49
0.125
 49
-0.125
 49
0.125
 49
-0.125
  0
LTYPE
  2
HIDDEN
 70
     0
  3
__ __ __ __ __ __ __ __ __ __ __ __ __ __ __ __
 72
    65
 73
     2
 40
0.375
 49
0.25
 49
-0.125
  0
ENDTAB
  0
TABLE
  2
LAYER
 70
     5
  0
LAYER
  2
0
 70
     0
 62
     7
  6
CONTINUOUS
  0
LAYER
  2
1
 70
     0
 62
     1
  6
CENTER
  0
LAYER
  2
3
 70
     0
 62
     3
  6
CONTINUOUS
  0
LAYER
  2
DEFPOINTS
 70
     0
 62
     7
  6
CONTINUOUS
  0
LAYER
  2
2
 70
     0
 62
     2
  6
HIDDEN
  0
ENDTAB
  0
TABLE
  2
STYLE
 70
     2
  0
STYLE
  2
STANDARD
 70
     0
 40
0.0
 41
1.0
 50
0.0
 71
     0
 42
4.000000000000048
  3
SIMPLEX
  4
BIGFONT
  0
STYLE
  2
STANDARD1
 70
     0
 40
0.0
 41
1.0
 50
0.0
 71
     0
 42
3.0
  3
txt
  4

  0
ENDTAB
  0
TABLE
  2
VIEW
 70
     1
  0
VIEW
  2
ALL
 70
     0
 40
270.0
 10
220.785953177257511
 20
135.0
 41
441.571906354515022
 11
0.0
 21
0.0
 31
1.0
 12
0.0
 22
0.0
 32
0.0
 42
50.0
 43
0.0
 44
0.0
 50
0.0
 71
     0
  0
ENDTAB
  0
TABLE
  2
UCS
 70
     0
  0
ENDTAB
  0
TABLE
  2
APPID
 70
    12
  0
APPID
  2
ACAD
 70
     0
  0
APPID
  2
ACAD_EXEMPT_FROM_CAD_STANDARDS
 70
     0
  0
APPID
  2
ACAD_MLEADERVER
 70
     0
  0
APPID
  2
ACAD_NAV_VCDISPLAY
 70
     0
  0
APPID
  2
ACAD_DSTYLE_DIMJAG
 70
     0
  0
APPID
  2
ACAD_DSTYLE_DIMTALN
 70
     0
  0
APPID
  2
ACAECLAYERSTANDARD
 70
     0
  0
APPID
  2
ACCMTRANSPARENCY
 70
     0
  0
APPID
  2
ACAD_PSEXT
 70
     0
  0
APPID
  2
ACAD_DSTYLE_DIMBREAK
 70
     0
  0
APPID
  2
GRADIENTCOLOR1ACI
 70
     0
  0
APPID
  2
GRADIENTCOLOR2ACI
 70
     0
  0
ENDTAB
  0
TABLE
  2
DIMSTYLE
 70
     1
  0
DIMSTYLE
  2
STANDARD
 70
     0
  3

  4

  5

  6

  7

 40
1.0
 41
0.18
 42
0.0625
 43
0.38
 44
0.18
 45
0.0
 46
0.0
 47
0.0
 48
0.0
140
0.18
141
0.09
142
0.0
143
25.3999999999999986
144
1.0
145
0.0
146
1.0
147
0.09
 71
     0
 72
     0
 73
     1
 74
     1
 75
     0
 76
     0
 77
     0
 78
     0
170
     0
171
     2
172
     0
173
     0
174
     0
175
     0
176
     0
177
     0
178
     0
  0
ENDTAB
  0
ENDSEC
  0
SECTION
  2
BLOCKS
  0
BLOCK
  8
0
  2
$MODEL_SPACE
 70
     0
 10
0.0
 20
0.0
 30
0.0
  3
$MODEL_SPACE
  1

  0
ENDBLK
  5
1126
  8
0
  0
BLOCK
 67
     1
  8
0
  2
$PAPER_SPACE
 70
     0
 10
0.0
 20
0.0
 30
0.0
  3
$PAPER_SPACE
  1

  0
ENDBLK
  5
1124
 67
     1
  8
0
  0
ENDSEC
  0
SECTION
  2
ENTITIES
  0
TEXT
  5
5088
  8
0
 62
     3
 10
0.0
 20
0.0
 30
0.0
 40
10.0
  1
CP745-1640L
  7
STANDARD1
  0
LINE
  5
553B
  8
0
 10
69.9999999999999716
 20
90.0
 30
0.0
 11
69.9999999999999716
 21
95.5000000000001137
 31
0.0
  0
LINE
  5
553C
  8
0
 10
29.9999999999999787
 20
95.5000000000001137
 30
0.0
 11
29.9999999999999787
 21
90.0
 31
0.0
  0
LINE
  5
553D
  8
0
 10
30.1000000000000014
 20
88.0
 30
0.0
 11
30.6000000000000014
 21
87.5000000000001137
 31
0.0
  0
LINE
  5
553E
  8
0
 10
69.4000000000000057
 20
87.5000000000001137
 30
0.0
 11
69.9000000000000057
 21
88.0
 31
0.0
  0
LINE
  5
553F
  8
0
 10
69.9000000000000057
 20
88.0
 30
0.0
 11
69.9000000000000057
 21
90.0
 31
0.0
  0
LINE
  5
5540
  8
0
 10
30.1000000000000014
 20
90.0
 30
0.0
 11
30.1000000000000014
 21
88.0
 31
0.0
  0
LINE
  5
5541
  8
0
 10
54.0000000000000568
 20
95.5000000000001137
 30
0.0
 11
54.0000000000000568
 21
100.0
 31
0.0
  0
LINE
  5
5542
  8
0
 10
69.5959179422654302
 20
99.5000000000001137
 30
0.0
 11
54.0000000000000568
 21
99.5000000000001137
 31
0.0
  0
LINE
  5
5543
  8
0
 10
69.5959179422654302
 20
95.5000000000001137
 30
0.0
 11
69.5959179422654302
 21
99.5000000000001137
 31
0.0
  0
LINE
  5
5544
  8
0
 10
69.5959179422654302
 20
95.5000000000001137
 30
0.0
 11
69.9999999999999716
 21
95.5000000000001137
 31
0.0
  0
LINE
  5
5545
  8
0
 10
29.9999999999999787
 20
95.5000000000001137
 30
0.0
 11
30.4040820577346089
 21
95.5000000000001137
 31
0.0
  0
LINE
  5
5546
  8
0
 10
30.4040820577346089
 20
95.5000000000001137
 30
0.0
 11
30.4040820577346089
 21
99.5000000000001137
 31
0.0
  0
LINE
  5
5547
  8
0
 10
46.0000000000000568
 20
99.5000000000001137
 30
0.0
 11
30.4040820577346089
 21
99.5000000000001137
 31
0.0
  0
LINE
  5
5548
  8
0
 10
46.0000000000000568
 20
95.5000000000001137
 30
0.0
 11
46.0000000000000568
 21
100.0
 31
0.0
  0
LINE
  5
5549
  8
0
 10
46.0000000000000568
 20
95.5000000000001137
 30
0.0
 11
54.0000000000000568
 21
95.5000000000001137
 31
0.0
  0
LINE
  5
554A
  8
0
 10
69.9999999999999716
 20
90.0
 30
0.0
 11
29.9999999999999787
 21
90.0
 31
0.0
  0
LINE
  5
554B
  8
0
 10
69.4000000000000057
 20
87.5000000000001137
 30
0.0
 11
30.6000000000000014
 21
87.5000000000001137
 31
0.0
  0
LINE
  5
554C
  8
0
 10
30.1000000000000014
 20
88.0
 30
0.0
 11
69.899999999999892
 21
88.0
 31
0.0
  0
LINE
  5
554E
  8
0
 10
30.9146653160076816
 20
100.0
 30
0.0
 11
69.085334683992329
 21
100.0
 31
0.0
  0
CIRCLE
  5
5552
  8
0
 10
49.9999999999999716
 20
50.0
 30
0.0
 40
19.3999999999999915
  0
CIRCLE
  5
5553
  8
0
 10
49.9999999999999716
 20
50.0
 30
0.0
 40
19.8999999999999915
  0
CIRCLE
  5
5554
  8
3
 10
39.3933982822017867
 20
60.6066017177982417
 30
0.0
 40
2.5
  0
CIRCLE
  5
5555
  8
0
 10
49.9999999999999716
 20
50.0
 30
0.0
 40
10.4999999999999805
  0
CIRCLE
  5
5556
  8
0
 10
49.9999999999998295
 20
34.0000000000000568
 30
0.0
 40
2.75
  0
CIRCLE
  5
5557
  8
0
 10
66.0
 20
49.9999999999998934
 30
0.0
 40
2.75
  0
CIRCLE
  5
5558
  8
0
 10
50.0000000000000284
 20
66.0
 30
0.0
 40
2.75
  0
CIRCLE
  5
5559
  8
0
 10
33.9999999999999716
 20
50.0
 30
0.0
 40
2.75
  0
CIRCLE
  5
555A
  8
3
 10
60.6066017177982133
 20
39.3933982822018223
 30
0.0
 40
2.5
  0
CIRCLE
  5
555B
  8
0
 10
49.9999999999998295
 20
34.0000000000000568
 30
0.0
 40
2.25
  0
CIRCLE
  5
555C
  8
0
 10
49.9999999999999716
 20
50.0
 30
0.0
 40
9.9999999999999858
  0
CIRCLE
  5
555D
  8
0
 10
33.9999999999999716
 20
50.0
 30
0.0
 40
2.25
  0
CIRCLE
  5
555E
  8
0
 10
66.0
 20
49.9999999999998934
 30
0.0
 40
2.25
  0
CIRCLE
  5
555F
  8
0
 10
50.0000000000000284
 20
66.0
 30
0.0
 40
2.25
  0
CIRCLE
  5
5560
  8
0
 10
49.9999999999999716
 20
50.0
 30
0.0
 40
20.0
  0
CIRCLE
  5
5561
  8
0
 10
49.9999999999999716
 20
50.0
 30
0.0
 40
7.9999999999999849
  0
LINE
  5
5562
  8
0
 10
141.9999999999998863
 20
90.0
 30
0.0
 11
141.9999999999998863
 21
95.5000000000001137
 31
0.0
  0
LINE
  5
5563
  8
0
 10
102.0
 20
95.5000000000001137
 30
0.0
 11
102.0
 21
90.0
 31
0.0
  0
LINE
  5
5564
  8
0
 10
141.9000000000000057
 20
88.0
 30
0.0
 11
141.9000000000000057
 21
90.0
 31
0.0
  0
LINE
  5
5565
  8
0
 10
102.0999999999998948
 20
90.0
 30
0.0
 11
102.0999999999998948
 21
88.0
 31
0.0
  0
LINE
  5
5566
  8
0
 10
102.0999999999998948
 20
88.0
 30
0.0
 11
102.5999999999998948
 21
87.5000000000001137
 31
0.0
  0
LINE
  5
5567
  8
0
 10
141.399999999999892
 20
87.5000000000001137
 30
0.0
 11
141.9000000000000057
 21
88.0
 31
0.0
  0
LINE
  5
5568
  8
0
 10
102.0
 20
95.5000000000001137
 30
0.0
 11
102.4040820577344988
 21
95.5000000000001137
 31
0.0
  0
LINE
  5
5569
  8
0
 10
102.4040820577344988
 20
95.5000000000001137
 30
0.0
 11
102.4040820577344988
 21
99.5000000000001137
 31
0.0
  0
LINE
  5
556A
  8
0
 10
118.0000000000000995
 20
99.5000000000001137
 30
0.0
 11
102.4040820577344988
 21
99.5000000000001137
 31
0.0
  0
LINE
  5
556B
  8
0
 10
118.0000000000000995
 20
95.5000000000001137
 30
0.0
 11
118.0000000000000995
 21
99.5000000000001137
 31
0.0
  0
LINE
  5
556C
  8
0
 10
118.0000000000000995
 20
95.5000000000001137
 30
0.0
 11
126.0000000000000995
 21
95.5000000000001137
 31
0.0
  0
LINE
  5
556D
  8
0
 10
126.0000000000000995
 20
95.5000000000001137
 30
0.0
 11
126.0000000000000995
 21
99.5000000000001137
 31
0.0
  0
LINE
  5
556E
  8
0
 10
141.5959179422654017
 20
99.5000000000001137
 30
0.0
 11
126.0000000000000995
 21
99.5000000000001137
 31
0.0
  0
LINE
  5
556F
  8
0
 10
141.5959179422654017
 20
95.5000000000001137
 30
0.0
 11
141.5959179422654017
 21
99.5000000000001137
 31
0.0
  0
LINE
  5
5570
  8
0
 10
141.5959179422654017
 20
95.5000000000001137
 30
0.0
 11
141.9999999999998863
 21
95.5000000000001137
 31
0.0
  0
LINE
  5
5571
  8
0
 10
141.9999999999998863
 20
90.0
 30
0.0
 11
102.0
 21
90.0
 31
0.0
  0
LINE
  5
5572
  8
0
 10
102.0999999999999943
 20
88.0
 30
0.0
 11
141.8999999999998067
 21
88.0
 31
0.0
  0
LINE
  5
5573
  8
0
 10
141.399999999999892
 20
87.5000000000001137
 30
0.0
 11
102.5999999999998948
 21
87.5000000000001137
 31
0.0
  0
LINE
  5
5577
  8
0
 10
102.9146653160076994
 20
100.0
 30
0.0
 11
141.0853346839923006
 21
100.0
 31
0.0
  0
ARC
  5
5579
  8
0
 10
33.9999999999999787
 20
150.0
 30
0.0
 40
4.0
 50
270.0
 51
90.0
  0
LINE
  5
557A
  8
0
 10
33.9999999999999787
 20
154.0
 30
0.0
 11
30.9146653160076816
 21
154.0
 31
0.0
  0
ARC
  5
557B
  8
0
 10
49.9999999999999787
 20
150.0
 30
0.0
 40
19.4999999999999787
 50
101.8370041558952011
 51
168.1629958441052111
  0
LINE
  5
557C
  8
0
 10
45.999999999999801
 20
169.0853346839921869
 30
0.0
 11
45.9999999999998295
 21
166.0
 31
0.0
  0
ARC
  5
557D
  8
0
 10
49.9999999999998366
 20
166.0
 30
0.0
 40
4.0
 50
180.0
 51
0.0
  0
LINE
  5
557E
  8
0
 10
53.9999999999998366
 20
166.0
 30
0.0
 11
53.999999999999801
 21
169.0853346839923006
 31
0.0
  0
ARC
  5
557F
  8
0
 10
49.9999999999999787
 20
150.0
 30
0.0
 40
19.5
 50
11.8370041558947303
 51
78.1629958441064758
  0
LINE
  5
5580
  8
0
 10
69.0853346839922722
 20
154.0000000000001137
 30
0.0
 11
66.0
 21
154.0000000000001137
 31
0.0
  0
ARC
  5
5581
  8
0
 10
66.0
 20
150.0000000000001137
 30
0.0
 40
4.0
 50
90.0
 51
270.0
  0
LINE
  5
5582
  8
0
 10
66.0
 20
146.0000000000001137
 30
0.0
 11
69.085334683992329
 21
146.0000000000001137
 31
0.0
  0
ARC
  5
5583
  8
0
 10
49.9999999999999787
 20
150.0
 30
0.0
 40
19.5000000000000107
 50
281.8370041558952153
 51
348.1629958441080817
  0
LINE
  5
5584
  8
0
 10
54.0000000000000568
 20
130.9146653160076994
 30
0.0
 11
54.0000000000000568
 21
134.0
 31
0.0
  0
ARC
  5
5585
  8
0
 10
50.0000000000000284
 20
134.0
 30
0.0
 40
4.0000000000000142
 50
0.0
 51
180.0
  0
ARC
  5
5586
  8
0
 10
49.9999999999999787
 20
150.0
 30
0.0
 40
19.4999999999999787
 50
191.8370041558949026
 51
258.16299584410649
  0
LINE
  5
5587
  8
0
 10
30.9146653160076816
 20
146.0
 30
0.0
 11
33.9999999999999787
 21
146.0
 31
0.0
  0
CIRCLE
  5
5588
  8
0
 10
49.9999999999999787
 20
150.0
 30
0.0
 40
9.0000000000000142
  0
LINE
  5
5589
  8
0
 10
46.0000000000000426
 20
134.0
 30
0.0
 11
46.0000000000000568
 21
130.9146653160076994
 31
0.0
  0
CIRCLE
  5
5590
  8
0
 10
60.6066017177982204
 20
160.6066017177980996
 30
0.0
 40
2.75
  0
CIRCLE
  5
5591
  8
0
 10
49.9999999999999787
 20
150.0
 30
0.0
 40
8.0000000000000142
  0
CIRCLE
  5
5594
  8
0
 10
39.3933982822016802
 20
139.3933982822017867
 30
0.0
 40
2.7500000000000142
  0
CIRCLE
  5
5595
  8
0
 10
50.0000000000000284
 20
134.0
 30
0.0
 40
2.2499999999998859
  0
CIRCLE
  5
5596
  8
0
 10
33.9999999999999787
 20
150.0
 30
0.0
 40
2.2500000000000142
  0
CIRCLE
  5
5597
  8
0
 10
66.0
 20
150.0000000000001137
 30
0.0
 40
2.25
  0
CIRCLE
  5
5598
  8
0
 10
49.9999999999998366
 20
166.0
 30
0.0
 40
2.25
  0
CIRCLE
  5
5599
  8
3
 10
60.6066017177982204
 20
160.6066017177980996
 30
0.0
 40
2.5
  0
CIRCLE
  5
559A
  8
3
 10
39.3933982822017867
 20
139.3933982822017867
 30
0.0
 40
2.5
  0
LINE
  5
559B
  8
1
 10
75.0
 20
50.0
 30
0.0
 11
24.9999999999999716
 21
50.0
 31
0.0
  0
LINE
  5
559C
  8
1
 10
49.9999999999999716
 20
25.0
 30
0.0
 11
49.9999999999999716
 21
75.0
 31
0.0
  0
LINE
  5
559D
  8
1
 10
50.0
 20
82.5000000000001137
 30
0.0
 11
50.0000000000000711
 21
105.0
 31
0.0
  0
LINE
  5
559E
  8
1
 10
121.9999999999999005
 20
82.5000000000001137
 30
0.0
 11
122.0
 21
105.0
 31
0.0
  0
LINE
  5
559F
  8
1
 10
75.0
 20
150.0
 30
0.0
 11
24.9999999999999787
 21
150.0
 31
0.0
  0
LINE
  5
55A0
  8
1
 10
49.9999999999999787
 20
125.0
 30
0.0
 11
49.9999999999999787
 21
175.0
 31
0.0
  0
CIRCLE
  5
55A1
  8
0
 10
60.6066017177982133
 20
39.3933982822018223
 30
0.0
 40
2.0669999999999988
  0
CIRCLE
  5
55A2
  8
0
 10
39.3933982822017867
 20
60.6066017177982417
 30
0.0
 40
2.0669999999999988
  0
CIRCLE
  5
55A3
  8
1
 10
50.0
 20
50.0
 30
0.0
 40
16.0
  0
CIRCLE
  5
55A7
  8
0
 10
39.3933982822017867
 20
139.3933982822017867
 30
0.0
 40
2.0669999999999988
  0
CIRCLE
  5
55A8
  8
0
 10
60.6066017177982488
 20
160.6066017177982133
 30
0.0
 40
2.0669999999999988
  0
CIRCLE
  5
55A9
  8
0
 10
49.9999999999999787
 20
150.0
 30
0.0
 40
20.0
  0
LINE
  5
55AA
  8
1
 10
66.0
 20
84.5000000000001137
 30
0.0
 11
66.0
 21
103.0
 31
0.0
  0
LINE
  5
55AB
  8
1
 10
33.9999999999998366
 20
84.5000000000003411
 30
0.0
 11
34.0000000000001208
 21
103.000000000000199
 31
0.0
  0
CIRCLE
  5
55AC
  8
1
 10
49.9999999999999787
 20
150.0
 30
0.0
 40
16.0
  0
LINE
  5
55B2
  8
1
 10
137.9999999999998863
 20
84.5000000000001137
 30
0.0
 11
137.9999999999998863
 21
103.0
 31
0.0
  0
LINE
  5
55B3
  8
1
 10
105.999999999999801
 20
84.5000000000003411
 30
0.0
 11
106.0000000000000995
 21
103.000000000000199
 31
0.0
  0
POLYLINE
  5
55D3
  8
0
 66
     1
 10
0.0
 20
0.0
 30
0.0
  0
VERTEX
  5
584C
  8
0
 10
46.0000000000000568
 20
130.9146653160076994
 30
0.0
  0
VERTEX
  5
584D
  8
0
 10
46.0000000000000568
 20
130.404082057734513
 30
0.0
  0
SEQEND
  5
584E
  8
0
  0
POLYLINE
  5
55D4
  8
0
 66
     1
 10
0.0
 20
0.0
 30
0.0
  0
VERTEX
  5
584F
  8
0
 10
30.4040820577345485
 20
146.0
 30
0.0
  0
VERTEX
  5
5850
  8
0
 10
30.9146653160076816
 20
146.0
 30
0.0
  0
SEQEND
  5
5851
  8
0
  0
POLYLINE
  5
55D5
  8
0
 66
     1
 10
0.0
 20
0.0
 30
0.0
  0
VERTEX
  5
5852
  8
0
 10
30.9146653160076816
 20
154.0
 30
0.0
  0
VERTEX
  5
5853
  8
0
 10
30.4040820577345485
 20
154.0
 30
0.0
  0
SEQEND
  5
5854
  8
0
  0
POLYLINE
  5
55D6
  8
0
 66
     1
 10
0.0
 20
0.0
 30
0.0
  0
VERTEX
  5
5855
  8
0
 10
45.999999999999801
 20
169.5959179422654017
 30
0.0
  0
VERTEX
  5
5856
  8
0
 10
45.999999999999801
 20
169.0853346839921869
 30
0.0
  0
SEQEND
  5
5857
  8
0
  0
POLYLINE
  5
55D7
  8
0
 66
     1
 10
0.0
 20
0.0
 30
0.0
  0
VERTEX
  5
5858
  8
0
 10
53.999999999999801
 20
169.0853346839923006
 30
0.0
  0
VERTEX
  5
5859
  8
0
 10
53.9999999999997797
 20
169.5959179422654017
 30
0.0
  0
SEQEND
  5
585A
  8
0
  0
POLYLINE
  5
55D8
  8
0
 66
     1
 10
0.0
 20
0.0
 30
0.0
  0
VERTEX
  5
585B
  8
0
 10
69.5959179422653733
 20
154.0000000000001137
 30
0.0
  0
VERTEX
  5
585C
  8
0
 10
69.0853346839922722
 20
154.0000000000001137
 30
0.0
  0
SEQEND
  5
585D
  8
0
  0
POLYLINE
  5
55D9
  8
0
 66
     1
 10
0.0
 20
0.0
 30
0.0
  0
VERTEX
  5
585E
  8
0
 10
69.085334683992329
 20
146.0000000000001137
 30
0.0
  0
VERTEX
  5
585F
  8
0
 10
69.5959179422654302
 20
146.0000000000001137
 30
0.0
  0
SEQEND
  5
5860
  8
0
  0
POLYLINE
  5
55DA
  8
0
 66
     1
 10
0.0
 20
0.0
 30
0.0
  0
VERTEX
  5
5861
  8
0
 10
54.0000000000000568
 20
130.404082057734513
 30
0.0
  0
VERTEX
  5
5862
  8
0
 10
54.0000000000000568
 20
130.9146653160076994
 30
0.0
  0
SEQEND
  5
5863
  8
0
  0
POLYLINE
  5
55DB
  8
0
 66
     1
 10
0.0
 20
0.0
 30
0.0
  0
VERTEX
  5
5864
  8
0
 10
118.0000000000000995
 20
100.0
 30
0.0
  0
VERTEX
  5
5865
  8
0
 10
118.0000000000000995
 20
99.5000000000001137
 30
0.0
  0
SEQEND
  5
5866
  8
0
  0
POLYLINE
  5
55DC
  8
0
 66
     1
 10
0.0
 20
0.0
 30
0.0
  0
VERTEX
  5
5867
  8
0
 10
102.4040820577344988
 20
99.5000000000001137
 30
0.0
  0
VERTEX
  5
5868
  8
0
 10
102.9146653160076994
 20
100.0
 30
0.0
  0
SEQEND
  5
5869
  8
0
  0
POLYLINE
  5
55DD
  8
0
 66
     1
 10
0.0
 20
0.0
 30
0.0
  0
VERTEX
  5
586A
  8
0
 10
141.0853346839923006
 20
100.0
 30
0.0
  0
VERTEX
  5
586B
  8
0
 10
141.5959179422654017
 20
99.5000000000001137
 30
0.0
  0
SEQEND
  5
586C
  8
0
  0
POLYLINE
  5
55DE
  8
0
 66
     1
 10
0.0
 20
0.0
 30
0.0
  0
VERTEX
  5
586D
  8
0
 10
126.0000000000000995
 20
99.5000000000001137
 30
0.0
  0
VERTEX
  5
586E
  8
0
 10
126.0000000000000995
 20
100.0
 30
0.0
  0
SEQEND
  5
586F
  8
0
  0
POLYLINE
  5
55DF
  8
0
 66
     1
 10
0.0
 20
0.0
 30
0.0
  0
VERTEX
  5
5870
  8
0
 10
69.085334683992329
 20
100.0
 30
0.0
  0
VERTEX
  5
5871
  8
0
 10
69.5959179422654302
 20
99.5000000000001137
 30
0.0
  0
SEQEND
  5
5872
  8
0
  0
POLYLINE
  5
55E2
  8
0
 66
     1
 10
0.0
 20
0.0
 30
0.0
  0
VERTEX
  5
5873
  8
0
 10
30.4040820577345485
 20
99.5000000000001137
 30
0.0
  0
VERTEX
  5
5874
  8
0
 10
30.9146653160076816
 20
100.0
 30
0.0
  0
SEQEND
  5
5875
  8
0
  0
LINE
  5
577D
  8
2
 10
58.0000000000000284
 20
99.0000000000001137
 30
0.0
 11
59.0000000000000284
 21
100.0000000000000995
 31
0.0
  0
LINE
  5
577E
  8
2
 10
62.0000000000000213
 20
95.5000000000001137
 30
0.0
 11
62.0000000000000213
 21
100.0000000000000995
 31
0.0
  0
LINE
  5
577F
  8
2
 10
62.0000000000000213
 20
95.5000000000001137
 30
0.0
 11
69.5959179422654302
 21
95.5000000000001137
 31
0.0
  0
LINE
  5
5780
  8
2
 10
63.7500000000000284
 20
88.0000000000001137
 30
0.0
 11
63.7500000000000284
 21
95.5000000000001137
 31
0.0
  0
LINE
  5
5781
  8
2
 10
63.7500000000000284
 20
88.0000000000001137
 30
0.0
 11
63.2500000000000213
 21
87.5000000000001137
 31
0.0
  0
LINE
  5
5782
  8
2
 10
60.5000000000000284
 20
87.5000000000001137
 30
0.0
 11
60.0000000000000284
 21
88.0000000000001137
 31
0.0
  0
LINE
  5
5783
  8
2
 10
60.0000000000000284
 20
92.0000000000001137
 30
0.0
 11
60.0000000000000284
 21
88.0000000000001137
 31
0.0
  0
LINE
  5
5784
  8
2
 10
58.0000000000000284
 20
94.0000000000001137
 30
0.0
 11
60.0000000000000284
 21
92.0000000000001137
 31
0.0
  0
LINE
  5
5785
  8
2
 10
58.0000000000000284
 20
99.0000000000001137
 30
0.0
 11
58.0000000000000284
 21
94.0000000000001137
 31
0.0
  0
LINE
  5
5786
  8
2
 10
58.0000000000000284
 20
99.0000000000001137
 30
0.0
 11
42.0000000000000924
 21
99.0000000000001137
 31
0.0
  0
LINE
  5
5787
  8
2
 10
41.9999999999999574
 20
94.0000000000001137
 30
0.0
 11
58.0000000000000284
 21
94.0000000000001137
 31
0.0
  0
LINE
  5
5788
  8
2
 10
68.7500000000000284
 20
87.5000000000001137
 30
0.0
 11
68.2500000000000142
 21
88.0000000000001137
 31
0.0
  0
LINE
  5
5789
  8
2
 10
68.2500000000000142
 20
95.5000000000001137
 30
0.0
 11
68.2500000000000142
 21
88.0000000000001137
 31
0.0
  0
LINE
  5
578A
  8
2
 10
40.0
 20
92.0000000000000426
 30
0.0
 11
60.0000000000000284
 21
92.0000000000001137
 31
0.0
  0
LINE
  5
578B
  8
2
 10
63.7500000000000284
 20
88.0000000000001137
 30
0.0
 11
68.2500000000000142
 21
88.0000000000001137
 31
0.0
  0
LINE
  5
578D
  8
2
 10
42.0000000000000568
 20
99.0000000000001847
 30
0.0
 11
41.0000000000000711
 21
100.0000000000000995
 31
0.0
  0
LINE
  5
578E
  8
2
 10
39.4999999999999716
 20
87.5000000000001847
 30
0.0
 11
39.9999999999999787
 21
88.000000000000199
 31
0.0
  0
LINE
  5
578F
  8
2
 10
40.0
 20
92.000000000000199
 30
0.0
 11
39.9999999999999787
 21
88.000000000000199
 31
0.0
  0
LINE
  5
5790
  8
2
 10
42.0000000000000071
 20
94.0000000000001847
 30
0.0
 11
40.0
 21
92.000000000000199
 31
0.0
  0
LINE
  5
5791
  8
2
 10
42.0000000000000568
 20
99.0000000000001847
 30
0.0
 11
42.0000000000000071
 21
94.0000000000001847
 31
0.0
  0
LINE
  5
5795
  8
2
 10
60.0000000000000284
 20
88.0000000000001137
 30
0.0
 11
39.9999999999999787
 21
88.000000000000199
 31
0.0
  0
LINE
  5
5796
  8
2
 10
38.0000000000000426
 20
95.5000000000002132
 30
0.0
 11
38.0000000000000711
 21
100.000000000000199
 31
0.0
  0
LINE
  5
5797
  8
2
 10
38.0000000000000426
 20
95.5000000000002132
 30
0.0
 11
30.4040820577346302
 21
95.50000000000027
 31
0.0
  0
LINE
  5
5798
  8
2
 10
36.2499999999999787
 20
88.0000000000002274
 30
0.0
 11
36.2500000000000284
 21
95.5000000000002274
 31
0.0
  0
LINE
  5
5799
  8
2
 10
36.2499999999999787
 20
88.0000000000002274
 30
0.0
 11
36.7499999999999716
 21
87.5000000000002132
 31
0.0
  0
LINE
  5
579A
  8
2
 10
31.2499999999999716
 20
87.5000000000002558
 30
0.0
 11
31.7499999999999716
 21
88.0000000000002558
 31
0.0
  0
LINE
  5
579B
  8
2
 10
31.7500000000000284
 20
95.5000000000002558
 30
0.0
 11
31.7499999999999716
 21
88.0000000000002558
 31
0.0
  0
LINE
  5
579C
  8
2
 10
36.2499999999999787
 20
88.0000000000002274
 30
0.0
 11
31.7499999999999716
 21
88.0000000000002558
 31
0.0
  0
LINE
  5
579D
  8
2
 10
47.7500000000000924
 20
88.0000000000001137
 30
0.0
 11
47.7500000000000924
 21
95.5000000000001137
 31
0.0
  0
LINE
  5
579E
  8
2
 10
47.7500000000000924
 20
88.0000000000001137
 30
0.0
 11
47.2500000000000924
 21
87.5000000000001137
 31
0.0
  0
LINE
  5
579F
  8
2
 10
52.7500000000000924
 20
87.5000000000001137
 30
0.0
 11
52.2500000000000924
 21
88.0000000000001137
 31
0.0
  0
LINE
  5
57A0
  8
2
 10
52.2500000000000924
 20
95.5000000000001137
 30
0.0
 11
52.2500000000000924
 21
88.0000000000001137
 31
0.0
  0
LINE
  5
57A9
  8
2
 10
129.9999999999998863
 20
99.0000000000001137
 30
0.0
 11
130.9999999999998863
 21
100.0000000000000995
 31
0.0
  0
LINE
  5
57AA
  8
2
 10
133.9999999999998863
 20
95.5000000000001137
 30
0.0
 11
133.9999999999998863
 21
100.0000000000000995
 31
0.0
  0
LINE
  5
57AB
  8
2
 10
133.9999999999998863
 20
95.5000000000001137
 30
0.0
 11
141.595917942265288
 21
95.5000000000001137
 31
0.0
  0
LINE
  5
57AC
  8
2
 10
135.7499999999998863
 20
88.0000000000001137
 30
0.0
 11
135.7499999999998863
 21
95.5000000000001137
 31
0.0
  0
LINE
  5
57AD
  8
2
 10
135.7499999999998863
 20
88.0000000000001137
 30
0.0
 11
135.2499999999998863
 21
87.5000000000001137
 31
0.0
  0
LINE
  5
57AE
  8
2
 10
132.4999999999998863
 20
87.5000000000001137
 30
0.0
 11
131.9999999999998863
 21
88.0000000000001137
 31
0.0
  0
LINE
  5
57AF
  8
2
 10
131.9999999999998863
 20
92.0000000000001137
 30
0.0
 11
131.9999999999998863
 21
88.0000000000001137
 31
0.0
  0
LINE
  5
57B0
  8
2
 10
129.9999999999998863
 20
94.0000000000001137
 30
0.0
 11
131.9999999999998863
 21
92.0000000000001137
 31
0.0
  0
LINE
  5
57B1
  8
2
 10
129.9999999999998863
 20
99.0000000000001137
 30
0.0
 11
129.9999999999998863
 21
94.0000000000001137
 31
0.0
  0
LINE
  5
57B2
  8
2
 10
129.9999999999998863
 20
99.0000000000001137
 30
0.0
 11
114.0
 21
99.0000000000001137
 31
0.0
  0
LINE
  5
57B3
  8
2
 10
113.9999999999999005
 20
94.0000000000001137
 30
0.0
 11
129.9999999999998863
 21
94.0000000000001137
 31
0.0
  0
LINE
  5
57B4
  8
2
 10
140.7499999999998863
 20
87.5000000000001137
 30
0.0
 11
140.2499999999998863
 21
88.0000000000001137
 31
0.0
  0
LINE
  5
57B5
  8
2
 10
140.2499999999998863
 20
95.5000000000001137
 30
0.0
 11
140.2499999999998863
 21
88.0000000000001137
 31
0.0
  0
LINE
  5
57B6
  8
2
 10
111.9999999999999005
 20
92.0000000000000426
 30
0.0
 11
131.9999999999998863
 21
92.0000000000001137
 31
0.0
  0
LINE
  5
57B7
  8
2
 10
135.7499999999998863
 20
88.0000000000001137
 30
0.0
 11
140.2499999999998863
 21
88.0000000000001137
 31
0.0
  0
LINE
  5
57B8
  8
2
 10
113.9999999999999005
 20
99.0000000000001847
 30
0.0
 11
113.0
 21
100.0000000000000995
 31
0.0
  0
LINE
  5
57B9
  8
2
 10
111.4999999999999005
 20
87.5000000000001847
 30
0.0
 11
111.9999999999999005
 21
88.000000000000199
 31
0.0
  0
LINE
  5
57BA
  8
2
 10
111.9999999999999005
 20
92.000000000000199
 30
0.0
 11
111.9999999999999005
 21
88.000000000000199
 31
0.0
  0
LINE
  5
57BB
  8
2
 10
113.9999999999999005
 20
94.0000000000001847
 30
0.0
 11
111.9999999999999005
 21
92.000000000000199
 31
0.0
  0
LINE
  5
57BC
  8
2
 10
113.9999999999999005
 20
99.0000000000001847
 30
0.0
 11
113.9999999999999005
 21
94.0000000000001847
 31
0.0
  0
LINE
  5
57BD
  8
2
 10
131.9999999999998863
 20
88.0000000000001137
 30
0.0
 11
111.9999999999999005
 21
88.000000000000199
 31
0.0
  0
LINE
  5
57BE
  8
2
 10
109.9999999999999005
 20
95.5000000000002132
 30
0.0
 11
110.0
 21
100.000000000000199
 31
0.0
  0
LINE
  5
57BF
  8
2
 10
109.9999999999999005
 20
95.5000000000002132
 30
0.0
 11
102.4040820577344988
 21
95.50000000000027
 31
0.0
  0
LINE
  5
57C0
  8
2
 10
108.2499999999999005
 20
88.0000000000002274
 30
0.0
 11
108.2499999999999005
 21
95.5000000000002274
 31
0.0
  0
LINE
  5
57C1
  8
2
 10
108.2499999999999005
 20
88.0000000000002274
 30
0.0
 11
108.7499999999999005
 21
87.5000000000002132
 31
0.0
  0
LINE
  5
57C2
  8
2
 10
103.2499999999999005
 20
87.5000000000002558
 30
0.0
 11
103.7499999999999005
 21
88.0000000000002558
 31
0.0
  0
LINE
  5
57C3
  8
2
 10
103.7499999999999005
 20
95.5000000000002558
 30
0.0
 11
103.7499999999999005
 21
88.0000000000002558
 31
0.0
  0
LINE
  5
57C4
  8
2
 10
108.2499999999999005
 20
88.0000000000002274
 30
0.0
 11
103.7499999999999005
 21
88.0000000000002558
 31
0.0
  0
LINE
  5
57C5
  8
2
 10
119.75
 20
88.0000000000001137
 30
0.0
 11
119.75
 21
95.5000000000001137
 31
0.0
  0
LINE
  5
57C6
  8
2
 10
119.75
 20
88.0000000000001137
 30
0.0
 11
119.25
 21
87.5000000000001137
 31
0.0
  0
LINE
  5
57C7
  8
2
 10
124.75
 20
87.5000000000001137
 30
0.0
 11
124.25
 21
88.0000000000001137
 31
0.0
  0
LINE
  5
57C8
  8
2
 10
124.25
 20
95.5000000000001137
 30
0.0
 11
124.25
 21
88.0000000000001137
 31
0.0
  0
ENDSEC
  0
EOF
