  0
SECTION
  2
HEADER
  9
$ACADVER
  1
AC1009
  9
$INSBASE
 10
0.0
 20
0.0
 30
0.0
  9
$EXTMIN
 10
0.0
 20
-2.960436562073669
 30
0.0
  9
$EXTMAX
 10
87.5
 20
226.49999938905231
 30
0.0
  9
$LIMMIN
 10
0.0
 20
0.0
  9
$LIMMAX
 10
187.5
 20
135.0
  9
$ORTHOMODE
 70
     1
  9
$REGENMODE
 70
     1
  9
$FILLMODE
 70
     1
  9
$QTEXTMODE
 70
     0
  9
$MIRRTEXT
 70
     0
  9
$DRAGMODE
 70
     2
  9
$LTSCALE
 40
5.0
  9
$OSMODE
 70
    37
  9
$ATTMODE
 70
     1
  9
$TEXTSIZE
 40
4.0
  9
$TRACEWID
 40
0.05
  9
$TEXTSTYLE
  7
STANDARD
  9
$CLAYER
  8
0
  9
$CELTYPE
  6
BYLAYER
  9
$CECOLOR
 62
   256
  9
$DIMSCALE
 40
1.0
  9
$DIMASZ
 40
3.0
  9
$DIMEXO
 40
2.0
  9
$DIMDLI
 40
0.38
  9
$DIMRND
 40
0.0
  9
$DIMDLE
 40
0.0
  9
$DIMEXE
 40
2.0
  9
$DIMTP
 40
0.0
  9
$DIMTM
 40
0.0
  9
$DIMTXT
 40
3.2000000000000002
  9
$DIMCEN
 40
0.0
  9
$DIMTSZ
 40
0.0
  9
$DIMTOL
 70
     0
  9
$DIMLIM
 70
     0
  9
$DIMTIH
 70
     0
  9
$DIMTOH
 70
     0
  9
$DIMSE1
 70
     0
  9
$DIMSE2
 70
     0
  9
$DIMTAD
 70
     1
  9
$DIMZIN
 70
     8
  9
$DIMBLK
  1

  9
$DIMASO
 70
     0
  9
$DIMSHO
 70
     0
  9
$DIMPOST
  1

  9
$DIMAPOST
  1

  9
$DIMALT
 70
     0
  9
$DIMALTD
 70
     2
  9
$DIMALTF
 40
25.399999999999999
  9
$DIMLFAC
 40
1.0
  9
$DIMTOFL
 70
     1
  9
$DIMTVP
 40
1.6000000000000001
  9
$DIMTIX
 70
     0
  9
$DIMSOXD
 70
     0
  9
$DIMSAH
 70
     0
  9
$DIMBLK1
  1

  9
$DIMBLK2
  1

  9
$DIMSTYLE
  2
STANDARD
  9
$DIMCLRD
 70
     0
  9
$DIMCLRE
 70
     0
  9
$DIMCLRT
 70
     0
  9
$DIMTFAC
 40
1.0
  9
$DIMGAP
 40
0.5
  9
$LUNITS
 70
     2
  9
$LUPREC
 70
     1
  9
$SKETCHINC
 40
0.1
  9
$FILLETRAD
 40
0.0
  9
$AUNITS
 70
     0
  9
$AUPREC
 70
     1
  9
$MENU
  1
E:\r13\win\SUPPORT\ACAD
  9
$ELEVATION
 40
0.0
  9
$PELEVATION
 40
0.0
  9
$THICKNESS
 40
0.0
  9
$LIMCHECK
 70
     0
  9
$BLIPMODE
 70
     0
  9
$CHAMFERA
 40
1.1999999999999991
  9
$CHAMFERB
 40
1.1999999999999991
  9
$SKPOLY
 70
     0
  9
$TDCREATE
 40
2449933.4048958332
  9
$TDUPDATE
 40
2457711.4088770831
  9
$TDINDWG
 40
0.7056886690000001
  9
$TDUSRTIMER
 40
0.7056886690000001
  9
$USRTIMER
 70
     1
  9
$ANGBASE
 50
0.0
  9
$ANGDIR
 70
     0
  9
$PDMODE
 70
     0
  9
$PDSIZE
 40
0.0
  9
$PLINEWID
 40
0.0
  9
$COORDS
 70
     1
  9
$SPLFRAME
 70
     0
  9
$SPLINETYPE
 70
     6
  9
$SPLINESEGS
 70
     8
  9
$ATTDIA
 70
     0
  9
$ATTREQ
 70
     1
  9
$HANDLING
 70
     1
  9
$HANDSEED
  5
8E38
  9
$SURFTAB1
 70
     6
  9
$SURFTAB2
 70
     6
  9
$SURFTYPE
 70
     6
  9
$SURFU
 70
     6
  9
$SURFV
 70
     6
  9
$UCSNAME
  2

  9
$UCSORG
 10
0.0
 20
0.0
 30
0.0
  9
$UCSXDIR
 10
1.0
 20
0.0
 30
0.0
  9
$UCSYDIR
 10
0.0
 20
1.0
 30
0.0
  9
$PUCSNAME
  2

  9
$PUCSORG
 10
0.0
 20
0.0
 30
0.0
  9
$PUCSXDIR
 10
1.0
 20
0.0
 30
0.0
  9
$PUCSYDIR
 10
0.0
 20
1.0
 30
0.0
  9
$USERI1
 70
     0
  9
$USERI2
 70
     1
  9
$USERI3
 70
     0
  9
$USERI4
 70
     0
  9
$USERI5
 70
     0
  9
$USERR1
 40
0.0
  9
$USERR2
 40
0.0
  9
$USERR3
 40
0.0
  9
$USERR4
 40
0.0
  9
$USERR5
 40
0.0
  9
$WORLDVIEW
 70
     1
  9
$SHADEDGE
 70
     3
  9
$SHADEDIF
 70
    70
  9
$TILEMODE
 70
     1
  9
$MAXACTVP
 70
    16
  9
$PLIMCHECK
 70
     0
  9
$PEXTMIN
 10
1.0000000000000000E+020
 20
1.0000000000000000E+020
 30
1.0000000000000000E+020
  9
$PEXTMAX
 10
-1.0000000000000000E+020
 20
-1.0000000000000000E+020
 30
-1.0000000000000000E+020
  9
$PLIMMIN
 10
0.0
 20
0.0
  9
$PLIMMAX
 10
12.0
 20
9.0
  9
$UNITMODE
 70
     0
  9
$VISRETAIN
 70
     0
  9
$PLINEGEN
 70
     0
  9
$PSLTSCALE
 70
     0
  0
ENDSEC
  0
SECTION
  2
TABLES
  0
TABLE
  2
VPORT
 70
     1
  0
VPORT
  2
*ACTIVE
 70
     0
 10
0.0
 20
0.0
 11
1.0
 21
1.0
 12
272.45865493135773
 22
150.0
 13
0.0
 23
0.0
 14
5.0
 24
5.0
 15
5.0
 25
5.0
 16
0.0
 26
0.0
 36
1.0
 17
0.0
 27
0.0
 37
0.0
 40
300.25060018530428
 41
1.816239316239316
 42
50.0
 43
0.0
 44
0.0
 50
0.0
 51
0.0
 71
     0
 72
   500
 73
     1
 74
     0
 75
     0
 76
     0
 77
     0
 78
     2
  0
ENDTAB
  0
TABLE
  2
LTYPE
 70
     3
  0
LTYPE
  2
CONTINUOUS
 70
     0
  3
Solid Line
 72
    65
 73
     0
 40
0.0
  0
LTYPE
  2
CENTER
 70
     0
  3
____ _ ____ _ ____ _ ____ _ ____ _ ____ _ ____
 72
    65
 73
     4
 40
2.0
 49
1.25
 49
-0.25
 49
0.25
 49
-0.25
  0
LTYPE
  2
PHANTOM2
 70
     0
  3
___ _ _ ___ _ _ ___ _ _ ___ _ _
 72
    65
 73
     6
 40
1.25
 49
0.625
 49
-0.125
 49
0.125
 49
-0.125
 49
0.125
 49
-0.125
  0
ENDTAB
  0
TABLE
  2
LAYER
 70
     4
  0
LAYER
  2
0
 70
     0
 62
     7
  6
CONTINUOUS
  0
LAYER
  2
1
 70
     0
 62
     1
  6
CENTER
  0
LAYER
  2
DEFPOINTS
 70
     0
 62
     7
  6
CONTINUOUS
  0
LAYER
  2
3
 70
     0
 62
     3
  6
CONTINUOUS
  0
ENDTAB
  0
TABLE
  2
STYLE
 70
     2
  0
STYLE
  2
STANDARD
 70
     0
 40
0.0
 41
1.0
 50
0.0
 71
     0
 42
4.0
  3
SIMPLEX
  4
BIGFONT
  0
STYLE
  2
STANDARD1
 70
     0
 40
0.0
 41
1.0
 50
0.0
 71
     0
 42
3.0
  3
txt
  4

  0
ENDTAB
  0
TABLE
  2
VIEW
 70
     1
  0
VIEW
  2
ALL
 70
     0
 40
175.0
 10
143.1020066889632
 20
87.5
 41
286.2040133779264
 11
0.0
 21
0.0
 31
1.0
 12
0.0
 22
0.0
 32
0.0
 42
50.0
 43
0.0
 44
0.0
 50
0.0
 71
     0
  0
ENDTAB
  0
TABLE
  2
UCS
 70
     0
  0
ENDTAB
  0
TABLE
  2
APPID
 70
     7
  0
APPID
  2
ACAD
 70
     0
  0
APPID
  2
ACAD_DSTYLE_DIMJAG
 70
     0
  0
APPID
  2
ACAD_DSTYLE_DIMTALN
 70
     0
  0
APPID
  2
ACAD_EXEMPT_FROM_CAD_STANDARDS
 70
     0
  0
APPID
  2
ACAD_DSTYLE_DIMRADIAL_EXTENSION
 70
     0
  0
APPID
  2
ACAD_MLEADERVER
 70
     0
  0
APPID
  2
ACAD_NAV_VCDISPLAY
 70
     0
  0
ENDTAB
  0
TABLE
  2
DIMSTYLE
 70
     1
  0
DIMSTYLE
  2
STANDARD
 70
     0
  3

  4

  5

  6

  7

 40
1.0
 41
0.18
 42
0.0625
 43
0.38
 44
0.18
 45
0.0
 46
0.0
 47
0.0
 48
0.0
140
0.18
141
0.09
142
0.0
143
25.399999999999999
144
1.0
145
0.0
146
1.0
147
0.09
 71
     0
 72
     0
 73
     1
 74
     1
 75
     0
 76
     0
 77
     0
 78
     0
170
     0
171
     2
172
     0
173
     0
174
     0
175
     0
176
     0
177
     0
178
     0
  0
ENDTAB
  0
ENDSEC
  0
SECTION
  2
BLOCKS
  0
BLOCK
  8
0
  2
$MODEL_SPACE
 70
     0
 10
0.0
 20
0.0
 30
0.0
  3
$MODEL_SPACE
  1

  0
ENDBLK
  5
8A
  8
0
  0
BLOCK
 67
     1
  8
0
  2
$PAPER_SPACE
 70
     0
 10
0.0
 20
0.0
 30
0.0
  3
$PAPER_SPACE
  1

  0
ENDBLK
  5
88
 67
     1
  8
0
  0
ENDSEC
  0
SECTION
  2
ENTITIES
  0
LINE
  5
6272
  8
0
 10
82.500000894069672
 20
123.000000026077
 30
0.0
 11
82.500000894069672
 21
134.00000043213359
 31
0.0
  0
LINE
  5
6273
  8
0
 10
37.499999105930328
 20
134.00000043213359
 30
0.0
 11
37.499999105930328
 21
123.000000026077
 31
0.0
  0
LINE
  5
6274
  8
0
 10
82.39999920129776
 20
120.5000000237486
 30
0.0
 11
82.39999920129776
 21
123.000000026077
 31
0.0
  0
LINE
  5
6275
  8
0
 10
37.60000079870224
 20
123.000000026077
 30
0.0
 11
37.60000079870224
 21
120.5000000237486
 31
0.0
  0
LINE
  5
6276
  8
0
 10
37.60000079870224
 20
120.5000000237486
 30
0.0
 11
38.099999949336052
 21
119.9999999999999
 31
0.0
  0
LINE
  5
6277
  8
0
 10
81.900000050663934
 20
119.9999999999999
 30
0.0
 11
82.39999920129776
 21
120.5000000237486
 31
0.0
  0
LINE
  5
6278
  8
0
 10
37.499999105930328
 20
134.00000043213359
 30
0.0
 11
37.858409285545349
 21
134.00000043213359
 31
0.0
  0
LINE
  5
6279
  8
0
 10
37.858409285545349
 20
134.00000043213359
 30
0.0
 11
37.858409285545349
 21
138.50000023841849
 31
0.0
  0
LINE
  5
627B
  8
0
 10
55.999999810010188
 20
134.00000043213359
 30
0.0
 11
55.999999810010138
 21
138.99999938905231
 31
0.0
  0
LINE
  5
627C
  8
0
 10
55.999999810010188
 20
134.00000043213359
 30
0.0
 11
64.000000189989805
 21
134.00000043213359
 31
0.0
  0
LINE
  5
627D
  8
0
 10
64.000000189989805
 20
134.00000043213359
 30
0.0
 11
64.000000189989805
 21
138.99999938905231
 31
0.0
  0
LINE
  5
627F
  8
0
 10
82.141590714454651
 20
134.00000043213359
 30
0.0
 11
82.141590714454651
 21
138.50000023841849
 31
0.0
  0
LINE
  5
6280
  8
0
 10
82.141590714454651
 20
134.00000043213359
 30
0.0
 11
82.500000894069672
 21
134.00000043213359
 31
0.0
  0
LINE
  5
6281
  8
0
 10
82.500000894069672
 20
123.000000026077
 30
0.0
 11
37.499999105930328
 21
123.000000026077
 31
0.0
  0
LINE
  5
6282
  8
0
 10
37.60000079870224
 20
120.5000000237486
 30
0.0
 11
82.39999920129776
 21
120.5000000237486
 31
0.0
  0
LINE
  5
6283
  8
0
 10
81.900000050663934
 20
119.9999999999999
 30
0.0
 11
38.099999949336052
 21
119.9999999999999
 31
0.0
  0
LINE
  5
6284
  8
0
 10
37.858409285545349
 20
138.50000023841849
 30
0.0
 11
38.465145453810692
 21
138.99999938905231
 31
0.0
  0
LINE
  5
6287
  8
0
 10
38.465145453810692
 20
138.99999938905231
 30
0.0
 11
81.534854546189294
 21
138.99999938905231
 31
0.0
  0
LINE
  5
6288
  8
0
 10
81.534854546189294
 20
138.99999938905231
 30
0.0
 11
82.141590714454651
 21
138.50000023841849
 31
0.0
  0
ARC
  5
6291
  8
0
 10
60.0
 20
198.99999938905231
 30
0.0
 40
12.050000000000001
 50
184.99999999999969
 51
174.9999999125325
  0
CIRCLE
  5
6294
  8
0
 10
60.0
 20
198.99999938905231
 30
0.0
 40
11.39999999999997
  0
CIRCLE
  5
6297
  8
0
 10
60.0
 20
198.99999938905231
 30
0.0
 40
8.8338338833316072
  0
CIRCLE
  5
6298
  8
0
 10
60.0
 20
198.99999938905231
 30
0.0
 40
6.3999999999999773
  0
LINE
  5
629E
  8
0
 10
55.999999810010188
 20
221.14159010350701
 30
0.0
 11
55.999999810010188
 21
217.49999962747091
 31
0.0
  0
LINE
  5
62B7
  8
0
 10
64.000000189989805
 20
217.49999962747091
 30
0.0
 11
64.000000189989805
 21
221.14159010350701
 31
0.0
  0
ARC
  5
62B8
  8
0
 10
59.999999999999773
 20
217.49999938905231
 30
0.0
 40
4.0000000000000284
 50
180.0
 51
0.0
  0
CIRCLE
  5
62B9
  8
0
 10
72.374368670764625
 20
211.37436805981679
 30
0.0
 40
3.250000000000028
  0
CIRCLE
  5
62BA
  8
0
 10
60.0
 20
198.99999938905231
 30
0.0
 40
12.69999999999999
  0
ARC
  5
62BC
  8
0
 10
41.5
 20
198.99999938905231
 30
0.0
 40
4.0
 50
270.0
 51
90.0
  0
ARC
  5
62BE
  8
0
 10
78.5
 20
198.99999938905239
 30
0.0
 40
4.0
 50
90.0
 51
270.0
  0
LINE
  5
62C1
  8
0
 10
41.499999761581421
 20
202.99999957904211
 30
0.0
 11
37.858409285545349
 21
202.99999957904211
 31
0.0
  0
LINE
  5
62C2
  8
0
 10
82.141590714454651
 20
202.99999957904211
 30
0.0
 11
78.500000238418565
 21
202.99999957904211
 31
0.0
  0
LINE
  5
62C9
  8
0
 10
37.858409285545349
 20
194.9999991990625
 30
0.0
 11
41.499999761581421
 21
194.9999991990625
 31
0.0
  0
LINE
  5
62CA
  8
0
 10
78.500000238418565
 20
194.9999991990625
 30
0.0
 11
82.141590714454651
 21
194.9999991990625
 31
0.0
  0
CIRCLE
  5
62CB
  8
0
 10
47.625631329235382
 20
186.62563071828771
 30
0.0
 40
3.25
  0
ARC
  5
62CC
  8
0
 10
60.000000000000057
 20
180.49999938905231
 30
0.0
 40
4.0
 50
0.0
 51
180.0
  0
LINE
  5
62CF
  8
0
 10
64.000000189989805
 20
176.85840867459771
 30
0.0
 11
64.000000189989805
 21
180.4999991506337
 31
0.0
  0
LINE
  5
62D0
  8
0
 10
55.999999810010188
 20
180.4999991506337
 30
0.0
 11
55.999999810010188
 21
176.85840867459771
 31
0.0
  0
CIRCLE
  5
62D3
  8
0
 10
59.999999999999773
 20
217.49999938905231
 30
0.0
 40
2.25
  0
CIRCLE
  5
62D8
  8
0
 10
78.5
 20
198.99999938905239
 30
0.0
 40
2.25
  0
CIRCLE
  5
62D9
  8
0
 10
41.5
 20
198.99999938905231
 30
0.0
 40
2.2500000000000142
  0
CIRCLE
  5
62DC
  8
0
 10
60.000000000000057
 20
180.49999938905231
 30
0.0
 40
2.25
  0
CIRCLE
  5
62DF
  8
0
 10
60.0
 20
198.99999938905231
 30
0.0
 40
6.0
  0
CIRCLE
  5
62F9
  8
0
 10
60.0
 20
60.0
 30
0.0
 40
22.399999999999991
  0
CIRCLE
  5
6301
  8
0
 10
59.999999999999773
 20
41.499999999999972
 30
0.0
 40
2.25
  0
CIRCLE
  5
6303
  8
0
 10
60.0
 20
60.0
 30
0.0
 40
8.6515376559701735
  0
CIRCLE
  5
6304
  8
0
 10
41.5
 20
60.0
 30
0.0
 40
2.25
  0
CIRCLE
  5
6305
  8
0
 10
78.5
 20
59.999999999999829
 30
0.0
 40
2.25
  0
CIRCLE
  5
6307
  8
0
 10
60.000000000000057
 20
78.5
 30
0.0
 40
2.2499999999999711
  0
CIRCLE
  5
6309
  8
0
 10
60.0
 20
60.0
 30
0.0
 40
22.499999999999989
  0
CIRCLE
  5
630A
  8
0
 10
60.0
 20
59.999999999999943
 30
0.0
 40
6.0
  0
LINE
  5
8198
  8
1
 10
60.0
 20
143.99999938905231
 30
0.0
 11
60.0
 21
114.9999999999999
 31
0.0
  0
CIRCLE
  5
81E5
  8
3
 10
72.374368670764625
 20
47.625631329235397
 30
0.0
 40
3.0
  0
CIRCLE
  5
81E6
  8
0
 10
72.374368670764625
 20
47.625631329235397
 30
0.0
 40
2.458499999999999
  0
CIRCLE
  5
81E7
  8
3
 10
47.625631329235382
 20
72.374368670764511
 30
0.0
 40
3.0
  0
CIRCLE
  5
81E8
  8
0
 10
47.625631329235382
 20
72.374368670764511
 30
0.0
 40
2.458499999999999
  0
CIRCLE
  5
81E9
  8
1
 10
60.0
 20
59.999999999999943
 30
0.0
 40
18.5
  0
LINE
  5
81EA
  8
1
 10
60.0
 20
87.5
 30
0.0
 11
60.0
 21
32.499999999999972
 31
0.0
  0
LINE
  5
81EB
  8
1
 10
87.5
 20
59.999999999999943
 30
0.0
 11
32.5
 21
59.999999999999943
 31
0.0
  0
LINE
  5
81ED
  8
1
 10
44.090097423302609
 20
75.90990257669722
 30
0.0
 11
51.161165235168141
 21
68.838834764831802
 31
0.0
  0
LINE
  5
81F0
  8
1
 10
68.838834764831972
 20
51.161165235168198
 30
0.0
 11
75.909902576697391
 21
44.090097423302687
 31
0.0
  0
LINE
  5
825A
  8
0
 10
47.995853889597747
 20
200.05022610748711
 30
0.0
 11
47.348327413201332
 21
200.1068773167207
 31
0.0
  0
LINE
  5
825B
  8
0
 10
47.995853887994492
 20
197.94977268894311
 30
0.0
 11
47.348327413201332
 21
197.89312146138391
 31
0.0
  0
CIRCLE
  5
82A1
  8
3
 10
47.625631329235382
 20
186.62563071828771
 30
0.0
 40
3.0
  0
CIRCLE
  5
82A2
  8
0
 10
47.625631329235382
 20
186.62563071828771
 30
0.0
 40
2.458499999999999
  0
CIRCLE
  5
82A3
  8
3
 10
72.374368670764625
 20
211.3743680598169
 30
0.0
 40
3.0
  0
CIRCLE
  5
82A4
  8
0
 10
72.374368670764625
 20
211.3743680598169
 30
0.0
 40
2.458499999999999
  0
CIRCLE
  5
82E8
  8
0
 10
60.0
 20
198.99999938905231
 30
0.0
 40
22.5
  0
LINE
  5
832C
  8
1
 10
60.0
 20
226.49999938905231
 30
0.0
 11
60.0
 21
171.49999938905231
 31
0.0
  0
LINE
  5
832D
  8
1
 10
87.5
 20
198.99999938905231
 30
0.0
 11
32.5
 21
198.99999938905231
 31
0.0
  0
CIRCLE
  5
8372
  8
1
 10
60.0
 20
198.99999938905231
 30
0.0
 40
18.5
  0
LINE
  5
8373
  8
1
 10
75.909902576697334
 20
214.90990196574961
 30
0.0
 11
68.838834764831859
 21
207.83883415388411
 31
0.0
  0
LINE
  5
8376
  8
1
 10
51.161165235168141
 20
190.1611646242205
 30
0.0
 11
44.090097423302609
 21
183.090096812355
 31
0.0
  0
TEXT
  5
83D7
  8
0
 62
     3
 10
0.0
 20
0.0
 30
0.0
 40
10.0
  1
CP735-1246L
  7
STANDARD1
  0
CIRCLE
  5
8B4E
  8
1
 10
60.0
 20
198.99999938905231
 30
0.0
 40
17.5
  0
CIRCLE
  5
8B4F
  8
1
 10
60.0
 20
59.999999999999943
 30
0.0
 40
17.5
  0
ENDSEC
  0
EOF
