  0
SECTION
  2
HEADER
  9
$ACADVER
  1
AC1009
  9
$INSBASE
 10
0.0
 20
0.0
 30
0.0
  9
$EXTMIN
 10
0.0
 20
-2.960436562073669
 30
0.0
  9
$EXTMAX
 10
86.214188267394263
 20
105.4859818820879
 30
0.0
  9
$LIMMIN
 10
0.0
 20
0.0
  9
$LIMMAX
 10
187.5
 20
135.0
  9
$ORTHOMODE
 70
     0
  9
$REGENMODE
 70
     1
  9
$FILLMODE
 70
     1
  9
$QTEXTMODE
 70
     0
  9
$MIRRTEXT
 70
     0
  9
$DRAGMODE
 70
     2
  9
$LTSCALE
 40
5.0
  9
$OSMODE
 70
  3071
  9
$ATTMODE
 70
     1
  9
$TEXTSIZE
 40
4.0
  9
$TRACEWID
 40
0.05
  9
$TEXTSTYLE
  7
STANDARD
  9
$CLAYER
  8
1
  9
$CELTYPE
  6
BYLAYER
  9
$CECOLOR
 62
   256
  9
$DIMSCALE
 40
1.0
  9
$DIMASZ
 40
3.0
  9
$DIMEXO
 40
2.0
  9
$DIMDLI
 40
0.38
  9
$DIMRND
 40
0.0
  9
$DIMDLE
 40
0.0
  9
$DIMEXE
 40
2.0
  9
$DIMTP
 40
0.0
  9
$DIMTM
 40
0.0
  9
$DIMTXT
 40
3.2000000000000002
  9
$DIMCEN
 40
0.0
  9
$DIMTSZ
 40
0.0
  9
$DIMTOL
 70
     0
  9
$DIMLIM
 70
     0
  9
$DIMTIH
 70
     0
  9
$DIMTOH
 70
     0
  9
$DIMSE1
 70
     0
  9
$DIMSE2
 70
     0
  9
$DIMTAD
 70
     1
  9
$DIMZIN
 70
     8
  9
$DIMBLK
  1

  9
$DIMASO
 70
     0
  9
$DIMSHO
 70
     0
  9
$DIMPOST
  1

  9
$DIMAPOST
  1

  9
$DIMALT
 70
     0
  9
$DIMALTD
 70
     2
  9
$DIMALTF
 40
25.399999999999999
  9
$DIMLFAC
 40
1.0
  9
$DIMTOFL
 70
     1
  9
$DIMTVP
 40
1.6000000000000001
  9
$DIMTIX
 70
     0
  9
$DIMSOXD
 70
     0
  9
$DIMSAH
 70
     0
  9
$DIMBLK1
  1

  9
$DIMBLK2
  1

  9
$DIMSTYLE
  2
STANDARD
  9
$DIMCLRD
 70
     4
  9
$DIMCLRE
 70
     4
  9
$DIMCLRT
 70
     4
  9
$DIMTFAC
 40
1.0
  9
$DIMGAP
 40
0.5
  9
$LUNITS
 70
     2
  9
$LUPREC
 70
     1
  9
$SKETCHINC
 40
0.1
  9
$FILLETRAD
 40
0.0
  9
$AUNITS
 70
     0
  9
$AUPREC
 70
     1
  9
$MENU
  1
E:\r13\win\SUPPORT\ACAD
  9
$ELEVATION
 40
0.0
  9
$PELEVATION
 40
0.0
  9
$THICKNESS
 40
0.0
  9
$LIMCHECK
 70
     0
  9
$BLIPMODE
 70
     0
  9
$CHAMFERA
 40
1.1999999999999991
  9
$CHAMFERB
 40
1.1999999999999991
  9
$SKPOLY
 70
     0
  9
$TDCREATE
 40
2449933.4048958332
  9
$TDUPDATE
 40
2456598.4988587499
  9
$TDINDWG
 40
0.1652111227
  9
$TDUSRTIMER
 40
0.1652111227
  9
$USRTIMER
 70
     1
  9
$ANGBASE
 50
0.0
  9
$ANGDIR
 70
     0
  9
$PDMODE
 70
     0
  9
$PDSIZE
 40
0.0
  9
$PLINEWID
 40
0.0
  9
$COORDS
 70
     1
  9
$SPLFRAME
 70
     0
  9
$SPLINETYPE
 70
     6
  9
$SPLINESEGS
 70
     8
  9
$ATTDIA
 70
     0
  9
$ATTREQ
 70
     1
  9
$HANDLING
 70
     1
  9
$HANDSEED
  5
15F5
  9
$SURFTAB1
 70
     6
  9
$SURFTAB2
 70
     6
  9
$SURFTYPE
 70
     6
  9
$SURFU
 70
     6
  9
$SURFV
 70
     6
  9
$UCSNAME
  2

  9
$UCSORG
 10
0.0
 20
0.0
 30
0.0
  9
$UCSXDIR
 10
1.0
 20
0.0
 30
0.0
  9
$UCSYDIR
 10
0.0
 20
1.0
 30
0.0
  9
$PUCSNAME
  2

  9
$PUCSORG
 10
0.0
 20
0.0
 30
0.0
  9
$PUCSXDIR
 10
1.0
 20
0.0
 30
0.0
  9
$PUCSYDIR
 10
0.0
 20
1.0
 30
0.0
  9
$USERI1
 70
     0
  9
$USERI2
 70
     1
  9
$USERI3
 70
     0
  9
$USERI4
 70
     0
  9
$USERI5
 70
     0
  9
$USERR1
 40
0.0
  9
$USERR2
 40
0.0
  9
$USERR3
 40
0.0
  9
$USERR4
 40
0.0
  9
$USERR5
 40
0.0
  9
$WORLDVIEW
 70
     1
  9
$SHADEDGE
 70
     3
  9
$SHADEDIF
 70
    70
  9
$TILEMODE
 70
     1
  9
$MAXACTVP
 70
    16
  9
$PLIMCHECK
 70
     0
  9
$PEXTMIN
 10
1.0000000000000000E+020
 20
1.0000000000000000E+020
 30
1.0000000000000000E+020
  9
$PEXTMAX
 10
-1.0000000000000000E+020
 20
-1.0000000000000000E+020
 30
-1.0000000000000000E+020
  9
$PLIMMIN
 10
0.0
 20
0.0
  9
$PLIMMAX
 10
12.0
 20
9.0
  9
$UNITMODE
 70
     0
  9
$VISRETAIN
 70
     0
  9
$PLINEGEN
 70
     0
  9
$PSLTSCALE
 70
     0
  0
ENDSEC
  0
SECTION
  2
TABLES
  0
TABLE
  2
VPORT
 70
     1
  0
VPORT
  2
*ACTIVE
 70
     0
 10
0.0
 20
0.0
 11
1.0
 21
1.0
 12
93.74713919532617
 22
95.281589084287575
 13
0.0
 23
0.0
 14
5.0
 24
5.0
 15
5.0
 25
5.0
 16
0.0
 26
0.0
 36
1.0
 17
0.0
 27
0.0
 37
0.0
 40
198.284298069551
 41
1.831871345029239
 42
50.0
 43
0.0
 44
0.0
 50
0.0
 51
0.0
 71
     0
 72
   500
 73
     1
 74
     0
 75
     0
 76
     0
 77
     0
 78
     2
  0
ENDTAB
  0
TABLE
  2
LTYPE
 70
     4
  0
LTYPE
  2
CONTINUOUS
 70
     0
  3
Solid Line
 72
    65
 73
     0
 40
0.0
  0
LTYPE
  2
CENTER
 70
     0
  3
____ _ ____ _ ____ _ ____ _ ____ _ ____ _ ____
 72
    65
 73
     4
 40
2.0
 49
1.25
 49
-0.25
 49
0.25
 49
-0.25
  0
LTYPE
  2
PHANTOM2
 70
     0
  3
___ _ _ ___ _ _ ___ _ _ ___ _ _
 72
    65
 73
     6
 40
1.25
 49
0.625
 49
-0.125
 49
0.125
 49
-0.125
 49
0.125
 49
-0.125
  0
LTYPE
  2
HIDDEN
 70
     0
  3
__ __ __ __ __ __ __ __ __ __ __ __ __ __ __ __
 72
    65
 73
     2
 40
0.375
 49
0.25
 49
-0.125
  0
ENDTAB
  0
TABLE
  2
LAYER
 70
     5
  0
LAYER
  2
0
 70
     0
 62
     7
  6
CONTINUOUS
  0
LAYER
  2
1
 70
     0
 62
     1
  6
CENTER
  0
LAYER
  2
DEFPOINTS
 70
     0
 62
     7
  6
CONTINUOUS
  0
LAYER
  2
2
 70
     0
 62
     2
  6
HIDDEN
  0
LAYER
  2
3
 70
     0
 62
     3
  6
CONTINUOUS
  0
ENDTAB
  0
TABLE
  2
STYLE
 70
     2
  0
STYLE
  2
STANDARD
 70
     0
 40
0.0
 41
1.0
 50
0.0
 71
     0
 42
4.0
  3
SIMPLEX
  4
BIGFONT
  0
STYLE
  2
STANDARD1
 70
     0
 40
0.0
 41
1.0
 50
0.0
 71
     0
 42
3.0
  3
txt
  4

  0
ENDTAB
  0
TABLE
  2
VIEW
 70
     1
  0
VIEW
  2
ALL
 70
     0
 40
175.0
 10
143.1020066889632
 20
87.5
 41
286.2040133779264
 11
0.0
 21
0.0
 31
1.0
 12
0.0
 22
0.0
 32
0.0
 42
50.0
 43
0.0
 44
0.0
 50
0.0
 71
     0
  0
ENDTAB
  0
TABLE
  2
UCS
 70
     0
  0
ENDTAB
  0
TABLE
  2
APPID
 70
     6
  0
APPID
  2
ACAD
 70
     0
  0
APPID
  2
ACAD_DSTYLE_DIMJAG
 70
     0
  0
APPID
  2
ACAD_DSTYLE_DIMTALN
 70
     0
  0
APPID
  2
ACAD_EXEMPT_FROM_CAD_STANDARDS
 70
     0
  0
APPID
  2
ACAD_MLEADERVER
 70
     0
  0
APPID
  2
ACAD_NAV_VCDISPLAY
 70
     0
  0
ENDTAB
  0
TABLE
  2
DIMSTYLE
 70
     1
  0
DIMSTYLE
  2
STANDARD
 70
     0
  3

  4

  5

  6

  7

 40
1.0
 41
0.18
 42
0.0625
 43
0.38
 44
0.18
 45
0.0
 46
0.0
 47
0.0
 48
0.0
140
0.18
141
0.09
142
0.0
143
25.399999999999999
144
1.0
145
0.0
146
1.0
147
0.09
 71
     0
 72
     0
 73
     1
 74
     1
 75
     0
 76
     0
 77
     0
 78
     0
170
     0
171
     2
172
     0
173
     0
174
     0
175
     0
176
     0
177
     0
178
     0
  0
ENDTAB
  0
ENDSEC
  0
SECTION
  2
BLOCKS
  0
BLOCK
  8
0
  2
$MODEL_SPACE
 70
     0
 10
0.0
 20
0.0
 30
0.0
  3
$MODEL_SPACE
  1

  0
ENDBLK
  5
8A
  8
0
  0
BLOCK
 67
     1
  8
0
  2
$PAPER_SPACE
 70
     0
 10
0.0
 20
0.0
 30
0.0
  3
$PAPER_SPACE
  1

  0
ENDBLK
  5
88
 67
     1
  8
0
  0
ENDSEC
  0
SECTION
  2
ENTITIES
  0
LINE
  5
127D
  8
0
 10
30.238591873501651
 20
92.485981882087927
 30
0.0
 11
30.23859187350164
 21
91.78598188208791
 31
0.0
  0
LINE
  5
127E
  8
0
 10
50.238591873501633
 20
91.785981882087853
 30
0.0
 11
50.238591873501633
 21
92.485981882087856
 31
0.0
  0
LINE
  5
127F
  8
0
 10
30.23859187350164
 20
91.78598188208791
 30
0.0
 11
31.823042888658591
 21
86.260344526270927
 31
0.0
  0
LINE
  5
1280
  8
0
 10
48.654140858344633
 20
86.260344526270885
 30
0.0
 11
50.238591873501633
 21
91.785981882087853
 31
0.0
  0
LINE
  5
1281
  8
0
 10
50.238591873501633
 20
92.485981882087856
 30
0.0
 11
49.73859187350164
 21
92.98598188208787
 31
0.0
  0
LINE
  5
1282
  8
0
 10
30.73859187350163
 20
92.985981882087927
 30
0.0
 11
30.238591873501651
 21
92.485981882087927
 31
0.0
  0
ARC
  5
1283
  8
0
 10
47.692879162406307
 20
86.535981882087853
 30
0.0
 40
1.0
 50
270.0
 51
344.00000000000011
  0
ARC
  5
1284
  8
0
 10
32.78430458459691
 20
86.53598188208791
 30
0.0
 40
1.000000000000002
 50
195.9999999999998
 51
270.0
  0
LINE
  5
1285
  8
0
 10
32.738591873501662
 20
98.485981882087927
 30
0.0
 11
32.738591873501647
 21
94.185981882087916
 31
0.0
  0
LINE
  5
1286
  8
0
 10
47.73859187350164
 20
94.185981882087859
 30
0.0
 11
47.738591873501662
 21
98.485981882087884
 31
0.0
  0
LINE
  5
1287
  8
0
 10
32.738591873501647
 20
94.185981882087916
 30
0.0
 11
33.238591873501647
 21
93.319956478303453
 31
0.0
  0
LINE
  5
1288
  8
0
 10
47.23859187350164
 20
93.319956478303411
 30
0.0
 11
47.73859187350164
 21
94.185981882087859
 31
0.0
  0
LINE
  5
1289
  8
0
 10
32.83859187350167
 20
99.485981882087913
 30
0.0
 11
32.838591873501663
 21
98.485981882087927
 31
0.0
  0
LINE
  5
128A
  8
0
 10
47.638591873501653
 20
98.485981882087884
 30
0.0
 11
47.638591873501653
 21
99.485981882087842
 31
0.0
  0
LINE
  5
128B
  8
0
 10
47.638591873501653
 20
99.485981882087842
 30
0.0
 11
47.061241604312038
 21
100.4859818820879
 31
0.0
  0
LINE
  5
128C
  8
0
 10
33.415942142691293
 20
100.4859818820879
 30
0.0
 11
32.83859187350167
 21
99.485981882087913
 31
0.0
  0
LINE
  5
128D
  8
0
 10
33.238591873501647
 20
93.319956478303453
 30
0.0
 11
33.238591873501647
 21
92.985981882087927
 31
0.0
  0
LINE
  5
128E
  8
0
 10
47.23859187350164
 20
92.98598188208787
 30
0.0
 11
47.23859187350164
 21
93.319956478303411
 31
0.0
  0
LINE
  5
128F
  8
0
 10
30.23859187350164
 20
91.78598188208791
 30
0.0
 11
50.238591873501633
 21
91.785981882087853
 31
0.0
  0
LINE
  5
1291
  8
0
 10
30.738591873501651
 20
92.985981882087927
 30
0.0
 11
49.738591873501619
 21
92.98598188208787
 31
0.0
  0
LINE
  5
1293
  8
0
 10
47.692879162406307
 20
85.535981882087881
 30
0.0
 11
32.78430458459691
 21
85.53598188208791
 31
0.0
  0
LINE
  5
1294
  8
0
 10
32.738591873501647
 20
94.185981882087916
 30
0.0
 11
47.738591873501633
 21
94.185981882087859
 31
0.0
  0
LINE
  5
1295
  8
0
 10
32.738591873501662
 20
98.485981882087927
 30
0.0
 11
47.73859187350164
 21
98.485981882087884
 31
0.0
  0
LINE
  5
1297
  8
0
 10
47.638591873501653
 20
99.485981882087842
 30
0.0
 11
32.83859187350167
 21
99.485981882087913
 31
0.0
  0
LINE
  5
1298
  8
0
 10
33.415942142691293
 20
100.4859818820879
 30
0.0
 11
47.061241604312038
 21
100.4859818820879
 31
0.0
  0
LINE
  5
12BF
  8
1
 10
55.238591873501612
 20
46.333210083140798
 30
0.0
 11
25.238591873501608
 21
46.333210083140763
 31
0.0
  0
LINE
  5
12D3
  8
2
 10
46.338591873501422
 20
100.4859818820879
 30
0.0
 11
45.338591873501429
 21
99.485981882087884
 31
0.0
  0
LINE
  5
12D4
  8
2
 10
45.338591873501429
 20
99.485981882087884
 30
0.0
 11
35.138591873501461
 21
99.485981882087884
 31
0.0
  0
LINE
  5
12D5
  8
2
 10
35.138591873501461
 20
99.485981882087884
 30
0.0
 11
34.138591873501461
 21
100.4859818820879
 31
0.0
  0
LINE
  5
12D8
  8
2
 10
35.138591873501461
 20
99.485981882087884
 30
0.0
 11
35.138591873501412
 21
86.53598188208791
 31
0.0
  0
LINE
  5
12D9
  8
2
 10
34.138591873501397
 20
85.53598188208791
 30
0.0
 11
35.138591873501412
 21
86.53598188208791
 31
0.0
  0
LINE
  5
12E9
  8
2
 10
45.338591873501372
 20
86.535981882087853
 30
0.0
 11
46.338591873501393
 21
85.535981882087853
 31
0.0
  0
LINE
  5
12EA
  8
2
 10
45.338591873501372
 20
86.535981882087853
 30
0.0
 11
45.338591873501429
 21
99.485981882087884
 31
0.0
  0
LINE
  5
12EC
  8
2
 10
35.138591873501412
 20
86.53598188208791
 30
0.0
 11
45.338591873501372
 21
86.535981882087853
 31
0.0
  0
LINE
  5
12FF
  8
2
 10
46.238591925655463
 20
85.635981962554141
 30
0.0
 11
46.23859192565547
 21
90.035981938712283
 31
0.0
  0
LINE
  5
1300
  8
2
 10
34.238591821347363
 20
90.035981938712325
 30
0.0
 11
34.238591821347327
 21
85.635981962554169
 31
0.0
  0
LINE
  5
1303
  8
2
 10
46.238591925655463
 20
90.035981938712254
 30
0.0
 11
34.238591821347363
 21
90.035981938712325
 31
0.0
  0
LINE
  5
14C7
  8
1
 10
40.23859187350164
 20
105.4859818820879
 30
0.0
 11
40.23859187350164
 21
80.537005387935153
 31
0.0
  0
LINE
  5
14C9
  8
1
 10
40.238591873501612
 20
61.333210083140777
 30
0.0
 11
40.238591873501612
 21
31.333210083140791
 31
0.0
  0
CIRCLE
  5
1510
  8
0
 10
40.238591873501569
 20
46.333210083140798
 30
0.0
 40
7.4542872889046796
  0
CIRCLE
  5
1511
  8
0
 10
40.238591873501569
 20
46.333210083140798
 30
0.0
 40
6.0999999999999943
  0
CIRCLE
  5
1512
  8
0
 10
40.238591873501569
 20
46.333210083140798
 30
0.0
 40
5.0999999999999943
  0
CIRCLE
  5
1513
  8
0
 10
40.238591873501612
 20
46.33321008314082
 30
0.0
 40
10.0
  0
CIRCLE
  5
1524
  8
3
 10
40.238591873501612
 20
46.333210083140777
 30
0.0
 40
6.0
  0
TEXT
  5
159E
  8
0
 62
     3
 10
0.0
 20
0.0
 30
0.0
 40
10.0
  1
CP721-15032
  7
STANDARD1
  0
ENDSEC
  0
EOF
