  0
SECTION
  2
HEADER
  9
$ACADVER
  1
AC1009
  9
$INSBASE
 10
0.0
 20
0.0
 30
0.0
  9
$EXTMIN
 10
0.0
 20
-2.960436562073669
 30
0.0
  9
$EXTMAX
 10
151.50943963850489
 20
150.6585190967221
 30
0.0
  9
$LIMMIN
 10
0.0
 20
0.0
  9
$LIMMAX
 10
385.0
 20
270.0
  9
$ORTHOMODE
 70
     1
  9
$REGENMODE
 70
     1
  9
$FILLMODE
 70
     1
  9
$QTEXTMODE
 70
     0
  9
$MIRRTEXT
 70
     0
  9
$DRAGMODE
 70
     2
  9
$LTSCALE
 40
5.0
  9
$OSMODE
 70
  3071
  9
$ATTMODE
 70
     1
  9
$TEXTSIZE
 40
4.000000000000048
  9
$TRACEWID
 40
0.05
  9
$TEXTSTYLE
  7
STANDARD
  9
$CLAYER
  8
0
  9
$CELTYPE
  6
BYLAYER
  9
$CECOLOR
 62
   256
  9
$DIMSCALE
 40
1.0
  9
$DIMASZ
 40
3.0
  9
$DIMEXO
 40
2.0
  9
$DIMDLI
 40
0.38
  9
$DIMRND
 40
0.0
  9
$DIMDLE
 40
0.0
  9
$DIMEXE
 40
2.0
  9
$DIMTP
 40
0.0
  9
$DIMTM
 40
0.0
  9
$DIMTXT
 40
3.0
  9
$DIMCEN
 40
0.0
  9
$DIMTSZ
 40
0.0
  9
$DIMTOL
 70
     0
  9
$DIMLIM
 70
     0
  9
$DIMTIH
 70
     0
  9
$DIMTOH
 70
     0
  9
$DIMSE1
 70
     0
  9
$DIMSE2
 70
     0
  9
$DIMTAD
 70
     1
  9
$DIMZIN
 70
     0
  9
$DIMBLK
  1

  9
$DIMASO
 70
     0
  9
$DIMSHO
 70
     0
  9
$DIMPOST
  1

  9
$DIMAPOST
  1

  9
$DIMALT
 70
     0
  9
$DIMALTD
 70
     2
  9
$DIMALTF
 40
25.399999999999999
  9
$DIMLFAC
 40
1.0
  9
$DIMTOFL
 70
     1
  9
$DIMTVP
 40
1.6000000000000001
  9
$DIMTIX
 70
     1
  9
$DIMSOXD
 70
     0
  9
$DIMSAH
 70
     0
  9
$DIMBLK1
  1

  9
$DIMBLK2
  1

  9
$DIMSTYLE
  2
STANDARD
  9
$DIMCLRD
 70
     0
  9
$DIMCLRE
 70
     0
  9
$DIMCLRT
 70
     0
  9
$DIMTFAC
 40
1.0
  9
$DIMGAP
 40
1.0
  9
$LUNITS
 70
     2
  9
$LUPREC
 70
     1
  9
$SKETCHINC
 40
0.1
  9
$FILLETRAD
 40
0.0
  9
$AUNITS
 70
     0
  9
$AUPREC
 70
     1
  9
$MENU
  1
E:\r13\win\SUPPORT\ACAD
  9
$ELEVATION
 40
0.0
  9
$PELEVATION
 40
0.0
  9
$THICKNESS
 40
0.0
  9
$LIMCHECK
 70
     0
  9
$BLIPMODE
 70
     0
  9
$CHAMFERA
 40
0.0
  9
$CHAMFERB
 40
0.0
  9
$SKPOLY
 70
     0
  9
$TDCREATE
 40
2450280.598206134
  9
$TDUPDATE
 40
2456598.4983900231
  9
$TDINDWG
 40
0.2143731713
  9
$TDUSRTIMER
 40
0.2143731713
  9
$USRTIMER
 70
     1
  9
$ANGBASE
 50
0.0
  9
$ANGDIR
 70
     0
  9
$PDMODE
 70
     0
  9
$PDSIZE
 40
0.0
  9
$PLINEWID
 40
0.0
  9
$COORDS
 70
     1
  9
$SPLFRAME
 70
     0
  9
$SPLINETYPE
 70
     6
  9
$SPLINESEGS
 70
     8
  9
$ATTDIA
 70
     0
  9
$ATTREQ
 70
     1
  9
$HANDLING
 70
     1
  9
$HANDSEED
  5
1632
  9
$SURFTAB1
 70
     6
  9
$SURFTAB2
 70
     6
  9
$SURFTYPE
 70
     6
  9
$SURFU
 70
     6
  9
$SURFV
 70
     6
  9
$UCSNAME
  2

  9
$UCSORG
 10
0.0
 20
0.0
 30
0.0
  9
$UCSXDIR
 10
1.0
 20
0.0
 30
0.0
  9
$UCSYDIR
 10
0.0
 20
1.0
 30
0.0
  9
$PUCSNAME
  2

  9
$PUCSORG
 10
0.0
 20
0.0
 30
0.0
  9
$PUCSXDIR
 10
1.0
 20
0.0
 30
0.0
  9
$PUCSYDIR
 10
0.0
 20
1.0
 30
0.0
  9
$USERI1
 70
     3
  9
$USERI2
 70
     1
  9
$USERI3
 70
     1
  9
$USERI4
 70
     0
  9
$USERI5
 70
     0
  9
$USERR1
 40
1.0
  9
$USERR2
 40
3.0
  9
$USERR3
 40
3.0
  9
$USERR4
 40
3.0
  9
$USERR5
 40
10.0
  9
$WORLDVIEW
 70
     1
  9
$SHADEDGE
 70
     3
  9
$SHADEDIF
 70
    70
  9
$TILEMODE
 70
     1
  9
$MAXACTVP
 70
    16
  9
$PLIMCHECK
 70
     0
  9
$PEXTMIN
 10
1.0000000000000000E+020
 20
1.0000000000000000E+020
 30
1.0000000000000000E+020
  9
$PEXTMAX
 10
-1.0000000000000000E+020
 20
-1.0000000000000000E+020
 30
-1.0000000000000000E+020
  9
$PLIMMIN
 10
0.0
 20
0.0
  9
$PLIMMAX
 10
12.0
 20
9.0
  9
$UNITMODE
 70
     0
  9
$VISRETAIN
 70
     0
  9
$PLINEGEN
 70
     0
  9
$PSLTSCALE
 70
     0
  0
ENDSEC
  0
SECTION
  2
TABLES
  0
TABLE
  2
VPORT
 70
     1
  0
VPORT
  2
*ACTIVE
 70
     0
 10
0.0
 20
0.0
 11
1.0
 21
1.0
 12
200.05795575583809
 22
133.5127261426681
 13
0.0
 23
0.0
 14
5.0
 24
5.0
 15
10.0
 25
10.0
 16
0.0
 26
0.0
 36
1.0
 17
0.0
 27
0.0
 37
0.0
 40
275.42274993631997
 41
1.831871345029239
 42
50.0
 43
0.0
 44
0.0
 50
0.0
 51
0.0
 71
     0
 72
   500
 73
     1
 74
     0
 75
     0
 76
     0
 77
     0
 78
     2
  0
ENDTAB
  0
TABLE
  2
LTYPE
 70
     5
  0
LTYPE
  2
CONTINUOUS
 70
     0
  3
Solid Line
 72
    65
 73
     0
 40
0.0
  0
LTYPE
  2
CENTER
 70
     0
  3
____ _ ____ _ ____ _ ____ _ ____ _ ____ _ ____
 72
    65
 73
     4
 40
2.0
 49
1.25
 49
-0.25
 49
0.25
 49
-0.25
  0
LTYPE
  2
HIDDEN
 70
     0
  3
_ _ _ _ _ _ _ _ _ _ _ _ _ _ _ _ _ _ _ _ _ _ _
 72
    65
 73
     2
 40
0.375
 49
0.25
 49
-0.125
  0
LTYPE
  2
PHANTOM
 70
     0
  3
Phantom ______  __  __  ______  __  __  ______
 72
    65
 73
     6
 40
2.5
 49
1.25
 49
-0.25
 49
0.25
 49
-0.25
 49
0.25
 49
-0.25
  0
LTYPE
  2
PHANTOM2
 70
     0
  3
___ _ _ ___ _ _ ___ _ _ ___ _ _
 72
    65
 73
     6
 40
1.25
 49
0.625
 49
-0.125
 49
0.125
 49
-0.125
 49
0.125
 49
-0.125
  0
ENDTAB
  0
TABLE
  2
LAYER
 70
     4
  0
LAYER
  2
0
 70
     0
 62
     7
  6
CONTINUOUS
  0
LAYER
  2
1
 70
     0
 62
     1
  6
CENTER
  0
LAYER
  2
2
 70
     0
 62
     2
  6
HIDDEN
  0
LAYER
  2
5
 70
     0
 62
     3
  6
PHANTOM
  0
ENDTAB
  0
TABLE
  2
STYLE
 70
     2
  0
STYLE
  2
STANDARD
 70
     0
 40
0.0
 41
1.0
 50
0.0
 71
     0
 42
4.000000000000048
  3
SIMPLEX
  4
BIGFONT
  0
STYLE
  2
STANDARD1
 70
     0
 40
0.0
 41
1.0
 50
0.0
 71
     0
 42
3.0
  3
txt
  4

  0
ENDTAB
  0
TABLE
  2
VIEW
 70
     0
  0
ENDTAB
  0
TABLE
  2
UCS
 70
     0
  0
ENDTAB
  0
TABLE
  2
APPID
 70
     4
  0
APPID
  2
ACAD
 70
     0
  0
APPID
  2
ACAD_MLEADERVER
 70
     0
  0
APPID
  2
ACAD_NAV_VCDISPLAY
 70
     0
  0
APPID
  2
ACAD_EXEMPT_FROM_CAD_STANDARDS
 70
     0
  0
ENDTAB
  0
TABLE
  2
DIMSTYLE
 70
     1
  0
DIMSTYLE
  2
STANDARD
 70
     0
  3

  4

  5

  6

  7

 40
1.0
 41
0.18
 42
0.0625
 43
0.38
 44
0.18
 45
0.0
 46
0.0
 47
0.0
 48
0.0
140
0.18
141
0.09
142
0.0
143
25.399999999999999
144
1.0
145
0.0
146
1.0
147
0.09
 71
     0
 72
     0
 73
     1
 74
     1
 75
     0
 76
     0
 77
     0
 78
     0
170
     0
171
     2
172
     0
173
     0
174
     0
175
     0
176
     0
177
     0
178
     0
  0
ENDTAB
  0
ENDSEC
  0
SECTION
  2
BLOCKS
  0
BLOCK
  8
0
  2
$MODEL_SPACE
 70
     0
 10
0.0
 20
0.0
 30
0.0
  3
$MODEL_SPACE
  1

  0
ENDBLK
  5
175
  8
0
  0
BLOCK
 67
     1
  8
0
  2
$PAPER_SPACE
 70
     0
 10
0.0
 20
0.0
 30
0.0
  3
$PAPER_SPACE
  1

  0
ENDBLK
  5
173
 67
     1
  8
0
  0
ENDSEC
  0
SECTION
  2
ENTITIES
  0
LINE
  5
DF1
  8
1
 10
94.509440145144566
 20
139.4085190967221
 30
0.0
 11
94.509440145144566
 21
129.9085190967221
 31
0.0
  0
LINE
  5
DF2
  8
1
 10
64.509440145144566
 20
139.4085190967221
 30
0.0
 11
64.509440145144566
 21
129.9085190967221
 31
0.0
  0
LINE
  5
DF3
  8
1
 10
54.509440145144559
 20
134.6585190967221
 30
0.0
 11
104.5094401451445
 21
134.6585190967221
 31
0.0
  0
LINE
  5
DF4
  8
1
 10
79.509440145144566
 20
150.6585190967221
 30
0.0
 11
79.509440145144566
 21
118.6585190967221
 31
0.0
  0
CIRCLE
  5
DF5
  8
0
 10
64.509440145144566
 20
134.6585190967221
 30
0.0
 40
2.25
  0
CIRCLE
  5
DF6
  8
0
 10
94.509440145144566
 20
134.6585190967221
 30
0.0
 40
2.25
  0
LINE
  5
DF7
  8
0
 10
62.806147056654339
 20
123.6585190967221
 30
0.0
 11
96.212733233634566
 21
123.6585190967221
 31
0.0
  0
LINE
  5
DF8
  8
0
 10
62.806147056654339
 20
145.6585190967221
 30
0.0
 11
96.212733233634566
 21
145.6585190967221
 31
0.0
  0
ARC
  5
DF9
  8
0
 10
79.509440145144566
 20
134.6585190967221
 30
0.0
 40
20.0
 50
326.63298703076958
 51
33.367012969230423
  0
ARC
  5
DFA
  8
0
 10
79.509440145144566
 20
134.6585190967221
 30
0.0
 40
20.0
 50
146.6329870307695
 51
213.36701296923039
  0
CIRCLE
  5
DFB
  8
0
 10
79.509440145144566
 20
134.6585190967221
 30
0.0
 40
10.0
  0
CIRCLE
  5
DFC
  8
0
 10
79.509440145144566
 20
134.6585190967221
 30
0.0
 40
5.9999999999998863
  0
LINE
  5
E0A
  8
2
 10
96.759440145144453
 20
74.078517861713905
 30
0.0
 11
96.759440145144453
 21
66.07851786171392
 31
0.0
  0
LINE
  5
E0B
  8
2
 10
92.259440145144438
 20
74.078517861713905
 30
0.0
 11
92.259440145144438
 21
66.07851786171392
 31
0.0
  0
LINE
  5
E0C
  8
1
 10
94.509440145144467
 20
76.578519016553912
 30
0.0
 11
94.509440145144467
 21
63.578518636577783
 31
0.0
  0
LINE
  5
E1B
  8
1
 10
64.509440145143998
 20
76.578519016553912
 30
0.0
 11
64.509440145143998
 21
63.578518636574422
 31
0.0
  0
LINE
  5
E1C
  8
2
 10
66.759440145143984
 20
74.078517861713905
 30
0.0
 11
66.759440145143984
 21
66.07851786171392
 31
0.0
  0
LINE
  5
E1D
  8
2
 10
62.259440145143998
 20
74.078517861713905
 30
0.0
 11
62.259440145143998
 21
66.07851786171392
 31
0.0
  0
LINE
  5
102C
  8
0
 10
86.509440361211261
 20
55.278518356432471
 30
0.0
 11
86.509440361211261
 21
56.078518860091712
 31
0.0
  0
LINE
  5
102D
  8
0
 10
72.509439929077615
 20
56.078518860091712
 30
0.0
 11
72.509439929077615
 21
55.278518356432471
 31
0.0
  0
ARC
  5
102E
  8
0
 10
90.509440145144424
 20
75.078518636574273
 30
0.0
 40
1.0
 50
180.0
 51
270.0
  0
ARC
  5
102F
  8
0
 10
68.509440145144424
 20
75.078518636574273
 30
0.0
 40
1.0
 50
270.0
 51
0.0
  0
LINE
  5
1030
  8
0
 10
59.509440592179288
 20
73.578518468936224
 30
0.0
 11
59.509440592179288
 21
66.578518660323013
 31
0.0
  0
LINE
  5
1031
  8
0
 10
60.0094397428131
 20
74.078519016553912
 30
0.0
 11
59.509440592179288
 21
73.578518468936224
 31
0.0
  0
LINE
  5
1032
  8
0
 10
99.509439698109588
 20
66.578518660323013
 30
0.0
 11
99.509439698109588
 21
73.578518468936224
 31
0.0
  0
LINE
  5
1033
  8
0
 10
99.509439698109588
 20
73.578518468936224
 30
0.0
 11
99.009440547475776
 21
74.078519016553912
 31
0.0
  0
LINE
  5
1034
  8
0
 10
59.509440592179288
 20
66.578518660323013
 30
0.0
 11
60.0094397428131
 21
66.078518636574302
 31
0.0
  0
LINE
  5
1035
  8
0
 10
99.009440547475776
 20
66.078518636574302
 30
0.0
 11
99.509439698109588
 21
66.578518660323013
 31
0.0
  0
POLYLINE
  5
1036
  8
0
 66
     1
 10
0.0
 20
0.0
 30
0.0
 70
   128
  0
VERTEX
  5
1622
  8
0
 10
89.209440431246719
 20
65.978518639100514
 30
0.0
  0
VERTEX
  5
1623
  8
0
 10
89.217125705132446
 20
66.056554765170006
 30
0.0
  0
VERTEX
  5
1624
  8
0
 10
89.222141808519325
 20
66.078518636574302
 30
0.0
  0
SEQEND
  5
1625
  8
0
  0
POLYLINE
  5
1037
  8
0
 66
     1
 10
0.0
 20
0.0
 30
0.0
 70
   128
  0
VERTEX
  5
1626
  8
0
 10
69.796738481769552
 20
66.078518636574302
 30
0.0
  0
VERTEX
  5
1627
  8
0
 10
69.801754585156431
 20
66.056554765170006
 30
0.0
  0
VERTEX
  5
1628
  8
0
 10
69.809439859042143
 20
65.978518639100514
 30
0.0
  0
SEQEND
  5
1629
  8
0
  0
LINE
  5
1038
  8
0
 10
89.509439921627006
 20
75.078518249144111
 30
0.0
 11
89.509439921627006
 21
83.578518711080093
 31
0.0
  0
LINE
  5
1039
  8
0
 10
69.50944036866187
 20
83.578518711080093
 30
0.0
 11
69.50944036866187
 21
75.078518249144111
 31
0.0
  0
LINE
  5
103A
  8
0
 10
89.509439921627006
 20
83.578518711080093
 30
0.0
 11
89.00943983967062
 21
84.078517861713905
 31
0.0
  0
LINE
  5
103B
  8
0
 10
70.009440450618257
 20
84.078517861713905
 30
0.0
 11
69.50944036866187
 21
83.578518711080093
 31
0.0
  0
ARC
  5
103C
  8
0
 10
89.609440145144447
 20
64.965816971195039
 30
0.0
 40
0.4000000000000057
 50
180.0
 51
255.5224878140701
  0
ARC
  5
103D
  8
0
 10
69.409440145144458
 20
64.965816971195039
 30
0.0
 40
0.3999999999999986
 50
284.47751218592992
 51
0.0
  0
LINE
  5
103E
  8
0
 10
89.509439921627006
 20
57.810569301297221
 30
0.0
 11
89.509439921627006
 21
64.578518623535786
 31
0.0
  0
LINE
  5
103F
  8
0
 10
69.50944036866187
 20
64.578518623535786
 30
0.0
 11
69.50944036866187
 21
57.810569301297221
 31
0.0
  0
LINE
  5
1040
  8
0
 10
69.50944036866187
 20
57.810569301297221
 30
0.0
 11
70.509440532574644
 21
56.078518860091712
 31
0.0
  0
LINE
  5
1041
  8
0
 10
88.509439757714233
 20
56.078518860091712
 30
0.0
 11
89.509439921627006
 21
57.810569301297221
 31
0.0
  0
LINE
  5
1042
  8
0
 10
89.209440431246719
 20
64.965816916016195
 30
0.0
 11
89.209440431246719
 21
65.978518639100514
 31
0.0
  0
LINE
  5
1043
  8
0
 10
69.809439859042143
 20
65.978518639100514
 30
0.0
 11
69.809439859042143
 21
64.965816916016195
 31
0.0
  0
LINE
  5
1044
  8
0
 10
85.509440197298488
 20
84.078517861713905
 30
0.0
 11
85.509440197298488
 21
85.378519378652115
 31
0.0
  0
LINE
  5
1045
  8
0
 10
73.509440092990388
 20
85.378519378652115
 30
0.0
 11
73.509440092990388
 21
84.078517861713905
 31
0.0
  0
ARC
  5
1046
  8
0
 10
84.409440145144458
 20
85.778518636574304
 30
0.0
 40
0.3999999999999915
 50
180.0
 51
270.0
  0
ARC
  5
1047
  8
0
 10
74.609440145144447
 20
85.778518636574304
 30
0.0
 40
0.3999999999999986
 50
270.0
 51
0.0
  0
LINE
  5
1048
  8
0
 10
84.009439951429329
 20
85.778518699159164
 30
0.0
 11
84.009439951429329
 21
86.378519542564902
 31
0.0
  0
LINE
  5
1049
  8
0
 10
75.009440338859534
 20
86.378519542564902
 30
0.0
 11
75.009440338859534
 21
85.778518699159164
 31
0.0
  0
LINE
  5
104A
  8
0
 10
84.009439951429329
 20
86.378519542564902
 30
0.0
 11
82.257368868837318
 21
92.917337201585326
 31
0.0
  0
LINE
  5
104B
  8
0
 10
76.761511421451559
 20
92.917337201585326
 30
0.0
 11
75.009440338859534
 21
86.378519542564902
 31
0.0
  0
LINE
  5
104C
  8
0
 10
83.509440335134229
 20
54.278518192519691
 30
0.0
 11
83.509440335134229
 21
55.278518356432471
 31
0.0
  0
LINE
  5
104D
  8
0
 10
75.509439955154633
 20
55.278518356432471
 30
0.0
 11
75.509439955154633
 21
54.278518192519691
 31
0.0
  0
LINE
  5
104E
  8
0
 10
75.509439955154633
 20
54.278518192519691
 30
0.0
 11
76.009440037111034
 21
53.778519041885879
 31
0.0
  0
LINE
  5
104F
  8
0
 10
83.009440253177843
 20
53.778519041885879
 30
0.0
 11
83.509440335134229
 21
54.278518192519691
 31
0.0
  0
ARC
  5
1050
  8
0
 10
81.291443036266912
 20
92.658518636574286
 30
0.0
 40
1.0
 50
15.000000000000391
 51
90.0
  0
ARC
  5
1051
  8
0
 10
77.727437254021993
 20
92.658518636574286
 30
0.0
 40
1.000000000000006
 50
90.0
 51
164.99999999999949
  0
LINE
  5
1052
  8
0
 10
72.509439929077615
 20
55.278518356432471
 30
0.0
 11
86.509440361211261
 21
55.278518356432471
 31
0.0
  0
ARC
  5
1053
  8
0
 10
81.483203105535694
 20
63.313148817404823
 30
0.0
 40
3.0907290152256821
 50
63.473846870039232
 51
97.344668146441663
  0
ARC
  5
1058
  8
0
 10
77.514688046050964
 20
63.437366110919662
 30
0.0
 40
2.9704408031958192
 50
81.947486196181927
 51
117.23399878707001
  0
LINE
  5
1059
  8
0
 10
76.155338237682571
 20
66.078518636575723
 30
0.0
 11
60.009439742813477
 21
66.078518636573904
 31
0.0
  0
LINE
  5
105E
  8
0
 10
77.93078935860305
 20
66.378518650823537
 30
0.0
 11
81.088090931685826
 21
66.378518650823537
 31
0.0
  0
LINE
  5
105F
  8
0
 10
99.009440547476544
 20
66.078518636575055
 30
0.0
 11
82.863542052606306
 21
66.078518636571474
 31
0.0
  0
LINE
  5
1061
  8
0
 10
60.009439742813093
 20
74.078519016553912
 30
0.0
 11
99.009440547475776
 21
74.078519016553912
 31
0.0
  0
LINE
  5
1068
  8
0
 10
89.509439921627006
 20
83.578518711080093
 30
0.0
 11
69.50944036866187
 21
83.578518711080093
 31
0.0
  0
LINE
  5
1069
  8
0
 10
70.009440450618257
 20
84.078517861713905
 30
0.0
 11
89.00943983967062
 21
84.078517861713905
 31
0.0
  0
LINE
  5
106A
  8
0
 10
69.50944036866187
 20
64.578518623535786
 30
0.0
 11
89.509439921627006
 21
64.578518623535786
 31
0.0
  0
LINE
  5
106B
  8
0
 10
69.50944036866187
 20
57.810569301297221
 30
0.0
 11
89.509439921627006
 21
57.810569301297221
 31
0.0
  0
LINE
  5
106C
  8
0
 10
88.509439757714233
 20
56.078518860091712
 30
0.0
 11
70.509440532574644
 21
56.078518860091712
 31
0.0
  0
LINE
  5
106D
  8
0
 10
85.509440197298488
 20
85.378519378652115
 30
0.0
 11
73.509440092990388
 21
85.378519378652115
 31
0.0
  0
LINE
  5
106E
  8
0
 10
84.009439951429329
 20
86.378519542564902
 30
0.0
 11
75.009440338859534
 21
86.378519542564902
 31
0.0
  0
LINE
  5
106F
  8
0
 10
75.509439955154633
 20
54.278518192519691
 30
0.0
 11
83.509440335134229
 21
54.278518192519691
 31
0.0
  0
LINE
  5
1070
  8
0
 10
83.009440253177843
 20
53.778519041885879
 30
0.0
 11
76.009440037111034
 21
53.778519041885879
 31
0.0
  0
LINE
  5
1071
  8
0
 10
81.291443003962002
 20
93.658519096722145
 30
0.0
 11
77.727437286326875
 21
93.658519096722145
 31
0.0
  0
LINE
  5
1077
  8
1
 10
79.509440145144453
 20
48.778519041885893
 30
0.0
 11
79.509440145144453
 21
98.658519096722145
 31
0.0
  0
LINE
  5
1078
  8
5
 10
86.509440361211261
 20
47.678518228282478
 30
0.0
 11
86.509440361211261
 21
48.478518731941733
 31
0.0
  0
LINE
  5
1079
  8
5
 10
72.509439929077615
 20
48.478518731941733
 30
0.0
 11
72.509439929077615
 21
47.678518228282478
 31
0.0
  0
LINE
  5
1092
  8
5
 10
83.509440335134229
 20
48.578518562068489
 30
0.0
 11
83.509440335134229
 21
56.078518860091712
 31
0.0
  0
LINE
  5
1093
  8
5
 10
75.509439955154633
 20
56.078518860091712
 30
0.0
 11
75.509439955154633
 21
48.578518562068489
 31
0.0
  0
LINE
  5
1094
  8
5
 10
83.509440335134229
 20
46.678518064369712
 30
0.0
 11
83.509440335134229
 21
47.678518228282478
 31
0.0
  0
LINE
  5
1095
  8
5
 10
75.509439955154633
 20
47.678518228282478
 30
0.0
 11
75.509439955154633
 21
46.678518064369712
 31
0.0
  0
LINE
  5
1096
  8
5
 10
75.509439955154633
 20
46.678518064369712
 30
0.0
 11
76.009440037111034
 21
46.178518913735893
 31
0.0
  0
LINE
  5
1097
  8
5
 10
83.009440253177843
 20
46.178518913735893
 30
0.0
 11
83.509440335134229
 21
46.678518064369712
 31
0.0
  0
LINE
  5
1098
  8
5
 10
83.009440253177843
 20
48.478518731941733
 30
0.0
 11
83.009440253177843
 21
48.578518562068489
 31
0.0
  0
LINE
  5
1099
  8
5
 10
76.009440037111034
 20
48.578518562068489
 30
0.0
 11
76.009440037111034
 21
48.478518731941733
 31
0.0
  0
LINE
  5
109C
  8
5
 10
86.509440361211261
 20
48.478518731941733
 30
0.0
 11
72.509439929077615
 21
48.478518731941733
 31
0.0
  0
LINE
  5
109D
  8
5
 10
72.509439929077615
 20
47.678518228282478
 30
0.0
 11
86.509440361211261
 21
47.678518228282478
 31
0.0
  0
LINE
  5
10B8
  8
5
 10
83.509440335134229
 20
48.578518562068489
 30
0.0
 11
75.509439955154633
 21
48.578518562068489
 31
0.0
  0
LINE
  5
10B9
  8
5
 10
75.509439955154633
 20
46.678518064369712
 30
0.0
 11
83.509440335134229
 21
46.678518064369712
 31
0.0
  0
LINE
  5
10BA
  8
5
 10
83.009440253177843
 20
46.178518913735893
 30
0.0
 11
76.009440037111034
 21
46.178518913735893
 31
0.0
  0
CIRCLE
  5
10D8
  8
0
 10
79.510585266044245
 20
134.6585190967221
 30
0.0
 40
2.747928717411539
  0
CIRCLE
  5
10D9
  8
0
 10
79.510585266044245
 20
134.6585190967221
 30
0.0
 40
0.5
  0
CIRCLE
  5
10DA
  8
0
 10
79.510585266044245
 20
134.6585190967221
 30
0.0
 40
4.5000000000000071
  0
ARC
  5
10E0
  8
0
 10
151.50943963850489
 20
75.078518636574302
 30
0.0
 40
1.0
 50
180.0
 51
270.0
  0
ARC
  5
10E1
  8
0
 10
129.50943963850489
 20
75.078518636574302
 30
0.0
 40
1.0
 50
270.0
 51
0.0
  0
POLYLINE
  5
10E2
  8
0
 66
     1
 10
0.0
 20
0.0
 30
0.0
 70
   128
  0
VERTEX
  5
162A
  8
0
 10
150.20943992460721
 20
65.978518639100528
 30
0.0
  0
VERTEX
  5
162B
  8
0
 10
150.21712519849291
 20
66.05655476517002
 30
0.0
  0
VERTEX
  5
162C
  8
0
 10
150.22214130187979
 20
66.078518636574316
 30
0.0
  0
SEQEND
  5
162D
  8
0
  0
POLYLINE
  5
10E3
  8
0
 66
     1
 10
0.0
 20
0.0
 30
0.0
 70
   128
  0
VERTEX
  5
162E
  8
0
 10
130.79673797512999
 20
66.078518636574316
 30
0.0
  0
VERTEX
  5
162F
  8
0
 10
130.80175407851689
 20
66.05655476517002
 30
0.0
  0
VERTEX
  5
1630
  8
0
 10
130.80943935240259
 20
65.978518639100528
 30
0.0
  0
SEQEND
  5
1631
  8
0
  0
LINE
  5
10E4
  8
0
 10
150.5094394149875
 20
75.078518249144125
 30
0.0
 11
150.5094394149875
 21
83.578518711080122
 31
0.0
  0
LINE
  5
10E5
  8
0
 10
130.5094398620223
 20
83.578518711080122
 30
0.0
 11
130.5094398620223
 21
75.078518249144125
 31
0.0
  0
LINE
  5
10E6
  8
0
 10
150.5094394149875
 20
83.578518711080122
 30
0.0
 11
150.00943933303111
 21
84.078517861713934
 31
0.0
  0
LINE
  5
10E7
  8
0
 10
131.00943994397869
 20
84.078517861713934
 30
0.0
 11
130.5094398620223
 21
83.578518711080122
 31
0.0
  0
ARC
  5
10E8
  8
0
 10
150.60943963850491
 20
64.965816971195053
 30
0.0
 40
0.3999999999999948
 50
180.0
 51
255.5224878140717
  0
ARC
  5
10E9
  8
0
 10
130.40943963850489
 20
64.965816971195053
 30
0.0
 40
0.4000000000000057
 50
284.47751218592651
 51
0.0
  0
LINE
  5
10EA
  8
0
 10
150.5094394149875
 20
57.810569301297228
 30
0.0
 11
150.5094394149875
 21
64.5785186235358
 31
0.0
  0
LINE
  5
10EB
  8
0
 10
130.5094398620223
 20
64.5785186235358
 30
0.0
 11
130.5094398620223
 21
57.810569301297228
 31
0.0
  0
LINE
  5
10EC
  8
0
 10
130.5094398620223
 20
57.810569301297228
 30
0.0
 11
131.50944002593511
 21
56.078518860091727
 31
0.0
  0
LINE
  5
10ED
  8
0
 10
149.5094392510747
 20
56.078518860091727
 30
0.0
 11
150.5094394149875
 21
57.810569301297228
 31
0.0
  0
LINE
  5
10EE
  8
0
 10
150.20943992460721
 20
64.965816916016209
 30
0.0
 11
150.20943992460721
 21
65.978518639100528
 31
0.0
  0
LINE
  5
10EF
  8
0
 10
130.80943935240259
 20
65.978518639100528
 30
0.0
 11
130.80943935240259
 21
64.965816916016209
 31
0.0
  0
LINE
  5
10F0
  8
0
 10
146.50943969065901
 20
84.078517861713934
 30
0.0
 11
146.50943969065901
 21
85.378519378652143
 31
0.0
  0
LINE
  5
10F1
  8
0
 10
134.50943958635091
 20
85.378519378652143
 30
0.0
 11
134.50943958635091
 21
84.078517861713934
 31
0.0
  0
ARC
  5
10F2
  8
0
 10
145.40943963850501
 20
85.778518636574319
 30
0.0
 40
0.4000000000000057
 50
180.0
 51
270.0
  0
ARC
  5
10F3
  8
0
 10
135.60943963850491
 20
85.778518636574319
 30
0.0
 40
0.3999999999999915
 50
270.0
 51
0.0
  0
LINE
  5
10F4
  8
0
 10
145.00943944478979
 20
85.778518699159193
 30
0.0
 11
145.00943944478979
 21
86.378519542564916
 31
0.0
  0
LINE
  5
10F5
  8
0
 10
136.00943983222001
 20
86.378519542564916
 30
0.0
 11
136.00943983222001
 21
85.778518699159193
 31
0.0
  0
LINE
  5
10F6
  8
0
 10
145.00943944478979
 20
86.378519542564916
 30
0.0
 11
143.25736836219781
 21
92.91733720158534
 31
0.0
  0
LINE
  5
10F7
  8
0
 10
137.76151091481199
 20
92.91733720158534
 30
0.0
 11
136.00943983222001
 21
86.378519542564916
 31
0.0
  0
LINE
  5
10F8
  8
0
 10
144.50943982849469
 20
54.278518192519712
 30
0.0
 11
144.50943982849469
 21
55.278518356432478
 31
0.0
  0
LINE
  5
10F9
  8
0
 10
136.50943944851511
 20
55.278518356432478
 30
0.0
 11
136.50943944851511
 21
54.278518192519712
 31
0.0
  0
LINE
  5
10FA
  8
0
 10
136.50943944851511
 20
54.278518192519712
 30
0.0
 11
137.0094395304715
 21
53.7785190418859
 31
0.0
  0
LINE
  5
10FB
  8
0
 10
144.00943974653831
 20
53.7785190418859
 30
0.0
 11
144.50943982849469
 21
54.278518192519712
 31
0.0
  0
ARC
  5
10FC
  8
0
 10
142.2914425296274
 20
92.658518636574314
 30
0.0
 40
1.0
 50
15.000000000000741
 51
90.0
  0
ARC
  5
10FD
  8
0
 10
138.72743674738251
 20
92.658518636574314
 30
0.0
 40
1.000000000000026
 50
90.0
 51
164.99999999999989
  0
LINE
  5
1102
  8
0
 10
129.50943969810959
 20
66.078518636574316
 30
0.0
 11
129.50943969810959
 21
74.078519016553926
 31
0.0
  0
LINE
  5
1103
  8
0
 10
129.50943969810959
 20
74.078519016553926
 30
0.0
 11
151.5094395789003
 21
74.078519016553926
 31
0.0
  0
LINE
  5
1104
  8
0
 10
151.5094395789003
 20
74.078519016553926
 30
0.0
 11
151.5094395789003
 21
66.078518636574316
 31
0.0
  0
LINE
  5
1105
  8
0
 10
151.5094395789003
 20
66.078518636574316
 30
0.0
 11
129.50943969810959
 21
66.078518636574316
 31
0.0
  0
LINE
  5
110B
  8
0
 10
150.5094394149875
 20
83.578518711080122
 30
0.0
 11
130.5094398620223
 21
83.578518711080122
 31
0.0
  0
LINE
  5
110C
  8
0
 10
131.00943994397869
 20
84.078517861713934
 30
0.0
 11
150.00943933303111
 21
84.078517861713934
 31
0.0
  0
LINE
  5
110D
  8
0
 10
130.50943958800701
 20
64.5785186235358
 30
0.0
 11
150.5094394149875
 21
64.5785186235358
 31
0.0
  0
LINE
  5
110F
  8
0
 10
130.5094398620223
 20
57.810569301297221
 30
0.0
 11
150.5094394149875
 21
57.810569301297228
 31
0.0
  0
LINE
  5
1112
  8
0
 10
149.5094392510747
 20
56.078518860091727
 30
0.0
 11
131.50944002593511
 21
56.078518860091741
 31
0.0
  0
LINE
  5
1113
  8
0
 10
146.50943969065901
 20
85.378519378652143
 30
0.0
 11
134.50943958635091
 21
85.378519378652143
 31
0.0
  0
LINE
  5
1114
  8
0
 10
145.00943944478979
 20
86.378519542564916
 30
0.0
 11
136.00943983222001
 21
86.378519542564916
 31
0.0
  0
LINE
  5
1115
  8
0
 10
136.50943944851511
 20
54.278518192519712
 30
0.0
 11
144.50943982849469
 21
54.278518192519712
 31
0.0
  0
LINE
  5
1118
  8
0
 10
144.00943974653831
 20
53.7785190418859
 30
0.0
 11
137.0094395304715
 21
53.778519041885893
 31
0.0
  0
LINE
  5
1119
  8
0
 10
142.29144249732249
 20
93.658519096722173
 30
0.0
 11
138.72743677968731
 21
93.658519096722173
 31
0.0
  0
LINE
  5
111F
  8
1
 10
140.50943963850489
 20
48.778519041885893
 30
0.0
 11
140.50943963850489
 21
98.658519096722173
 31
0.0
  0
LINE
  5
1461
  8
0
 10
147.5094396354306
 20
55.278519041885872
 30
0.0
 11
147.5094396354306
 21
56.078519041885869
 31
0.0
  0
LINE
  5
1462
  8
0
 10
135.72224479330501
 20
56.078519041885912
 30
0.0
 11
135.72224479330501
 21
55.2785190418859
 31
0.0
  0
LINE
  5
1480
  8
0
 10
135.72224479330501
 20
55.278519041885872
 30
0.0
 11
147.5094396354306
 21
55.278519041885872
 31
0.0
  0
LINE
  5
14B5
  8
0
 10
82.559839162244344
 20
55.278519041885872
 30
0.0
 11
82.559839162244344
 21
56.07851904188589
 31
0.0
  0
LINE
  5
14B6
  8
0
 10
76.459041128044504
 20
55.278519041885872
 30
0.0
 11
76.459041128044504
 21
56.07851904188589
 31
0.0
  0
LINE
  5
14B7
  8
0
 10
82.559831441291365
 20
56.07851904188589
 30
0.0
 11
82.559831441291365
 21
55.278519041885872
 31
0.0
  0
LINE
  5
14B8
  8
0
 10
76.459048848997412
 20
55.278519041885872
 30
0.0
 11
76.459048848997412
 21
56.07851904188589
 31
0.0
  0
LINE
  5
14BB
  8
5
 10
82.559839162244344
 20
47.678518913735878
 30
0.0
 11
82.559839162244344
 21
48.478518913735897
 31
0.0
  0
LINE
  5
14BC
  8
5
 10
76.459041128044504
 20
47.678518913735878
 30
0.0
 11
76.459041128044504
 21
48.478518913735897
 31
0.0
  0
LINE
  5
14BD
  8
5
 10
82.559831441291365
 20
48.478518913735897
 30
0.0
 11
82.559831441291365
 21
47.678518913735878
 31
0.0
  0
LINE
  5
14BE
  8
5
 10
76.459048848997412
 20
47.678518913735878
 30
0.0
 11
76.459048848997412
 21
48.478518913735897
 31
0.0
  0
LINE
  5
14C1
  8
5
 10
85.509440197298488
 20
76.478517733563947
 30
0.0
 11
85.509440197298488
 21
77.778519250502157
 31
0.0
  0
LINE
  5
14C2
  8
5
 10
73.509440092990388
 20
77.778519250502157
 30
0.0
 11
73.509440092990388
 21
76.478517733563947
 31
0.0
  0
ARC
  5
14C3
  8
5
 10
84.409440145144458
 20
78.178518508424332
 30
0.0
 40
0.3999999999999915
 50
180.0
 51
270.0
  0
ARC
  5
14C4
  8
5
 10
74.609440145144447
 20
78.178518508424332
 30
0.0
 40
0.3999999999999986
 50
270.0
 51
0.0
  0
LINE
  5
14C5
  8
5
 10
84.009439951429329
 20
78.178518571009207
 30
0.0
 11
84.009439951429329
 21
78.77851941441493
 31
0.0
  0
LINE
  5
14C6
  8
5
 10
75.009440338859534
 20
78.77851941441493
 30
0.0
 11
75.009440338859534
 21
78.178518571009207
 31
0.0
  0
LINE
  5
14C7
  8
5
 10
84.009439951429329
 20
78.77851941441493
 30
0.0
 11
82.257368868837318
 21
85.317337073435354
 31
0.0
  0
LINE
  5
14C8
  8
5
 10
76.761511421451559
 20
85.317337073435354
 30
0.0
 11
75.009440338859534
 21
78.77851941441493
 31
0.0
  0
ARC
  5
14C9
  8
5
 10
81.291443036266912
 20
85.058518508424314
 30
0.0
 40
1.0
 50
15.00000000000038
 51
90.0
  0
ARC
  5
14CA
  8
5
 10
77.727437254021993
 20
85.058518508424314
 30
0.0
 40
1.000000000000006
 50
90.0
 51
164.99999999999949
  0
LINE
  5
14CB
  8
5
 10
85.509440197298488
 20
77.778519250502157
 30
0.0
 11
84.408669650689816
 21
77.778519250502157
 31
0.0
  0
LINE
  5
14CD
  8
5
 10
81.291443003962002
 20
86.058518968572187
 30
0.0
 11
77.727437286326875
 21
86.058518968572187
 31
0.0
  0
LINE
  5
14CE
  8
5
 10
74.610210639602755
 20
77.778519250502157
 30
0.0
 11
73.509440092990388
 21
77.778519250502157
 31
0.0
  0
TEXT
  5
15CD
  8
0
 62
     3
 10
0.0
 20
0.0
 30
0.0
 40
10.0
  1
CP710-06020A
  7
STANDARD1
  0
ENDSEC
  0
EOF
