  0
SECTION
  2
HEADER
  9
$ACADVER
  1
AC1009
  9
$INSBASE
 10
0.0
 20
0.0
 30
0.0
  9
$EXTMIN
 10
0.0
 20
-1.4802182810368341
 30
0.0
  9
$EXTMAX
 10
262.5
 20
195.75
 30
0.0
  9
$LIMMIN
 10
0.0
 20
0.0
  9
$LIMMAX
 10
12.0
 20
9.0
  9
$ORTHOMODE
 70
     1
  9
$REGENMODE
 70
     1
  9
$FILLMODE
 70
     1
  9
$QTEXTMODE
 70
     0
  9
$MIRRTEXT
 70
     0
  9
$DRAGMODE
 70
     2
  9
$LTSCALE
 40
5.0
  9
$OSMODE
 70
    37
  9
$ATTMODE
 70
     1
  9
$TEXTSIZE
 40
0.2
  9
$TRACEWID
 40
0.05
  9
$TEXTSTYLE
  7
STANDARD
  9
$CLAYER
  8
0
  9
$CELTYPE
  6
BYLAYER
  9
$CECOLOR
 62
   256
  9
$DIMSCALE
 40
1.0
  9
$DIMASZ
 40
0.18
  9
$DIMEXO
 40
0.0625
  9
$DIMDLI
 40
0.38
  9
$DIMRND
 40
0.0
  9
$DIMDLE
 40
0.0
  9
$DIMEXE
 40
0.18
  9
$DIMTP
 40
0.0
  9
$DIMTM
 40
0.0
  9
$DIMTXT
 40
2.6000000000000001
  9
$DIMCEN
 40
0.09
  9
$DIMTSZ
 40
0.0
  9
$DIMTOL
 70
     0
  9
$DIMLIM
 70
     0
  9
$DIMTIH
 70
     0
  9
$DIMTOH
 70
     0
  9
$DIMSE1
 70
     0
  9
$DIMSE2
 70
     0
  9
$DIMTAD
 70
     1
  9
$DIMZIN
 70
     8
  9
$DIMBLK
  1

  9
$DIMASO
 70
     1
  9
$DIMSHO
 70
     1
  9
$DIMPOST
  1

  9
$DIMAPOST
  1

  9
$DIMALT
 70
     0
  9
$DIMALTD
 70
     2
  9
$DIMALTF
 40
25.399999999999999
  9
$DIMLFAC
 40
1.0
  9
$DIMTOFL
 70
     0
  9
$DIMTVP
 40
0.0
  9
$DIMTIX
 70
     0
  9
$DIMSOXD
 70
     0
  9
$DIMSAH
 70
     0
  9
$DIMBLK1
  1

  9
$DIMBLK2
  1

  9
$DIMSTYLE
  2
STANDARD
  9
$DIMCLRD
 70
     0
  9
$DIMCLRE
 70
     0
  9
$DIMCLRT
 70
     0
  9
$DIMTFAC
 40
1.0
  9
$DIMGAP
 40
0.09
  9
$LUNITS
 70
     2
  9
$LUPREC
 70
     4
  9
$SKETCHINC
 40
0.1
  9
$FILLETRAD
 40
0.0
  9
$AUNITS
 70
     0
  9
$AUPREC
 70
     0
  9
$MENU
  1
.
  9
$ELEVATION
 40
0.0
  9
$PELEVATION
 40
0.0
  9
$THICKNESS
 40
0.0
  9
$LIMCHECK
 70
     0
  9
$BLIPMODE
 70
     0
  9
$CHAMFERA
 40
0.0
  9
$CHAMFERB
 40
0.0
  9
$SKPOLY
 70
     0
  9
$TDCREATE
 40
2453083.4120647679
  9
$TDUPDATE
 40
2458820.7244620142
  9
$TDINDWG
 40
0.7430889120000001
  9
$TDUSRTIMER
 40
0.7430887963
  9
$USRTIMER
 70
     1
  9
$ANGBASE
 50
0.0
  9
$ANGDIR
 70
     0
  9
$PDMODE
 70
     0
  9
$PDSIZE
 40
0.0
  9
$PLINEWID
 40
0.0
  9
$COORDS
 70
     1
  9
$SPLFRAME
 70
     0
  9
$SPLINETYPE
 70
     6
  9
$SPLINESEGS
 70
     8
  9
$ATTDIA
 70
     0
  9
$ATTREQ
 70
     1
  9
$HANDLING
 70
     1
  9
$HANDSEED
  5
7F25
  9
$SURFTAB1
 70
     6
  9
$SURFTAB2
 70
     6
  9
$SURFTYPE
 70
     6
  9
$SURFU
 70
     6
  9
$SURFV
 70
     6
  9
$UCSNAME
  2

  9
$UCSORG
 10
0.0
 20
0.0
 30
0.0
  9
$UCSXDIR
 10
1.0
 20
0.0
 30
0.0
  9
$UCSYDIR
 10
0.0
 20
1.0
 30
0.0
  9
$PUCSNAME
  2

  9
$PUCSORG
 10
0.0
 20
0.0
 30
0.0
  9
$PUCSXDIR
 10
1.0
 20
0.0
 30
0.0
  9
$PUCSYDIR
 10
0.0
 20
1.0
 30
0.0
  9
$USERI1
 70
     0
  9
$USERI2
 70
     1
  9
$USERI3
 70
     0
  9
$USERI4
 70
     0
  9
$USERI5
 70
     0
  9
$USERR1
 40
0.0
  9
$USERR2
 40
0.0
  9
$USERR3
 40
0.0
  9
$USERR4
 40
0.0
  9
$USERR5
 40
0.0
  9
$WORLDVIEW
 70
     1
  9
$SHADEDGE
 70
     3
  9
$SHADEDIF
 70
    70
  9
$TILEMODE
 70
     1
  9
$MAXACTVP
 70
    64
  9
$PLIMCHECK
 70
     0
  9
$PEXTMIN
 10
0.0
 20
0.0
 30
0.0
  9
$PEXTMAX
 10
0.0
 20
0.0
 30
0.0
  9
$PLIMMIN
 10
0.0
 20
0.0
  9
$PLIMMAX
 10
12.0
 20
9.0
  9
$UNITMODE
 70
     0
  9
$VISRETAIN
 70
     1
  9
$PLINEGEN
 70
     0
  9
$PSLTSCALE
 70
     1
  0
ENDSEC
  0
SECTION
  2
TABLES
  0
TABLE
  2
VPORT
 70
     1
  0
VPORT
  2
*ACTIVE
 70
     0
 10
0.0
 20
0.0
 11
1.0
 21
1.0
 12
227.5314396351169
 22
97.140256614630417
 13
0.0
 23
0.0
 14
0.5
 24
0.5
 15
0.5
 25
0.5
 16
0.0
 26
0.0
 36
1.0
 17
0.0
 27
0.0
 37
0.0
 40
198.97235160292601
 41
2.415644171779141
 42
50.0
 43
0.0
 44
0.0
 50
0.0
 51
0.0
 71
     0
 72
  1000
 73
     1
 74
     2
 75
     0
 76
     0
 77
     0
 78
     0
  0
ENDTAB
  0
TABLE
  2
LTYPE
 70
     3
  0
LTYPE
  2
CONTINUOUS
 70
     0
  3
Solid Line
 72
    65
 73
     0
 40
0.0
  0
LTYPE
  2
CENTER
 70
     0
  3
____ _ ____ _ ____ _ ____ _ ____ _ ____ _ ____
 72
    65
 73
     4
 40
2.0
 49
1.25
 49
-0.25
 49
0.25
 49
-0.25
  0
LTYPE
  2
PHANTOM2
 70
     0
  3
___ _ _ ___ _ _ ___ _ _ ___ _ _
 72
    65
 73
     6
 40
1.25
 49
0.625
 49
-0.125
 49
0.125
 49
-0.125
 49
0.125
 49
-0.125
  0
ENDTAB
  0
TABLE
  2
LAYER
 70
     4
  0
LAYER
  2
0
 70
     0
 62
     7
  6
CONTINUOUS
  0
LAYER
  2
1
 70
     0
 62
     1
  6
CENTER
  0
LAYER
  2
DEFPOINTS
 70
     0
 62
     7
  6
CONTINUOUS
  0
LAYER
  2
3
 70
     0
 62
     3
  6
CONTINUOUS
  0
ENDTAB
  0
TABLE
  2
STYLE
 70
     2
  0
STYLE
  2
STANDARD
 70
     0
 40
0.0
 41
1.0
 50
0.0
 71
     0
 42
0.2
  3
simplex.shx
  4
bigfont.shx
  0
STYLE
  2
STANDARD1
 70
     0
 40
0.0
 41
1.0
 50
0.0
 71
     0
 42
3.0
  3
txt
  4

  0
ENDTAB
  0
TABLE
  2
VIEW
 70
     0
  0
ENDTAB
  0
TABLE
  2
UCS
 70
     0
  0
ENDTAB
  0
TABLE
  2
APPID
 70
     5
  0
APPID
  2
ACAD
 70
     0
  0
APPID
  2
ACAD_MLEADERVER
 70
     0
  0
APPID
  2
ACAD_NAV_VCDISPLAY
 70
     0
  0
APPID
  2
ACAD_EXEMPT_FROM_CAD_STANDARDS
 70
     0
  0
APPID
  2
ACAD_DSTYLE_DIMRADIAL_EXTENSION
 70
     0
  0
ENDTAB
  0
TABLE
  2
DIMSTYLE
 70
     1
  0
DIMSTYLE
  2
STANDARD
 70
     0
  3

  4

  5

  6

  7

 40
1.0
 41
0.18
 42
0.0625
 43
0.38
 44
0.18
 45
0.0
 46
0.0
 47
0.0
 48
0.0
140
2.6000000000000001
141
0.09
142
0.0
143
25.399999999999999
144
1.0
145
0.0
146
1.0
147
0.09
 71
     0
 72
     0
 73
     0
 74
     0
 75
     0
 76
     0
 77
     1
 78
     8
170
     0
171
     2
172
     0
173
     0
174
     0
175
     0
176
     0
177
     0
178
     0
  0
ENDTAB
  0
ENDSEC
  0
SECTION
  2
BLOCKS
  0
BLOCK
  8
0
  2
$MODEL_SPACE
 70
     0
 10
0.0
 20
0.0
 30
0.0
  3
$MODEL_SPACE
  1

  0
ENDBLK
  5
21
  8
0
  0
BLOCK
 67
     1
  8
0
  2
$PAPER_SPACE
 70
     0
 10
0.0
 20
0.0
 30
0.0
  3
$PAPER_SPACE
  1

  0
ENDBLK
  5
5B
 67
     1
  8
0
  0
ENDSEC
  0
SECTION
  2
ENTITIES
  0
TEXT
  5
1F01
  8
0
 62
     3
 10
0.0
 20
0.0
 30
0.0
 40
5.0
  1
CP165-16001LH
  7
STANDARD1
  0
ARC
  5
7B72
  8
0
 10
97.849999999999994
 20
106.75
 30
0.0
 40
0.75
 50
0.0
 51
180.0
  0
ARC
  5
7B73
  8
0
 10
97.849999999999994
 20
93.250000000000014
 30
0.0
 40
0.75
 50
180.0
 51
0.0
  0
LINE
  5
7B74
  8
0
 10
97.099999999999994
 20
106.75
 30
0.0
 11
97.099999999999994
 21
93.250000000000014
 31
0.0
  0
LINE
  5
7B75
  8
0
 10
115.87185361100001
 20
84.25
 30
0.0
 11
122.8269120674
 21
86.244330920099983
 31
0.0
  0
LINE
  5
7B76
  8
0
 10
122.8269120674
 20
113.7556690799
 30
0.0
 11
115.87185361100001
 21
115.75
 31
0.0
  0
LINE
  5
7B77
  8
0
 10
115.87185361100001
 20
115.75
 30
0.0
 11
115.2
 21
115.75
 31
0.0
  0
LINE
  5
7B78
  8
0
 10
115.2
 20
84.25
 30
0.0
 11
115.87185361100001
 21
84.25
 31
0.0
  0
LINE
  5
7B79
  8
0
 10
115.2
 20
115.75
 30
0.0
 11
115.0
 21
115.5499999999999
 31
0.0
  0
LINE
  5
7B7A
  8
0
 10
115.0
 20
84.450000000000017
 30
0.0
 11
115.2
 21
84.25
 31
0.0
  0
ARC
  5
7B7B
  8
0
 10
122.0
 20
110.8718839921
 30
0.0
 40
3.0000000000000129
 50
0.0
 51
74.000000000000526
  0
ARC
  5
7B7C
  8
0
 10
122.0
 20
89.128116007899976
 30
0.0
 40
3.0000000000000129
 50
285.99999999999949
 51
0.0
  0
POLYLINE
  5
7B7D
  8
0
 66
     1
 10
0.0
 20
0.0
 30
0.0
 70
   128
  0
VERTEX
  5
7D09
  8
0
 10
115.0
 20
110.7127016654
 30
0.0
  0
VERTEX
  5
7D0A
  8
0
 10
114.9780361288
 20
110.7076858878
 30
0.0
  0
VERTEX
  5
7D0B
  8
0
 10
114.90000000000001
 20
110.7
 30
0.0
  0
SEQEND
  5
7D0C
  8
0
  0
POLYLINE
  5
7B7E
  8
0
 66
     1
 10
0.0
 20
0.0
 30
0.0
 70
   128
  0
VERTEX
  5
7D0D
  8
0
 10
114.90000000000001
 20
89.299999999999969
 30
0.0
  0
VERTEX
  5
7D0E
  8
0
 10
114.9780361288
 20
89.292314112199989
 30
0.0
  0
VERTEX
  5
7D0F
  8
0
 10
115.0
 20
89.287298334599996
 30
0.0
  0
SEQEND
  5
7D10
  8
0
  0
LINE
  5
7B7F
  8
0
 10
114.0
 20
89.0
 30
0.0
 11
114.3
 21
89.299999999999969
 31
0.0
  0
LINE
  5
7B80
  8
0
 10
114.3
 20
110.7
 30
0.0
 11
114.0
 21
111.0
 31
0.0
  0
LINE
  5
7B81
  8
0
 10
114.0
 20
111.0
 30
0.0
 11
109.0
 21
111.0
 31
0.0
  0
LINE
  5
7B82
  8
0
 10
109.0
 20
89.0
 30
0.0
 11
114.0
 21
89.0
 31
0.0
  0
LINE
  5
7B83
  8
0
 10
109.0
 20
111.0
 30
0.0
 11
107.5
 21
110.13397459620001
 31
0.0
  0
LINE
  5
7B84
  8
0
 10
107.5
 20
89.866025403799995
 30
0.0
 11
109.0
 21
89.0
 31
0.0
  0
LINE
  5
7B85
  8
0
 10
114.90000000000001
 20
110.7
 30
0.0
 11
114.3
 21
110.7
 31
0.0
  0
LINE
  5
7B86
  8
0
 10
114.3
 20
89.299999999999969
 30
0.0
 11
114.90000000000001
 21
89.299999999999969
 31
0.0
  0
LINE
  5
7B87
  8
0
 10
166.0
 20
115.0
 30
0.0
 11
163.0
 21
118.0
 31
0.0
  0
LINE
  5
7B88
  8
0
 10
163.0
 20
118.0
 30
0.0
 11
126.0
 21
118.0
 31
0.0
  0
LINE
  5
7B89
  8
0
 10
162.77464721370001
 20
88.0
 30
0.0
 11
166.0
 21
88.0
 31
0.0
  0
LINE
  5
7B8A
  8
0
 10
126.0
 20
118.0
 30
0.0
 11
125.0
 21
117.0
 31
0.0
  0
LINE
  5
7B8B
  8
0
 10
125.0
 20
88.0
 30
0.0
 11
142.09999999999999
 21
88.0
 31
0.0
  0
LINE
  5
7B8C
  8
0
 10
107.5
 20
108.0
 30
0.0
 11
98.599999999999994
 21
108.0
 31
0.0
  0
LINE
  5
7B8D
  8
0
 10
98.599999999999994
 20
92.0
 30
0.0
 11
107.5
 21
92.0
 31
0.0
  0
LINE
  5
7B8E
  8
0
 10
97.0
 20
108.0
 30
0.0
 11
87.0
 21
108.0
 31
0.0
  0
LINE
  5
7B8F
  8
0
 10
87.0
 20
92.0
 30
0.0
 11
97.0
 21
92.0
 31
0.0
  0
LINE
  5
7B90
  8
0
 10
87.0
 20
108.0
 30
0.0
 11
85.0
 21
106.0
 31
0.0
  0
LINE
  5
7B91
  8
0
 10
85.0
 20
94.0
 30
0.0
 11
87.0
 21
92.0
 31
0.0
  0
LINE
  5
7B92
  8
0
 10
97.099999999999994
 20
106.0
 30
0.0
 11
97.0
 21
106.0
 31
0.0
  0
LINE
  5
7B93
  8
0
 10
97.0
 20
94.0
 30
0.0
 11
97.099999999999994
 21
94.0
 31
0.0
  0
LINE
  5
7B94
  8
0
 10
115.87185361100001
 20
115.75
 30
0.0
 11
115.87185361100001
 21
84.25
 31
0.0
  0
LINE
  5
7B95
  8
0
 10
115.2
 20
115.75
 30
0.0
 11
115.2
 21
84.25
 31
0.0
  0
LINE
  5
7B98
  8
0
 10
115.0
 20
84.450000000000017
 30
0.0
 11
115.0
 21
115.55
 31
0.0
  0
LINE
  5
7B99
  8
0
 10
114.0
 20
111.0
 30
0.0
 11
114.0
 21
89.0
 31
0.0
  0
LINE
  5
7B9A
  8
0
 10
114.3
 20
110.7
 30
0.0
 11
114.3
 21
89.299999999999969
 31
0.0
  0
LINE
  5
7B9B
  8
0
 10
109.0
 20
111.0
 30
0.0
 11
109.0
 21
89.0
 31
0.0
  0
LINE
  5
7B9E
  8
0
 10
107.5
 20
89.866025403799995
 30
0.0
 11
107.5
 21
110.13397459620001
 31
0.0
  0
POLYLINE
  5
7BA0
  8
0
 66
     1
 10
0.0
 20
0.0
 30
0.0
 70
   128
  0
VERTEX
  5
7D11
  8
0
 10
166.0
 20
109.0
 30
0.0
  0
VERTEX
  5
7D12
  8
0
 10
164.55658175129989
 20
111.2421529833
 30
0.0
  0
VERTEX
  5
7D13
  8
0
 10
163.0
 20
113.416407865
 30
0.0
  0
SEQEND
  5
7D14
  8
0
  0
LINE
  5
7BA1
  8
0
 10
163.0
 20
113.416407865
 30
0.0
 11
163.0
 21
118.0
 31
0.0
  0
POLYLINE
  5
7BA2
  8
0
 10
139.67542648069988
 20
113.41640786499894
 30
0.0
 66
     1
 70
     8
  0
VERTEX
  8
0
  5
7D1D
 10
139.675
 20
113.416
 30
0.000000
  70
    32
  0
VERTEX
  8
0
  5
7D1E
 10
139.650
 20
113.456
 30
0.000000
  70
    32
  0
VERTEX
  8
0
  5
7D1F
 10
139.625
 20
113.495
 30
0.000000
  70
    32
  0
VERTEX
  8
0
  5
7D20
 10
139.599
 20
113.534
 30
0.000000
  70
    32
  0
VERTEX
  8
0
  5
7D21
 10
139.573
 20
113.572
 30
0.000000
  70
    32
  0
VERTEX
  8
0
  5
7D22
 10
139.548
 20
113.611
 30
0.000000
  70
    32
  0
VERTEX
  8
0
  5
7D23
 10
139.522
 20
113.650
 30
0.000000
  70
    32
  0
VERTEX
  8
0
  5
7D24
 10
139.496
 20
113.688
 30
0.000000
  70
    32
  0
VERTEX
  8
0
  5
7D25
 10
139.470
 20
113.726
 30
0.000000
  70
    32
  0
VERTEX
  8
0
  5
7D26
 10
139.444
 20
113.764
 30
0.000000
  70
    32
  0
VERTEX
  8
0
  5
7D27
 10
139.418
 20
113.802
 30
0.000000
  70
    32
  0
VERTEX
  8
0
  5
7D28
 10
139.392
 20
113.840
 30
0.000000
  70
    32
  0
VERTEX
  8
0
  5
7D29
 10
139.366
 20
113.878
 30
0.000000
  70
    32
  0
VERTEX
  8
0
  5
7D2A
 10
139.339
 20
113.915
 30
0.000000
  70
    32
  0
VERTEX
  8
0
  5
7D2B
 10
139.313
 20
113.952
 30
0.000000
  70
    32
  0
VERTEX
  8
0
  5
7D2C
 10
139.287
 20
113.989
 30
0.000000
  70
    32
  0
VERTEX
  8
0
  5
7D2D
 10
139.260
 20
114.027
 30
0.000000
  70
    32
  0
VERTEX
  8
0
  5
7D2E
 10
139.234
 20
114.063
 30
0.000000
  70
    32
  0
VERTEX
  8
0
  5
7D2F
 10
139.207
 20
114.100
 30
0.000000
  70
    32
  0
VERTEX
  8
0
  5
7D30
 10
139.180
 20
114.137
 30
0.000000
  70
    32
  0
VERTEX
  8
0
  5
7D31
 10
139.154
 20
114.173
 30
0.000000
  70
    32
  0
VERTEX
  8
0
  5
7D32
 10
139.127
 20
114.209
 30
0.000000
  70
    32
  0
VERTEX
  8
0
  5
7D33
 10
139.100
 20
114.245
 30
0.000000
  70
    32
  0
VERTEX
  8
0
  5
7D34
 10
139.073
 20
114.281
 30
0.000000
  70
    32
  0
VERTEX
  8
0
  5
7D35
 10
139.046
 20
114.317
 30
0.000000
  70
    32
  0
VERTEX
  8
0
  5
7D36
 10
139.019
 20
114.353
 30
0.000000
  70
    32
  0
VERTEX
  8
0
  5
7D37
 10
138.992
 20
114.388
 30
0.000000
  70
    32
  0
VERTEX
  8
0
  5
7D38
 10
138.964
 20
114.424
 30
0.000000
  70
    32
  0
VERTEX
  8
0
  5
7D39
 10
138.937
 20
114.459
 30
0.000000
  70
    32
  0
VERTEX
  8
0
  5
7D3A
 10
138.910
 20
114.494
 30
0.000000
  70
    32
  0
VERTEX
  8
0
  5
7D3B
 10
138.882
 20
114.529
 30
0.000000
  70
    32
  0
VERTEX
  8
0
  5
7D3C
 10
138.855
 20
114.564
 30
0.000000
  70
    32
  0
VERTEX
  8
0
  5
7D3D
 10
138.827
 20
114.598
 30
0.000000
  70
    32
  0
VERTEX
  8
0
  5
7D3E
 10
138.799
 20
114.633
 30
0.000000
  70
    32
  0
VERTEX
  8
0
  5
7D3F
 10
138.772
 20
114.667
 30
0.000000
  70
    32
  0
VERTEX
  8
0
  5
7D40
 10
138.744
 20
114.701
 30
0.000000
  70
    32
  0
VERTEX
  8
0
  5
7D41
 10
138.716
 20
114.735
 30
0.000000
  70
    32
  0
VERTEX
  8
0
  5
7D42
 10
138.688
 20
114.769
 30
0.000000
  70
    32
  0
VERTEX
  8
0
  5
7D43
 10
138.660
 20
114.802
 30
0.000000
  70
    32
  0
VERTEX
  8
0
  5
7D44
 10
138.632
 20
114.836
 30
0.000000
  70
    32
  0
VERTEX
  8
0
  5
7D45
 10
138.604
 20
114.869
 30
0.000000
  70
    32
  0
VERTEX
  8
0
  5
7D46
 10
138.576
 20
114.902
 30
0.000000
  70
    32
  0
VERTEX
  8
0
  5
7D47
 10
138.548
 20
114.935
 30
0.000000
  70
    32
  0
VERTEX
  8
0
  5
7D48
 10
138.520
 20
114.968
 30
0.000000
  70
    32
  0
VERTEX
  8
0
  5
7D49
 10
138.491
 20
115.001
 30
0.000000
  70
    32
  0
VERTEX
  8
0
  5
7D4A
 10
138.463
 20
115.033
 30
0.000000
  70
    32
  0
VERTEX
  8
0
  5
7D4B
 10
138.434
 20
115.065
 30
0.000000
  70
    32
  0
VERTEX
  8
0
  5
7D4C
 10
138.406
 20
115.098
 30
0.000000
  70
    32
  0
VERTEX
  8
0
  5
7D4D
 10
138.377
 20
115.130
 30
0.000000
  70
    32
  0
VERTEX
  8
0
  5
7D4E
 10
138.349
 20
115.161
 30
0.000000
  70
    32
  0
VERTEX
  8
0
  5
7D4F
 10
138.320
 20
115.193
 30
0.000000
  70
    32
  0
VERTEX
  8
0
  5
7D50
 10
138.291
 20
115.225
 30
0.000000
  70
    32
  0
VERTEX
  8
0
  5
7D51
 10
138.262
 20
115.256
 30
0.000000
  70
    32
  0
VERTEX
  8
0
  5
7D52
 10
138.234
 20
115.287
 30
0.000000
  70
    32
  0
VERTEX
  8
0
  5
7D53
 10
138.205
 20
115.318
 30
0.000000
  70
    32
  0
VERTEX
  8
0
  5
7D54
 10
138.176
 20
115.349
 30
0.000000
  70
    32
  0
VERTEX
  8
0
  5
7D55
 10
138.147
 20
115.380
 30
0.000000
  70
    32
  0
VERTEX
  8
0
  5
7D56
 10
138.117
 20
115.410
 30
0.000000
  70
    32
  0
VERTEX
  8
0
  5
7D57
 10
138.088
 20
115.441
 30
0.000000
  70
    32
  0
VERTEX
  8
0
  5
7D58
 10
138.059
 20
115.471
 30
0.000000
  70
    32
  0
VERTEX
  8
0
  5
7D59
 10
138.030
 20
115.501
 30
0.000000
  70
    32
  0
VERTEX
  8
0
  5
7D5A
 10
138.000
 20
115.531
 30
0.000000
  70
    32
  0
VERTEX
  8
0
  5
7D5B
 10
137.971
 20
115.561
 30
0.000000
  70
    32
  0
VERTEX
  8
0
  5
7D5C
 10
137.942
 20
115.590
 30
0.000000
  70
    32
  0
VERTEX
  8
0
  5
7D5D
 10
137.912
 20
115.620
 30
0.000000
  70
    32
  0
VERTEX
  8
0
  5
7D5E
 10
137.883
 20
115.649
 30
0.000000
  70
    32
  0
VERTEX
  8
0
  5
7D5F
 10
137.853
 20
115.678
 30
0.000000
  70
    32
  0
VERTEX
  8
0
  5
7D60
 10
137.823
 20
115.707
 30
0.000000
  70
    32
  0
VERTEX
  8
0
  5
7D61
 10
137.794
 20
115.735
 30
0.000000
  70
    32
  0
VERTEX
  8
0
  5
7D62
 10
137.764
 20
115.764
 30
0.000000
  70
    32
  0
VERTEX
  8
0
  5
7D63
 10
137.734
 20
115.792
 30
0.000000
  70
    32
  0
VERTEX
  8
0
  5
7D64
 10
137.704
 20
115.821
 30
0.000000
  70
    32
  0
VERTEX
  8
0
  5
7D65
 10
137.674
 20
115.849
 30
0.000000
  70
    32
  0
VERTEX
  8
0
  5
7D66
 10
137.644
 20
115.876
 30
0.000000
  70
    32
  0
VERTEX
  8
0
  5
7D67
 10
137.614
 20
115.904
 30
0.000000
  70
    32
  0
VERTEX
  8
0
  5
7D68
 10
137.584
 20
115.932
 30
0.000000
  70
    32
  0
VERTEX
  8
0
  5
7D69
 10
137.554
 20
115.959
 30
0.000000
  70
    32
  0
VERTEX
  8
0
  5
7D6A
 10
137.524
 20
115.986
 30
0.000000
  70
    32
  0
VERTEX
  8
0
  5
7D6B
 10
137.493
 20
116.013
 30
0.000000
  70
    32
  0
VERTEX
  8
0
  5
7D6C
 10
137.463
 20
116.040
 30
0.000000
  70
    32
  0
VERTEX
  8
0
  5
7D6D
 10
137.433
 20
116.067
 30
0.000000
  70
    32
  0
VERTEX
  8
0
  5
7D6E
 10
137.402
 20
116.093
 30
0.000000
  70
    32
  0
VERTEX
  8
0
  5
7D6F
 10
137.372
 20
116.120
 30
0.000000
  70
    32
  0
VERTEX
  8
0
  5
7D70
 10
137.341
 20
116.146
 30
0.000000
  70
    32
  0
VERTEX
  8
0
  5
7D71
 10
137.311
 20
116.172
 30
0.000000
  70
    32
  0
VERTEX
  8
0
  5
7D72
 10
137.280
 20
116.197
 30
0.000000
  70
    32
  0
VERTEX
  8
0
  5
7D73
 10
137.249
 20
116.223
 30
0.000000
  70
    32
  0
VERTEX
  8
0
  5
7D74
 10
137.219
 20
116.249
 30
0.000000
  70
    32
  0
VERTEX
  8
0
  5
7D75
 10
137.188
 20
116.274
 30
0.000000
  70
    32
  0
VERTEX
  8
0
  5
7D76
 10
137.157
 20
116.299
 30
0.000000
  70
    32
  0
VERTEX
  8
0
  5
7D77
 10
137.126
 20
116.324
 30
0.000000
  70
    32
  0
VERTEX
  8
0
  5
7D78
 10
137.096
 20
116.349
 30
0.000000
  70
    32
  0
VERTEX
  8
0
  5
7D79
 10
137.065
 20
116.373
 30
0.000000
  70
    32
  0
VERTEX
  8
0
  5
7D7A
 10
137.034
 20
116.398
 30
0.000000
  70
    32
  0
VERTEX
  8
0
  5
7D7B
 10
137.003
 20
116.422
 30
0.000000
  70
    32
  0
VERTEX
  8
0
  5
7D7C
 10
136.971
 20
116.446
 30
0.000000
  70
    32
  0
VERTEX
  8
0
  5
7D7D
 10
136.940
 20
116.470
 30
0.000000
  70
    32
  0
VERTEX
  8
0
  5
7D7E
 10
136.909
 20
116.493
 30
0.000000
  70
    32
  0
VERTEX
  8
0
  5
7D7F
 10
136.878
 20
116.517
 30
0.000000
  70
    32
  0
VERTEX
  8
0
  5
7D80
 10
136.847
 20
116.540
 30
0.000000
  70
    32
  0
VERTEX
  8
0
  5
7D81
 10
136.815
 20
116.563
 30
0.000000
  70
    32
  0
VERTEX
  8
0
  5
7D82
 10
136.784
 20
116.586
 30
0.000000
  70
    32
  0
VERTEX
  8
0
  5
7D83
 10
136.753
 20
116.609
 30
0.000000
  70
    32
  0
VERTEX
  8
0
  5
7D84
 10
136.721
 20
116.632
 30
0.000000
  70
    32
  0
VERTEX
  8
0
  5
7D85
 10
136.690
 20
116.654
 30
0.000000
  70
    32
  0
VERTEX
  8
0
  5
7D86
 10
136.658
 20
116.677
 30
0.000000
  70
    32
  0
VERTEX
  8
0
  5
7D87
 10
136.627
 20
116.699
 30
0.000000
  70
    32
  0
VERTEX
  8
0
  5
7D88
 10
136.595
 20
116.721
 30
0.000000
  70
    32
  0
VERTEX
  8
0
  5
7D89
 10
136.564
 20
116.742
 30
0.000000
  70
    32
  0
VERTEX
  8
0
  5
7D8A
 10
136.532
 20
116.764
 30
0.000000
  70
    32
  0
VERTEX
  8
0
  5
7D8B
 10
136.500
 20
116.785
 30
0.000000
  70
    32
  0
VERTEX
  8
0
  5
7D8C
 10
136.468
 20
116.807
 30
0.000000
  70
    32
  0
VERTEX
  8
0
  5
7D8D
 10
136.437
 20
116.828
 30
0.000000
  70
    32
  0
VERTEX
  8
0
  5
7D8E
 10
136.405
 20
116.848
 30
0.000000
  70
    32
  0
VERTEX
  8
0
  5
7D8F
 10
136.373
 20
116.869
 30
0.000000
  70
    32
  0
VERTEX
  8
0
  5
7D90
 10
136.341
 20
116.890
 30
0.000000
  70
    32
  0
VERTEX
  8
0
  5
7D91
 10
136.309
 20
116.910
 30
0.000000
  70
    32
  0
VERTEX
  8
0
  5
7D92
 10
136.277
 20
116.930
 30
0.000000
  70
    32
  0
VERTEX
  8
0
  5
7D93
 10
136.245
 20
116.950
 30
0.000000
  70
    32
  0
VERTEX
  8
0
  5
7D94
 10
136.213
 20
116.970
 30
0.000000
  70
    32
  0
VERTEX
  8
0
  5
7D95
 10
136.181
 20
116.989
 30
0.000000
  70
    32
  0
VERTEX
  8
0
  5
7D96
 10
136.149
 20
117.009
 30
0.000000
  70
    32
  0
VERTEX
  8
0
  5
7D97
 10
136.116
 20
117.028
 30
0.000000
  70
    32
  0
VERTEX
  8
0
  5
7D98
 10
136.084
 20
117.047
 30
0.000000
  70
    32
  0
VERTEX
  8
0
  5
7D99
 10
136.052
 20
117.066
 30
0.000000
  70
    32
  0
VERTEX
  8
0
  5
7D9A
 10
136.020
 20
117.084
 30
0.000000
  70
    32
  0
VERTEX
  8
0
  5
7D9B
 10
135.987
 20
117.103
 30
0.000000
  70
    32
  0
VERTEX
  8
0
  5
7D9C
 10
135.955
 20
117.121
 30
0.000000
  70
    32
  0
VERTEX
  8
0
  5
7D9D
 10
135.923
 20
117.139
 30
0.000000
  70
    32
  0
SEQEND
  8
0
  5
7D9E
  0
ARC
  5
7BA3
  8
0
 10
135.18066421489999
 20
115.46053409229999
 30
0.0
 40
1.8352788759052401
 50
66.153336327299243
 51
93.875369561999733
  0
LINE
  5
7BA4
  8
0
 10
135.05662432700001
 20
117.2916164658
 30
0.0
 11
132.29422863409999
 21
117.2916164658
 31
0.0
  0
ARC
  5
7BA5
  8
0
 10
132.1945879498
 20
115.32195634430001
 30
0.0
 40
1.9721788104312541
 50
87.10400384270055
 51
112.8672902680003
  0
POLYLINE
  5
7BA6
  8
0
 10
131.42820323019998
 20
117.13913650100261
 30
0.0
 66
     1
 70
     8
  0
VERTEX
  8
0
  5
7D9F
 10
131.428
 20
117.139
 30
0.000000
  70
    32
  0
VERTEX
  8
0
  5
7DA0
 10
131.396
 20
117.121
 30
0.000000
  70
    32
  0
VERTEX
  8
0
  5
7DA1
 10
131.363
 20
117.103
 30
0.000000
  70
    32
  0
VERTEX
  8
0
  5
7DA2
 10
131.331
 20
117.084
 30
0.000000
  70
    32
  0
VERTEX
  8
0
  5
7DA3
 10
131.299
 20
117.066
 30
0.000000
  70
    32
  0
VERTEX
  8
0
  5
7DA4
 10
131.267
 20
117.047
 30
0.000000
  70
    32
  0
VERTEX
  8
0
  5
7DA5
 10
131.234
 20
117.028
 30
0.000000
  70
    32
  0
VERTEX
  8
0
  5
7DA6
 10
131.202
 20
117.009
 30
0.000000
  70
    32
  0
VERTEX
  8
0
  5
7DA7
 10
131.170
 20
116.989
 30
0.000000
  70
    32
  0
VERTEX
  8
0
  5
7DA8
 10
131.138
 20
116.970
 30
0.000000
  70
    32
  0
VERTEX
  8
0
  5
7DA9
 10
131.106
 20
116.950
 30
0.000000
  70
    32
  0
VERTEX
  8
0
  5
7DAA
 10
131.074
 20
116.930
 30
0.000000
  70
    32
  0
VERTEX
  8
0
  5
7DAB
 10
131.042
 20
116.910
 30
0.000000
  70
    32
  0
VERTEX
  8
0
  5
7DAC
 10
131.010
 20
116.890
 30
0.000000
  70
    32
  0
VERTEX
  8
0
  5
7DAD
 10
130.978
 20
116.869
 30
0.000000
  70
    32
  0
VERTEX
  8
0
  5
7DAE
 10
130.946
 20
116.848
 30
0.000000
  70
    32
  0
VERTEX
  8
0
  5
7DAF
 10
130.914
 20
116.828
 30
0.000000
  70
    32
  0
VERTEX
  8
0
  5
7DB0
 10
130.882
 20
116.807
 30
0.000000
  70
    32
  0
VERTEX
  8
0
  5
7DB1
 10
130.851
 20
116.785
 30
0.000000
  70
    32
  0
VERTEX
  8
0
  5
7DB2
 10
130.819
 20
116.764
 30
0.000000
  70
    32
  0
VERTEX
  8
0
  5
7DB3
 10
130.787
 20
116.742
 30
0.000000
  70
    32
  0
VERTEX
  8
0
  5
7DB4
 10
130.756
 20
116.721
 30
0.000000
  70
    32
  0
VERTEX
  8
0
  5
7DB5
 10
130.724
 20
116.699
 30
0.000000
  70
    32
  0
VERTEX
  8
0
  5
7DB6
 10
130.693
 20
116.677
 30
0.000000
  70
    32
  0
VERTEX
  8
0
  5
7DB7
 10
130.661
 20
116.654
 30
0.000000
  70
    32
  0
VERTEX
  8
0
  5
7DB8
 10
130.630
 20
116.632
 30
0.000000
  70
    32
  0
VERTEX
  8
0
  5
7DB9
 10
130.598
 20
116.609
 30
0.000000
  70
    32
  0
VERTEX
  8
0
  5
7DBA
 10
130.567
 20
116.586
 30
0.000000
  70
    32
  0
VERTEX
  8
0
  5
7DBB
 10
130.535
 20
116.563
 30
0.000000
  70
    32
  0
VERTEX
  8
0
  5
7DBC
 10
130.504
 20
116.540
 30
0.000000
  70
    32
  0
VERTEX
  8
0
  5
7DBD
 10
130.473
 20
116.517
 30
0.000000
  70
    32
  0
VERTEX
  8
0
  5
7DBE
 10
130.442
 20
116.493
 30
0.000000
  70
    32
  0
VERTEX
  8
0
  5
7DBF
 10
130.410
 20
116.470
 30
0.000000
  70
    32
  0
VERTEX
  8
0
  5
7DC0
 10
130.379
 20
116.446
 30
0.000000
  70
    32
  0
VERTEX
  8
0
  5
7DC1
 10
130.348
 20
116.422
 30
0.000000
  70
    32
  0
VERTEX
  8
0
  5
7DC2
 10
130.317
 20
116.398
 30
0.000000
  70
    32
  0
VERTEX
  8
0
  5
7DC3
 10
130.286
 20
116.373
 30
0.000000
  70
    32
  0
VERTEX
  8
0
  5
7DC4
 10
130.255
 20
116.349
 30
0.000000
  70
    32
  0
VERTEX
  8
0
  5
7DC5
 10
130.224
 20
116.324
 30
0.000000
  70
    32
  0
VERTEX
  8
0
  5
7DC6
 10
130.194
 20
116.299
 30
0.000000
  70
    32
  0
VERTEX
  8
0
  5
7DC7
 10
130.163
 20
116.274
 30
0.000000
  70
    32
  0
VERTEX
  8
0
  5
7DC8
 10
130.132
 20
116.249
 30
0.000000
  70
    32
  0
VERTEX
  8
0
  5
7DC9
 10
130.101
 20
116.223
 30
0.000000
  70
    32
  0
VERTEX
  8
0
  5
7DCA
 10
130.071
 20
116.197
 30
0.000000
  70
    32
  0
VERTEX
  8
0
  5
7DCB
 10
130.040
 20
116.172
 30
0.000000
  70
    32
  0
VERTEX
  8
0
  5
7DCC
 10
130.010
 20
116.146
 30
0.000000
  70
    32
  0
VERTEX
  8
0
  5
7DCD
 10
129.979
 20
116.120
 30
0.000000
  70
    32
  0
VERTEX
  8
0
  5
7DCE
 10
129.949
 20
116.093
 30
0.000000
  70
    32
  0
VERTEX
  8
0
  5
7DCF
 10
129.918
 20
116.067
 30
0.000000
  70
    32
  0
VERTEX
  8
0
  5
7DD0
 10
129.888
 20
116.040
 30
0.000000
  70
    32
  0
VERTEX
  8
0
  5
7DD1
 10
129.858
 20
116.013
 30
0.000000
  70
    32
  0
VERTEX
  8
0
  5
7DD2
 10
129.827
 20
115.986
 30
0.000000
  70
    32
  0
VERTEX
  8
0
  5
7DD3
 10
129.797
 20
115.959
 30
0.000000
  70
    32
  0
VERTEX
  8
0
  5
7DD4
 10
129.767
 20
115.932
 30
0.000000
  70
    32
  0
VERTEX
  8
0
  5
7DD5
 10
129.737
 20
115.904
 30
0.000000
  70
    32
  0
VERTEX
  8
0
  5
7DD6
 10
129.707
 20
115.876
 30
0.000000
  70
    32
  0
VERTEX
  8
0
  5
7DD7
 10
129.677
 20
115.849
 30
0.000000
  70
    32
  0
VERTEX
  8
0
  5
7DD8
 10
129.647
 20
115.821
 30
0.000000
  70
    32
  0
VERTEX
  8
0
  5
7DD9
 10
129.617
 20
115.792
 30
0.000000
  70
    32
  0
VERTEX
  8
0
  5
7DDA
 10
129.587
 20
115.764
 30
0.000000
  70
    32
  0
VERTEX
  8
0
  5
7DDB
 10
129.557
 20
115.735
 30
0.000000
  70
    32
  0
VERTEX
  8
0
  5
7DDC
 10
129.528
 20
115.707
 30
0.000000
  70
    32
  0
VERTEX
  8
0
  5
7DDD
 10
129.498
 20
115.678
 30
0.000000
  70
    32
  0
VERTEX
  8
0
  5
7DDE
 10
129.468
 20
115.649
 30
0.000000
  70
    32
  0
VERTEX
  8
0
  5
7DDF
 10
129.439
 20
115.620
 30
0.000000
  70
    32
  0
VERTEX
  8
0
  5
7DE0
 10
129.409
 20
115.590
 30
0.000000
  70
    32
  0
VERTEX
  8
0
  5
7DE1
 10
129.380
 20
115.561
 30
0.000000
  70
    32
  0
VERTEX
  8
0
  5
7DE2
 10
129.350
 20
115.531
 30
0.000000
  70
    32
  0
VERTEX
  8
0
  5
7DE3
 10
129.321
 20
115.501
 30
0.000000
  70
    32
  0
VERTEX
  8
0
  5
7DE4
 10
129.292
 20
115.471
 30
0.000000
  70
    32
  0
VERTEX
  8
0
  5
7DE5
 10
129.263
 20
115.441
 30
0.000000
  70
    32
  0
VERTEX
  8
0
  5
7DE6
 10
129.233
 20
115.410
 30
0.000000
  70
    32
  0
VERTEX
  8
0
  5
7DE7
 10
129.204
 20
115.380
 30
0.000000
  70
    32
  0
VERTEX
  8
0
  5
7DE8
 10
129.175
 20
115.349
 30
0.000000
  70
    32
  0
VERTEX
  8
0
  5
7DE9
 10
129.146
 20
115.318
 30
0.000000
  70
    32
  0
VERTEX
  8
0
  5
7DEA
 10
129.117
 20
115.287
 30
0.000000
  70
    32
  0
VERTEX
  8
0
  5
7DEB
 10
129.088
 20
115.256
 30
0.000000
  70
    32
  0
VERTEX
  8
0
  5
7DEC
 10
129.060
 20
115.225
 30
0.000000
  70
    32
  0
VERTEX
  8
0
  5
7DED
 10
129.031
 20
115.193
 30
0.000000
  70
    32
  0
VERTEX
  8
0
  5
7DEE
 10
129.002
 20
115.161
 30
0.000000
  70
    32
  0
VERTEX
  8
0
  5
7DEF
 10
128.974
 20
115.130
 30
0.000000
  70
    32
  0
VERTEX
  8
0
  5
7DF0
 10
128.945
 20
115.098
 30
0.000000
  70
    32
  0
VERTEX
  8
0
  5
7DF1
 10
128.916
 20
115.065
 30
0.000000
  70
    32
  0
VERTEX
  8
0
  5
7DF2
 10
128.888
 20
115.033
 30
0.000000
  70
    32
  0
VERTEX
  8
0
  5
7DF3
 10
128.860
 20
115.001
 30
0.000000
  70
    32
  0
VERTEX
  8
0
  5
7DF4
 10
128.831
 20
114.968
 30
0.000000
  70
    32
  0
VERTEX
  8
0
  5
7DF5
 10
128.803
 20
114.935
 30
0.000000
  70
    32
  0
VERTEX
  8
0
  5
7DF6
 10
128.775
 20
114.902
 30
0.000000
  70
    32
  0
VERTEX
  8
0
  5
7DF7
 10
128.747
 20
114.869
 30
0.000000
  70
    32
  0
VERTEX
  8
0
  5
7DF8
 10
128.719
 20
114.836
 30
0.000000
  70
    32
  0
VERTEX
  8
0
  5
7DF9
 10
128.691
 20
114.802
 30
0.000000
  70
    32
  0
VERTEX
  8
0
  5
7DFA
 10
128.663
 20
114.769
 30
0.000000
  70
    32
  0
VERTEX
  8
0
  5
7DFB
 10
128.635
 20
114.735
 30
0.000000
  70
    32
  0
VERTEX
  8
0
  5
7DFC
 10
128.607
 20
114.701
 30
0.000000
  70
    32
  0
VERTEX
  8
0
  5
7DFD
 10
128.579
 20
114.667
 30
0.000000
  70
    32
  0
VERTEX
  8
0
  5
7DFE
 10
128.551
 20
114.633
 30
0.000000
  70
    32
  0
VERTEX
  8
0
  5
7DFF
 10
128.524
 20
114.598
 30
0.000000
  70
    32
  0
VERTEX
  8
0
  5
7E00
 10
128.496
 20
114.564
 30
0.000000
  70
    32
  0
VERTEX
  8
0
  5
7E01
 10
128.469
 20
114.529
 30
0.000000
  70
    32
  0
VERTEX
  8
0
  5
7E02
 10
128.441
 20
114.494
 30
0.000000
  70
    32
  0
VERTEX
  8
0
  5
7E03
 10
128.414
 20
114.459
 30
0.000000
  70
    32
  0
VERTEX
  8
0
  5
7E04
 10
128.387
 20
114.424
 30
0.000000
  70
    32
  0
VERTEX
  8
0
  5
7E05
 10
128.359
 20
114.388
 30
0.000000
  70
    32
  0
VERTEX
  8
0
  5
7E06
 10
128.332
 20
114.353
 30
0.000000
  70
    32
  0
VERTEX
  8
0
  5
7E07
 10
128.305
 20
114.317
 30
0.000000
  70
    32
  0
VERTEX
  8
0
  5
7E08
 10
128.278
 20
114.281
 30
0.000000
  70
    32
  0
VERTEX
  8
0
  5
7E09
 10
128.251
 20
114.245
 30
0.000000
  70
    32
  0
VERTEX
  8
0
  5
7E0A
 10
128.224
 20
114.209
 30
0.000000
  70
    32
  0
VERTEX
  8
0
  5
7E0B
 10
128.197
 20
114.173
 30
0.000000
  70
    32
  0
VERTEX
  8
0
  5
7E0C
 10
128.171
 20
114.137
 30
0.000000
  70
    32
  0
VERTEX
  8
0
  5
7E0D
 10
128.144
 20
114.100
 30
0.000000
  70
    32
  0
VERTEX
  8
0
  5
7E0E
 10
128.117
 20
114.063
 30
0.000000
  70
    32
  0
VERTEX
  8
0
  5
7E0F
 10
128.091
 20
114.027
 30
0.000000
  70
    32
  0
VERTEX
  8
0
  5
7E10
 10
128.064
 20
113.989
 30
0.000000
  70
    32
  0
VERTEX
  8
0
  5
7E11
 10
128.038
 20
113.952
 30
0.000000
  70
    32
  0
VERTEX
  8
0
  5
7E12
 10
128.011
 20
113.915
 30
0.000000
  70
    32
  0
VERTEX
  8
0
  5
7E13
 10
127.985
 20
113.878
 30
0.000000
  70
    32
  0
VERTEX
  8
0
  5
7E14
 10
127.959
 20
113.840
 30
0.000000
  70
    32
  0
VERTEX
  8
0
  5
7E15
 10
127.933
 20
113.802
 30
0.000000
  70
    32
  0
VERTEX
  8
0
  5
7E16
 10
127.907
 20
113.764
 30
0.000000
  70
    32
  0
VERTEX
  8
0
  5
7E17
 10
127.881
 20
113.726
 30
0.000000
  70
    32
  0
VERTEX
  8
0
  5
7E18
 10
127.855
 20
113.688
 30
0.000000
  70
    32
  0
VERTEX
  8
0
  5
7E19
 10
127.829
 20
113.650
 30
0.000000
  70
    32
  0
VERTEX
  8
0
  5
7E1A
 10
127.803
 20
113.611
 30
0.000000
  70
    32
  0
VERTEX
  8
0
  5
7E1B
 10
127.777
 20
113.572
 30
0.000000
  70
    32
  0
VERTEX
  8
0
  5
7E1C
 10
127.752
 20
113.534
 30
0.000000
  70
    32
  0
VERTEX
  8
0
  5
7E1D
 10
127.726
 20
113.495
 30
0.000000
  70
    32
  0
VERTEX
  8
0
  5
7E1E
 10
127.701
 20
113.456
 30
0.000000
  70
    32
  0
VERTEX
  8
0
  5
7E1F
 10
127.675
 20
113.416
 30
0.000000
  70
    32
  0
SEQEND
  8
0
  5
7E20
  0
LINE
  5
7BA7
  8
0
 10
127.67542648049999
 20
113.416407865
 30
0.0
 11
126.0
 21
113.416407865
 31
0.0
  0
LINE
  5
7BA8
  8
0
 10
126.0
 20
118.0
 30
0.0
 11
126.0
 21
113.416407865
 31
0.0
  0
LINE
  5
7BA9
  8
0
 10
163.0
 20
113.416407865
 30
0.0
 11
139.67542648049999
 21
113.416407865
 31
0.0
  0
LINE
  5
7BAA
  8
0
 10
157.42357170419999
 20
102.7019591323
 30
0.0
 11
158.40700440259999
 21
100.0
 31
0.0
  0
ARC
  5
7BAB
  8
0
 10
150.0
 20
100.0
 30
0.0
 40
7.8999999999999897
 50
20.000000000000089
 51
180.0
  0
LINE
  5
7BAC
  8
0
 10
139.67542648049999
 20
113.416407865
 30
0.0
 11
139.67542648049999
 21
100.0
 31
0.0
  0
LINE
  5
7BAD
  8
0
 10
166.0
 20
114.9999999999999
 30
0.0
 11
166.0
 21
88.000000000000014
 31
0.0
  0
LINE
  5
7BAE
  8
0
 10
158.40700440259999
 20
100.0
 30
0.0
 11
162.77464721370001
 21
88.0
 31
0.0
  0
POLYLINE
  5
7BB0
  8
0
 10
135.92264973090013
 20
89.334635496149332
 30
0.0
 66
     1
 70
     8
  0
VERTEX
  8
0
  5
7E21
 10
135.923
 20
89.3346
 30
0.000000
  70
    32
  0
VERTEX
  8
0
  5
7E22
 10
135.975
 20
89.3821
 30
0.000000
  70
    32
  0
VERTEX
  8
0
  5
7E23
 10
136.028
 20
89.4303
 30
0.000000
  70
    32
  0
VERTEX
  8
0
  5
7E24
 10
136.080
 20
89.4792
 30
0.000000
  70
    32
  0
VERTEX
  8
0
  5
7E25
 10
136.131
 20
89.5290
 30
0.000000
  70
    32
  0
VERTEX
  8
0
  5
7E26
 10
136.183
 20
89.5795
 30
0.000000
  70
    32
  0
VERTEX
  8
0
  5
7E27
 10
136.234
 20
89.6308
 30
0.000000
  70
    32
  0
VERTEX
  8
0
  5
7E28
 10
136.285
 20
89.6828
 30
0.000000
  70
    32
  0
VERTEX
  8
0
  5
7E29
 10
136.336
 20
89.7356
 30
0.000000
  70
    32
  0
VERTEX
  8
0
  5
7E2A
 10
136.387
 20
89.7891
 30
0.000000
  70
    32
  0
VERTEX
  8
0
  5
7E2B
 10
136.437
 20
89.8434
 30
0.000000
  70
    32
  0
VERTEX
  8
0
  5
7E2C
 10
136.487
 20
89.8984
 30
0.000000
  70
    32
  0
VERTEX
  8
0
  5
7E2D
 10
136.537
 20
89.9542
 30
0.000000
  70
    32
  0
VERTEX
  8
0
  5
7E2E
 10
136.586
 20
90.0107
 30
0.000000
  70
    32
  0
VERTEX
  8
0
  5
7E2F
 10
136.635
 20
90.0679
 30
0.000000
  70
    32
  0
VERTEX
  8
0
  5
7E30
 10
136.684
 20
90.1259
 30
0.000000
  70
    32
  0
VERTEX
  8
0
  5
7E31
 10
136.733
 20
90.1846
 30
0.000000
  70
    32
  0
VERTEX
  8
0
  5
7E32
 10
136.781
 20
90.2440
 30
0.000000
  70
    32
  0
VERTEX
  8
0
  5
7E33
 10
136.829
 20
90.3041
 30
0.000000
  70
    32
  0
VERTEX
  8
0
  5
7E34
 10
136.877
 20
90.3649
 30
0.000000
  70
    32
  0
VERTEX
  8
0
  5
7E35
 10
136.924
 20
90.4264
 30
0.000000
  70
    32
  0
VERTEX
  8
0
  5
7E36
 10
136.972
 20
90.4887
 30
0.000000
  70
    32
  0
VERTEX
  8
0
  5
7E37
 10
137.018
 20
90.5516
 30
0.000000
  70
    32
  0
VERTEX
  8
0
  5
7E38
 10
137.065
 20
90.6152
 30
0.000000
  70
    32
  0
VERTEX
  8
0
  5
7E39
 10
137.111
 20
90.6795
 30
0.000000
  70
    32
  0
VERTEX
  8
0
  5
7E3A
 10
137.157
 20
90.7445
 30
0.000000
  70
    32
  0
VERTEX
  8
0
  5
7E3B
 10
137.202
 20
90.8101
 30
0.000000
  70
    32
  0
VERTEX
  8
0
  5
7E3C
 10
137.248
 20
90.8764
 30
0.000000
  70
    32
  0
VERTEX
  8
0
  5
7E3D
 10
137.293
 20
90.9434
 30
0.000000
  70
    32
  0
VERTEX
  8
0
  5
7E3E
 10
137.337
 20
91.0111
 30
0.000000
  70
    32
  0
VERTEX
  8
0
  5
7E3F
 10
137.381
 20
91.0794
 30
0.000000
  70
    32
  0
VERTEX
  8
0
  5
7E40
 10
137.425
 20
91.1484
 30
0.000000
  70
    32
  0
VERTEX
  8
0
  5
7E41
 10
137.469
 20
91.2180
 30
0.000000
  70
    32
  0
VERTEX
  8
0
  5
7E42
 10
137.512
 20
91.2883
 30
0.000000
  70
    32
  0
VERTEX
  8
0
  5
7E43
 10
137.555
 20
91.3592
 30
0.000000
  70
    32
  0
VERTEX
  8
0
  5
7E44
 10
137.597
 20
91.4307
 30
0.000000
  70
    32
  0
VERTEX
  8
0
  5
7E45
 10
137.639
 20
91.5028
 30
0.000000
  70
    32
  0
VERTEX
  8
0
  5
7E46
 10
137.681
 20
91.5756
 30
0.000000
  70
    32
  0
VERTEX
  8
0
  5
7E47
 10
137.723
 20
91.6490
 30
0.000000
  70
    32
  0
VERTEX
  8
0
  5
7E48
 10
137.764
 20
91.7230
 30
0.000000
  70
    32
  0
VERTEX
  8
0
  5
7E49
 10
137.804
 20
91.7976
 30
0.000000
  70
    32
  0
VERTEX
  8
0
  5
7E4A
 10
137.845
 20
91.8728
 30
0.000000
  70
    32
  0
VERTEX
  8
0
  5
7E4B
 10
137.885
 20
91.9486
 30
0.000000
  70
    32
  0
VERTEX
  8
0
  5
7E4C
 10
137.924
 20
92.0250
 30
0.000000
  70
    32
  0
VERTEX
  8
0
  5
7E4D
 10
137.963
 20
92.1020
 30
0.000000
  70
    32
  0
VERTEX
  8
0
  5
7E4E
 10
138.002
 20
92.1795
 30
0.000000
  70
    32
  0
VERTEX
  8
0
  5
7E4F
 10
138.040
 20
92.2577
 30
0.000000
  70
    32
  0
VERTEX
  8
0
  5
7E50
 10
138.079
 20
92.3364
 30
0.000000
  70
    32
  0
VERTEX
  8
0
  5
7E51
 10
138.116
 20
92.4156
 30
0.000000
  70
    32
  0
VERTEX
  8
0
  5
7E52
 10
138.153
 20
92.4954
 30
0.000000
  70
    32
  0
VERTEX
  8
0
  5
7E53
 10
138.190
 20
92.5758
 30
0.000000
  70
    32
  0
VERTEX
  8
0
  5
7E54
 10
138.227
 20
92.6567
 30
0.000000
  70
    32
  0
VERTEX
  8
0
  5
7E55
 10
138.263
 20
92.7381
 30
0.000000
  70
    32
  0
VERTEX
  8
0
  5
7E56
 10
138.298
 20
92.8201
 30
0.000000
  70
    32
  0
VERTEX
  8
0
  5
7E57
 10
138.334
 20
92.9026
 30
0.000000
  70
    32
  0
VERTEX
  8
0
  5
7E58
 10
138.369
 20
92.9856
 30
0.000000
  70
    32
  0
VERTEX
  8
0
  5
7E59
 10
138.403
 20
93.0691
 30
0.000000
  70
    32
  0
VERTEX
  8
0
  5
7E5A
 10
138.437
 20
93.1531
 30
0.000000
  70
    32
  0
VERTEX
  8
0
  5
7E5B
 10
138.471
 20
93.2377
 30
0.000000
  70
    32
  0
VERTEX
  8
0
  5
7E5C
 10
138.504
 20
93.3227
 30
0.000000
  70
    32
  0
VERTEX
  8
0
  5
7E5D
 10
138.537
 20
93.4082
 30
0.000000
  70
    32
  0
VERTEX
  8
0
  5
7E5E
 10
138.569
 20
93.4942
 30
0.000000
  70
    32
  0
VERTEX
  8
0
  5
7E5F
 10
138.601
 20
93.5807
 30
0.000000
  70
    32
  0
VERTEX
  8
0
  5
7E60
 10
138.632
 20
93.6676
 30
0.000000
  70
    32
  0
VERTEX
  8
0
  5
7E61
 10
138.663
 20
93.7550
 30
0.000000
  70
    32
  0
VERTEX
  8
0
  5
7E62
 10
138.694
 20
93.8429
 30
0.000000
  70
    32
  0
VERTEX
  8
0
  5
7E63
 10
138.724
 20
93.9312
 30
0.000000
  70
    32
  0
VERTEX
  8
0
  5
7E64
 10
138.754
 20
94.0199
 30
0.000000
  70
    32
  0
VERTEX
  8
0
  5
7E65
 10
138.783
 20
94.1091
 30
0.000000
  70
    32
  0
VERTEX
  8
0
  5
7E66
 10
138.812
 20
94.1987
 30
0.000000
  70
    32
  0
VERTEX
  8
0
  5
7E67
 10
138.840
 20
94.2888
 30
0.000000
  70
    32
  0
VERTEX
  8
0
  5
7E68
 10
138.868
 20
94.3793
 30
0.000000
  70
    32
  0
VERTEX
  8
0
  5
7E69
 10
138.896
 20
94.4701
 30
0.000000
  70
    32
  0
VERTEX
  8
0
  5
7E6A
 10
138.923
 20
94.5614
 30
0.000000
  70
    32
  0
VERTEX
  8
0
  5
7E6B
 10
138.950
 20
94.6531
 30
0.000000
  70
    32
  0
VERTEX
  8
0
  5
7E6C
 10
138.976
 20
94.7452
 30
0.000000
  70
    32
  0
VERTEX
  8
0
  5
7E6D
 10
139.002
 20
94.8376
 30
0.000000
  70
    32
  0
VERTEX
  8
0
  5
7E6E
 10
139.027
 20
94.9304
 30
0.000000
  70
    32
  0
VERTEX
  8
0
  5
7E6F
 10
139.052
 20
95.0237
 30
0.000000
  70
    32
  0
VERTEX
  8
0
  5
7E70
 10
139.076
 20
95.1172
 30
0.000000
  70
    32
  0
VERTEX
  8
0
  5
7E71
 10
139.100
 20
95.2111
 30
0.000000
  70
    32
  0
VERTEX
  8
0
  5
7E72
 10
139.123
 20
95.3054
 30
0.000000
  70
    32
  0
VERTEX
  8
0
  5
7E73
 10
139.146
 20
95.4000
 30
0.000000
  70
    32
  0
VERTEX
  8
0
  5
7E74
 10
139.169
 20
95.4950
 30
0.000000
  70
    32
  0
VERTEX
  8
0
  5
7E75
 10
139.191
 20
95.5903
 30
0.000000
  70
    32
  0
VERTEX
  8
0
  5
7E76
 10
139.212
 20
95.6859
 30
0.000000
  70
    32
  0
VERTEX
  8
0
  5
7E77
 10
139.233
 20
95.7818
 30
0.000000
  70
    32
  0
VERTEX
  8
0
  5
7E78
 10
139.254
 20
95.8780
 30
0.000000
  70
    32
  0
VERTEX
  8
0
  5
7E79
 10
139.274
 20
95.9746
 30
0.000000
  70
    32
  0
VERTEX
  8
0
  5
7E7A
 10
139.294
 20
96.0714
 30
0.000000
  70
    32
  0
VERTEX
  8
0
  5
7E7B
 10
139.313
 20
96.1685
 30
0.000000
  70
    32
  0
VERTEX
  8
0
  5
7E7C
 10
139.331
 20
96.2659
 30
0.000000
  70
    32
  0
VERTEX
  8
0
  5
7E7D
 10
139.350
 20
96.3636
 30
0.000000
  70
    32
  0
VERTEX
  8
0
  5
7E7E
 10
139.367
 20
96.4615
 30
0.000000
  70
    32
  0
VERTEX
  8
0
  5
7E7F
 10
139.385
 20
96.5597
 30
0.000000
  70
    32
  0
VERTEX
  8
0
  5
7E80
 10
139.401
 20
96.6581
 30
0.000000
  70
    32
  0
VERTEX
  8
0
  5
7E81
 10
139.418
 20
96.7568
 30
0.000000
  70
    32
  0
VERTEX
  8
0
  5
7E82
 10
139.433
 20
96.8557
 30
0.000000
  70
    32
  0
VERTEX
  8
0
  5
7E83
 10
139.449
 20
96.9549
 30
0.000000
  70
    32
  0
VERTEX
  8
0
  5
7E84
 10
139.463
 20
97.0543
 30
0.000000
  70
    32
  0
VERTEX
  8
0
  5
7E85
 10
139.478
 20
97.1539
 30
0.000000
  70
    32
  0
VERTEX
  8
0
  5
7E86
 10
139.492
 20
97.2537
 30
0.000000
  70
    32
  0
VERTEX
  8
0
  5
7E87
 10
139.505
 20
97.3537
 30
0.000000
  70
    32
  0
VERTEX
  8
0
  5
7E88
 10
139.518
 20
97.4539
 30
0.000000
  70
    32
  0
VERTEX
  8
0
  5
7E89
 10
139.530
 20
97.5542
 30
0.000000
  70
    32
  0
VERTEX
  8
0
  5
7E8A
 10
139.542
 20
97.6548
 30
0.000000
  70
    32
  0
VERTEX
  8
0
  5
7E8B
 10
139.553
 20
97.7555
 30
0.000000
  70
    32
  0
VERTEX
  8
0
  5
7E8C
 10
139.564
 20
97.8564
 30
0.000000
  70
    32
  0
VERTEX
  8
0
  5
7E8D
 10
139.574
 20
97.9575
 30
0.000000
  70
    32
  0
VERTEX
  8
0
  5
7E8E
 10
139.584
 20
98.0587
 30
0.000000
  70
    32
  0
VERTEX
  8
0
  5
7E8F
 10
139.593
 20
98.1600
 30
0.000000
  70
    32
  0
VERTEX
  8
0
  5
7E90
 10
139.602
 20
98.2615
 30
0.000000
  70
    32
  0
VERTEX
  8
0
  5
7E91
 10
139.611
 20
98.3631
 30
0.000000
  70
    32
  0
VERTEX
  8
0
  5
7E92
 10
139.618
 20
98.4648
 30
0.000000
  70
    32
  0
VERTEX
  8
0
  5
7E93
 10
139.626
 20
98.5667
 30
0.000000
  70
    32
  0
VERTEX
  8
0
  5
7E94
 10
139.633
 20
98.6686
 30
0.000000
  70
    32
  0
VERTEX
  8
0
  5
7E95
 10
139.639
 20
98.7706
 30
0.000000
  70
    32
  0
VERTEX
  8
0
  5
7E96
 10
139.645
 20
98.8728
 30
0.000000
  70
    32
  0
VERTEX
  8
0
  5
7E97
 10
139.650
 20
98.9750
 30
0.000000
  70
    32
  0
VERTEX
  8
0
  5
7E98
 10
139.655
 20
99.0773
 30
0.000000
  70
    32
  0
VERTEX
  8
0
  5
7E99
 10
139.659
 20
99.1796
 30
0.000000
  70
    32
  0
VERTEX
  8
0
  5
7E9A
 10
139.663
 20
99.2820
 30
0.000000
  70
    32
  0
VERTEX
  8
0
  5
7E9B
 10
139.666
 20
99.3845
 30
0.000000
  70
    32
  0
VERTEX
  8
0
  5
7E9C
 10
139.669
 20
99.4870
 30
0.000000
  70
    32
  0
VERTEX
  8
0
  5
7E9D
 10
139.671
 20
99.5896
 30
0.000000
  70
    32
  0
VERTEX
  8
0
  5
7E9E
 10
139.673
 20
99.6922
 30
0.000000
  70
    32
  0
VERTEX
  8
0
  5
7E9F
 10
139.674
 20
99.7948
 30
0.000000
  70
    32
  0
VERTEX
  8
0
  5
7EA0
 10
139.675
 20
99.8974
 30
0.000000
  70
    32
  0
VERTEX
  8
0
  5
7EA1
 10
139.675
 20
100.000
 30
0.000000
  70
    32
  0
SEQEND
  8
0
  5
7EA2
  0
LINE
  5
7BB1
  8
0
 10
127.67542648049999
 20
100.0
 30
0.0
 11
127.67542648049999
 21
113.416407865
 31
0.0
  0
POLYLINE
  5
7BB2
  8
0
 10
127.67542648039999
 20
100.0
 30
0.0
 66
     1
 70
     8
  0
VERTEX
  8
0
  5
7EA3
 10
127.675
 20
100.000
 30
0.000000
  70
    32
  0
VERTEX
  8
0
  5
7EA4
 10
127.676
 20
99.8974
 30
0.000000
  70
    32
  0
VERTEX
  8
0
  5
7EA5
 10
127.676
 20
99.7948
 30
0.000000
  70
    32
  0
VERTEX
  8
0
  5
7EA6
 10
127.678
 20
99.6922
 30
0.000000
  70
    32
  0
VERTEX
  8
0
  5
7EA7
 10
127.679
 20
99.5896
 30
0.000000
  70
    32
  0
VERTEX
  8
0
  5
7EA8
 10
127.682
 20
99.4870
 30
0.000000
  70
    32
  0
VERTEX
  8
0
  5
7EA9
 10
127.685
 20
99.3845
 30
0.000000
  70
    32
  0
VERTEX
  8
0
  5
7EAA
 10
127.688
 20
99.2820
 30
0.000000
  70
    32
  0
VERTEX
  8
0
  5
7EAB
 10
127.692
 20
99.1796
 30
0.000000
  70
    32
  0
VERTEX
  8
0
  5
7EAC
 10
127.696
 20
99.0773
 30
0.000000
  70
    32
  0
VERTEX
  8
0
  5
7EAD
 10
127.701
 20
98.9750
 30
0.000000
  70
    32
  0
VERTEX
  8
0
  5
7EAE
 10
127.706
 20
98.8728
 30
0.000000
  70
    32
  0
VERTEX
  8
0
  5
7EAF
 10
127.712
 20
98.7706
 30
0.000000
  70
    32
  0
VERTEX
  8
0
  5
7EB0
 10
127.718
 20
98.6686
 30
0.000000
  70
    32
  0
VERTEX
  8
0
  5
7EB1
 10
127.725
 20
98.5667
 30
0.000000
  70
    32
  0
VERTEX
  8
0
  5
7EB2
 10
127.732
 20
98.4648
 30
0.000000
  70
    32
  0
VERTEX
  8
0
  5
7EB3
 10
127.740
 20
98.3631
 30
0.000000
  70
    32
  0
VERTEX
  8
0
  5
7EB4
 10
127.749
 20
98.2615
 30
0.000000
  70
    32
  0
VERTEX
  8
0
  5
7EB5
 10
127.757
 20
98.1600
 30
0.000000
  70
    32
  0
VERTEX
  8
0
  5
7EB6
 10
127.767
 20
98.0587
 30
0.000000
  70
    32
  0
VERTEX
  8
0
  5
7EB7
 10
127.777
 20
97.9575
 30
0.000000
  70
    32
  0
VERTEX
  8
0
  5
7EB8
 10
127.787
 20
97.8564
 30
0.000000
  70
    32
  0
VERTEX
  8
0
  5
7EB9
 10
127.798
 20
97.7555
 30
0.000000
  70
    32
  0
VERTEX
  8
0
  5
7EBA
 10
127.809
 20
97.6548
 30
0.000000
  70
    32
  0
VERTEX
  8
0
  5
7EBB
 10
127.821
 20
97.5542
 30
0.000000
  70
    32
  0
VERTEX
  8
0
  5
7EBC
 10
127.833
 20
97.4539
 30
0.000000
  70
    32
  0
VERTEX
  8
0
  5
7EBD
 10
127.846
 20
97.3537
 30
0.000000
  70
    32
  0
VERTEX
  8
0
  5
7EBE
 10
127.859
 20
97.2537
 30
0.000000
  70
    32
  0
VERTEX
  8
0
  5
7EBF
 10
127.873
 20
97.1539
 30
0.000000
  70
    32
  0
VERTEX
  8
0
  5
7EC0
 10
127.887
 20
97.0543
 30
0.000000
  70
    32
  0
VERTEX
  8
0
  5
7EC1
 10
127.902
 20
96.9549
 30
0.000000
  70
    32
  0
VERTEX
  8
0
  5
7EC2
 10
127.917
 20
96.8557
 30
0.000000
  70
    32
  0
VERTEX
  8
0
  5
7EC3
 10
127.933
 20
96.7568
 30
0.000000
  70
    32
  0
VERTEX
  8
0
  5
7EC4
 10
127.950
 20
96.6581
 30
0.000000
  70
    32
  0
VERTEX
  8
0
  5
7EC5
 10
127.966
 20
96.5597
 30
0.000000
  70
    32
  0
VERTEX
  8
0
  5
7EC6
 10
127.983
 20
96.4615
 30
0.000000
  70
    32
  0
VERTEX
  8
0
  5
7EC7
 10
128.001
 20
96.3636
 30
0.000000
  70
    32
  0
VERTEX
  8
0
  5
7EC8
 10
128.019
 20
96.2659
 30
0.000000
  70
    32
  0
VERTEX
  8
0
  5
7EC9
 10
128.038
 20
96.1685
 30
0.000000
  70
    32
  0
VERTEX
  8
0
  5
7ECA
 10
128.057
 20
96.0714
 30
0.000000
  70
    32
  0
VERTEX
  8
0
  5
7ECB
 10
128.077
 20
95.9746
 30
0.000000
  70
    32
  0
VERTEX
  8
0
  5
7ECC
 10
128.097
 20
95.8780
 30
0.000000
  70
    32
  0
VERTEX
  8
0
  5
7ECD
 10
128.118
 20
95.7818
 30
0.000000
  70
    32
  0
VERTEX
  8
0
  5
7ECE
 10
128.139
 20
95.6859
 30
0.000000
  70
    32
  0
VERTEX
  8
0
  5
7ECF
 10
128.160
 20
95.5903
 30
0.000000
  70
    32
  0
VERTEX
  8
0
  5
7ED0
 10
128.182
 20
95.4950
 30
0.000000
  70
    32
  0
VERTEX
  8
0
  5
7ED1
 10
128.205
 20
95.4000
 30
0.000000
  70
    32
  0
VERTEX
  8
0
  5
7ED2
 10
128.228
 20
95.3054
 30
0.000000
  70
    32
  0
VERTEX
  8
0
  5
7ED3
 10
128.251
 20
95.2111
 30
0.000000
  70
    32
  0
VERTEX
  8
0
  5
7ED4
 10
128.275
 20
95.1172
 30
0.000000
  70
    32
  0
VERTEX
  8
0
  5
7ED5
 10
128.299
 20
95.0237
 30
0.000000
  70
    32
  0
VERTEX
  8
0
  5
7ED6
 10
128.324
 20
94.9304
 30
0.000000
  70
    32
  0
VERTEX
  8
0
  5
7ED7
 10
128.349
 20
94.8376
 30
0.000000
  70
    32
  0
VERTEX
  8
0
  5
7ED8
 10
128.375
 20
94.7452
 30
0.000000
  70
    32
  0
VERTEX
  8
0
  5
7ED9
 10
128.401
 20
94.6531
 30
0.000000
  70
    32
  0
VERTEX
  8
0
  5
7EDA
 10
128.428
 20
94.5614
 30
0.000000
  70
    32
  0
VERTEX
  8
0
  5
7EDB
 10
128.455
 20
94.4701
 30
0.000000
  70
    32
  0
VERTEX
  8
0
  5
7EDC
 10
128.482
 20
94.3793
 30
0.000000
  70
    32
  0
VERTEX
  8
0
  5
7EDD
 10
128.510
 20
94.2888
 30
0.000000
  70
    32
  0
VERTEX
  8
0
  5
7EDE
 10
128.539
 20
94.1987
 30
0.000000
  70
    32
  0
VERTEX
  8
0
  5
7EDF
 10
128.568
 20
94.1091
 30
0.000000
  70
    32
  0
VERTEX
  8
0
  5
7EE0
 10
128.597
 20
94.0199
 30
0.000000
  70
    32
  0
VERTEX
  8
0
  5
7EE1
 10
128.627
 20
93.9312
 30
0.000000
  70
    32
  0
VERTEX
  8
0
  5
7EE2
 10
128.657
 20
93.8429
 30
0.000000
  70
    32
  0
VERTEX
  8
0
  5
7EE3
 10
128.688
 20
93.7550
 30
0.000000
  70
    32
  0
VERTEX
  8
0
  5
7EE4
 10
128.719
 20
93.6676
 30
0.000000
  70
    32
  0
VERTEX
  8
0
  5
7EE5
 10
128.750
 20
93.5807
 30
0.000000
  70
    32
  0
VERTEX
  8
0
  5
7EE6
 10
128.782
 20
93.4942
 30
0.000000
  70
    32
  0
VERTEX
  8
0
  5
7EE7
 10
128.814
 20
93.4082
 30
0.000000
  70
    32
  0
VERTEX
  8
0
  5
7EE8
 10
128.847
 20
93.3227
 30
0.000000
  70
    32
  0
VERTEX
  8
0
  5
7EE9
 10
128.880
 20
93.2377
 30
0.000000
  70
    32
  0
VERTEX
  8
0
  5
7EEA
 10
128.914
 20
93.1531
 30
0.000000
  70
    32
  0
VERTEX
  8
0
  5
7EEB
 10
128.948
 20
93.0691
 30
0.000000
  70
    32
  0
VERTEX
  8
0
  5
7EEC
 10
128.982
 20
92.9856
 30
0.000000
  70
    32
  0
VERTEX
  8
0
  5
7EED
 10
129.017
 20
92.9026
 30
0.000000
  70
    32
  0
VERTEX
  8
0
  5
7EEE
 10
129.052
 20
92.8201
 30
0.000000
  70
    32
  0
VERTEX
  8
0
  5
7EEF
 10
129.088
 20
92.7381
 30
0.000000
  70
    32
  0
VERTEX
  8
0
  5
7EF0
 10
129.124
 20
92.6567
 30
0.000000
  70
    32
  0
VERTEX
  8
0
  5
7EF1
 10
129.161
 20
92.5758
 30
0.000000
  70
    32
  0
VERTEX
  8
0
  5
7EF2
 10
129.197
 20
92.4954
 30
0.000000
  70
    32
  0
VERTEX
  8
0
  5
7EF3
 10
129.235
 20
92.4156
 30
0.000000
  70
    32
  0
VERTEX
  8
0
  5
7EF4
 10
129.272
 20
92.3364
 30
0.000000
  70
    32
  0
VERTEX
  8
0
  5
7EF5
 10
129.310
 20
92.2577
 30
0.000000
  70
    32
  0
VERTEX
  8
0
  5
7EF6
 10
129.349
 20
92.1795
 30
0.000000
  70
    32
  0
VERTEX
  8
0
  5
7EF7
 10
129.388
 20
92.1020
 30
0.000000
  70
    32
  0
VERTEX
  8
0
  5
7EF8
 10
129.427
 20
92.0250
 30
0.000000
  70
    32
  0
VERTEX
  8
0
  5
7EF9
 10
129.466
 20
91.9486
 30
0.000000
  70
    32
  0
VERTEX
  8
0
  5
7EFA
 10
129.506
 20
91.8728
 30
0.000000
  70
    32
  0
VERTEX
  8
0
  5
7EFB
 10
129.547
 20
91.7976
 30
0.000000
  70
    32
  0
VERTEX
  8
0
  5
7EFC
 10
129.587
 20
91.7230
 30
0.000000
  70
    32
  0
VERTEX
  8
0
  5
7EFD
 10
129.628
 20
91.6490
 30
0.000000
  70
    32
  0
VERTEX
  8
0
  5
7EFE
 10
129.670
 20
91.5756
 30
0.000000
  70
    32
  0
VERTEX
  8
0
  5
7EFF
 10
129.712
 20
91.5028
 30
0.000000
  70
    32
  0
VERTEX
  8
0
  5
7F00
 10
129.754
 20
91.4307
 30
0.000000
  70
    32
  0
VERTEX
  8
0
  5
7F01
 10
129.796
 20
91.3592
 30
0.000000
  70
    32
  0
VERTEX
  8
0
  5
7F02
 10
129.839
 20
91.2883
 30
0.000000
  70
    32
  0
VERTEX
  8
0
  5
7F03
 10
129.882
 20
91.2180
 30
0.000000
  70
    32
  0
VERTEX
  8
0
  5
7F04
 10
129.926
 20
91.1484
 30
0.000000
  70
    32
  0
VERTEX
  8
0
  5
7F05
 10
129.970
 20
91.0794
 30
0.000000
  70
    32
  0
VERTEX
  8
0
  5
7F06
 10
130.014
 20
91.0111
 30
0.000000
  70
    32
  0
VERTEX
  8
0
  5
7F07
 10
130.058
 20
90.9434
 30
0.000000
  70
    32
  0
VERTEX
  8
0
  5
7F08
 10
130.103
 20
90.8764
 30
0.000000
  70
    32
  0
VERTEX
  8
0
  5
7F09
 10
130.148
 20
90.8101
 30
0.000000
  70
    32
  0
VERTEX
  8
0
  5
7F0A
 10
130.194
 20
90.7445
 30
0.000000
  70
    32
  0
VERTEX
  8
0
  5
7F0B
 10
130.240
 20
90.6795
 30
0.000000
  70
    32
  0
VERTEX
  8
0
  5
7F0C
 10
130.286
 20
90.6152
 30
0.000000
  70
    32
  0
VERTEX
  8
0
  5
7F0D
 10
130.333
 20
90.5516
 30
0.000000
  70
    32
  0
VERTEX
  8
0
  5
7F0E
 10
130.379
 20
90.4887
 30
0.000000
  70
    32
  0
VERTEX
  8
0
  5
7F0F
 10
130.426
 20
90.4264
 30
0.000000
  70
    32
  0
VERTEX
  8
0
  5
7F10
 10
130.474
 20
90.3649
 30
0.000000
  70
    32
  0
VERTEX
  8
0
  5
7F11
 10
130.522
 20
90.3041
 30
0.000000
  70
    32
  0
VERTEX
  8
0
  5
7F12
 10
130.570
 20
90.2440
 30
0.000000
  70
    32
  0
VERTEX
  8
0
  5
7F13
 10
130.618
 20
90.1846
 30
0.000000
  70
    32
  0
VERTEX
  8
0
  5
7F14
 10
130.667
 20
90.1259
 30
0.000000
  70
    32
  0
VERTEX
  8
0
  5
7F15
 10
130.715
 20
90.0679
 30
0.000000
  70
    32
  0
VERTEX
  8
0
  5
7F16
 10
130.765
 20
90.0107
 30
0.000000
  70
    32
  0
VERTEX
  8
0
  5
7F17
 10
130.814
 20
89.9542
 30
0.000000
  70
    32
  0
VERTEX
  8
0
  5
7F18
 10
130.864
 20
89.8984
 30
0.000000
  70
    32
  0
VERTEX
  8
0
  5
7F19
 10
130.914
 20
89.8434
 30
0.000000
  70
    32
  0
VERTEX
  8
0
  5
7F1A
 10
130.964
 20
89.7891
 30
0.000000
  70
    32
  0
VERTEX
  8
0
  5
7F1B
 10
131.015
 20
89.7356
 30
0.000000
  70
    32
  0
VERTEX
  8
0
  5
7F1C
 10
131.065
 20
89.6828
 30
0.000000
  70
    32
  0
VERTEX
  8
0
  5
7F1D
 10
131.117
 20
89.6308
 30
0.000000
  70
    32
  0
VERTEX
  8
0
  5
7F1E
 10
131.168
 20
89.5795
 30
0.000000
  70
    32
  0
VERTEX
  8
0
  5
7F1F
 10
131.219
 20
89.5290
 30
0.000000
  70
    32
  0
VERTEX
  8
0
  5
7F20
 10
131.271
 20
89.4792
 30
0.000000
  70
    32
  0
VERTEX
  8
0
  5
7F21
 10
131.323
 20
89.4303
 30
0.000000
  70
    32
  0
VERTEX
  8
0
  5
7F22
 10
131.376
 20
89.3821
 30
0.000000
  70
    32
  0
VERTEX
  8
0
  5
7F23
 10
131.428
 20
89.3346
 30
0.000000
  70
    32
  0
SEQEND
  8
0
  5
7F24
  0
LINE
  5
7BB3
  8
0
 10
126.0
 20
113.416407865
 30
0.0
 11
125.0
 21
112.0415945788
 31
0.0
  0
LINE
  5
7BB5
  8
0
 10
125.0
 20
117.0
 30
0.0
 11
125.0
 21
88.0
 31
0.0
  0
ARC
  5
7BB6
  8
0
 10
132.1915202488
 20
90.388448592999993
 30
0.0
 40
1.3012205477130521
 50
234.08275250310101
 51
274.52719936779971
  0
LINE
  5
7BB7
  8
0
 10
135.05662432700001
 20
89.091287885400007
 30
0.0
 11
132.29422863409999
 21
89.091287885400007
 31
0.0
  0
ARC
  5
7BB8
  8
0
 10
135.11674711969999
 20
90.540002187200002
 30
0.0
 40
1.4499613369466191
 50
267.62354341400032
 51
303.76650471509981
  0
LINE
  5
7BB9
  8
0
 10
142.09999999999999
 20
88.0
 30
0.0
 11
142.09999999999999
 21
100.0
 31
0.0
  0
LINE
  5
7BBB
  8
0
 10
98.599999999999994
 20
108.0
 30
0.0
 11
98.599999999999994
 21
92.0
 31
0.0
  0
LINE
  5
7BBD
  8
0
 10
87.0
 20
108.0
 30
0.0
 11
87.0
 21
92.0
 31
0.0
  0
LINE
  5
7BBE
  8
0
 10
97.0
 20
108.0
 30
0.0
 11
97.0
 21
92.0
 31
0.0
  0
LINE
  5
7BC0
  8
0
 10
85.0
 20
94.0
 30
0.0
 11
85.0
 21
106.0
 31
0.0
  0
LINE
  5
7BC1
  8
0
 10
122.8269120674
 20
86.244330920099983
 30
0.0
 11
122.8269120674
 21
113.7556690799
 31
0.0
  0
LINE
  5
7BC5
  8
0
 10
135.9226497308
 20
117.139136501
 30
0.0
 11
135.9226497308
 21
89.334635496199994
 31
0.0
  0
LINE
  5
7BC6
  8
0
 10
131.4282032303
 20
89.334635496199994
 30
0.0
 11
131.4282032303
 21
117.139136501
 31
0.0
  0
LINE
  5
7BC8
  8
0
 10
132.29422863409999
 20
117.2916164658
 30
0.0
 11
132.29422863409999
 21
89.091287885400007
 31
0.0
  0
LINE
  5
7BC9
  8
0
 10
135.05662432700001
 20
89.091287885400007
 30
0.0
 11
135.05662432700001
 21
117.2916164658
 31
0.0
  0
ARC
  5
7BCB
  8
0
 10
241.75
 20
100.0
 30
0.0
 40
15.75
 50
139.6324064557989
 51
40.367593544186022
  0
LINE
  5
7BCC
  8
0
 10
248.75
 20
100.0
 30
0.0
 11
241.75
 21
93.0
 31
0.0
  0
LINE
  5
7BCD
  8
0
 10
244.75
 20
100.0
 30
0.0
 11
248.75
 21
100.0
 31
0.0
  0
LINE
  5
7BCE
  8
0
 10
244.75
 20
110.0
 30
0.0
 11
244.75
 21
100.0
 31
0.0
  0
LINE
  5
7BCF
  8
0
 10
238.75
 20
110.0
 30
0.0
 11
244.75
 21
110.0
 31
0.0
  0
LINE
  5
7BD0
  8
0
 10
238.75
 20
100.0
 30
0.0
 11
238.75
 21
110.0
 31
0.0
  0
LINE
  5
7BD1
  8
0
 10
234.75
 20
100.0
 30
0.0
 11
238.75
 21
100.0
 31
0.0
  0
LINE
  5
7BD2
  8
0
 10
241.75
 20
93.0
 30
0.0
 11
234.75
 21
100.0
 31
0.0
  0
LINE
  5
7BD3
  8
0
 10
229.75
 20
113.4164078649989
 30
0.0
 11
229.75
 21
100.0
 31
0.0
  0
ARC
  5
7BD4
  8
0
 10
241.75
 20
100.0
 30
0.0
 40
15.00000000000006
 50
36.869897645800869
 51
143.1301023541991
  0
LINE
  5
7BD5
  8
0
 10
253.75
 20
113.4164078649989
 30
0.0
 11
253.75
 21
100.0
 31
0.0
  0
ARC
  5
7BD6
  8
0
 10
241.75
 20
100.0
 30
0.0
 40
12.000000000000091
 50
180.0
 51
0.0
  0
ARC
  5
7BD8
  8
0
 10
241.75
 20
100.0
 30
0.0
 40
18.000000000000099
 50
48.189685104200812
 51
131.81031489579919
  0
ARC
  5
7BDA
  8
0
 10
241.75
 20
100.0
 30
0.0
 40
13.75566907991859
 50
150.73494631929941
 51
29.265053680668821
  0
ARC
  5
7BDC
  8
0
 10
97.849999999999994
 20
186.75
 30
0.0
 40
0.75
 50
0.0
 51
180.0
  0
ARC
  5
7BDD
  8
0
 10
97.849999999999994
 20
173.25
 30
0.0
 40
0.75
 50
180.0
 51
0.0
  0
LINE
  5
7BDE
  8
0
 10
97.099999999999994
 20
186.75
 30
0.0
 11
97.099999999999994
 21
173.25
 31
0.0
  0
LINE
  5
7BDF
  8
0
 10
115.87185361100001
 20
164.25
 30
0.0
 11
122.8269120674
 21
166.2443309201
 31
0.0
  0
LINE
  5
7BE0
  8
0
 10
122.8269120674
 20
193.7556690799
 30
0.0
 11
115.87185361100001
 21
195.75
 31
0.0
  0
LINE
  5
7BE1
  8
0
 10
115.87185361100001
 20
195.75
 30
0.0
 11
115.2
 21
195.75
 31
0.0
  0
LINE
  5
7BE2
  8
0
 10
115.2
 20
164.25
 30
0.0
 11
115.87185361100001
 21
164.25
 31
0.0
  0
LINE
  5
7BE3
  8
0
 10
115.2
 20
195.75
 30
0.0
 11
115.0
 21
195.55000000000001
 31
0.0
  0
LINE
  5
7BE4
  8
0
 10
115.0
 20
164.44999999999999
 30
0.0
 11
115.2
 21
164.25
 31
0.0
  0
ARC
  5
7BE5
  8
0
 10
122.0
 20
190.8718839920999
 30
0.0
 40
3.0000000000000129
 50
0.0
 51
74.00000000000054
  0
ARC
  5
7BE6
  8
0
 10
122.0
 20
169.12811600789999
 30
0.0
 40
3.0000000000000129
 50
285.99999999999937
 51
0.0
  0
POLYLINE
  5
7BE7
  8
0
 66
     1
 10
0.0
 20
0.0
 30
0.0
 70
   128
  0
VERTEX
  5
7D15
  8
0
 10
115.0
 20
190.7127016654
 30
0.0
  0
VERTEX
  5
7D16
  8
0
 10
114.9780361288
 20
190.70768588780001
 30
0.0
  0
VERTEX
  5
7D17
  8
0
 10
114.90000000000001
 20
190.69999999999999
 30
0.0
  0
SEQEND
  5
7D18
  8
0
  0
POLYLINE
  5
7BE8
  8
0
 66
     1
 10
0.0
 20
0.0
 30
0.0
 70
   128
  0
VERTEX
  5
7D19
  8
0
 10
114.90000000000001
 20
169.30000000000001
 30
0.0
  0
VERTEX
  5
7D1A
  8
0
 10
114.9780361288
 20
169.29231411219999
 30
0.0
  0
VERTEX
  5
7D1B
  8
0
 10
115.0
 20
169.2872983346
 30
0.0
  0
SEQEND
  5
7D1C
  8
0
  0
LINE
  5
7BE9
  8
0
 10
114.0
 20
169.0
 30
0.0
 11
114.3
 21
169.30000000000001
 31
0.0
  0
LINE
  5
7BEA
  8
0
 10
114.3
 20
190.69999999999999
 30
0.0
 11
114.0
 21
191.0
 31
0.0
  0
LINE
  5
7BEB
  8
0
 10
114.0
 20
191.0
 30
0.0
 11
109.0
 21
191.0
 31
0.0
  0
LINE
  5
7BEC
  8
0
 10
109.0
 20
169.0
 30
0.0
 11
114.0
 21
169.0
 31
0.0
  0
LINE
  5
7BED
  8
0
 10
109.0
 20
191.0
 30
0.0
 11
107.5
 21
190.13397459620001
 31
0.0
  0
LINE
  5
7BEE
  8
0
 10
107.5
 20
169.86602540379999
 30
0.0
 11
109.0
 21
169.0
 31
0.0
  0
LINE
  5
7BEF
  8
0
 10
114.90000000000001
 20
190.69999999999999
 30
0.0
 11
114.3
 21
190.69999999999999
 31
0.0
  0
LINE
  5
7BF0
  8
0
 10
114.3
 20
169.30000000000001
 30
0.0
 11
114.90000000000001
 21
169.30000000000001
 31
0.0
  0
LINE
  5
7BF1
  8
0
 10
107.5
 20
188.0
 30
0.0
 11
98.599999999999994
 21
188.0
 31
0.0
  0
LINE
  5
7BF2
  8
0
 10
98.599999999999994
 20
172.0
 30
0.0
 11
107.5
 21
172.0
 31
0.0
  0
LINE
  5
7BF3
  8
0
 10
97.0
 20
188.0
 30
0.0
 11
87.0
 21
188.0
 31
0.0
  0
LINE
  5
7BF4
  8
0
 10
87.0
 20
172.0
 30
0.0
 11
97.0
 21
172.0
 31
0.0
  0
LINE
  5
7BF5
  8
0
 10
87.0
 20
188.0
 30
0.0
 11
85.0
 21
186.0
 31
0.0
  0
LINE
  5
7BF6
  8
0
 10
85.0
 20
174.0
 30
0.0
 11
87.0
 21
172.0
 31
0.0
  0
LINE
  5
7BF7
  8
0
 10
97.099999999999994
 20
186.0
 30
0.0
 11
97.0
 21
186.0
 31
0.0
  0
LINE
  5
7BF8
  8
0
 10
97.0
 20
174.0
 30
0.0
 11
97.099999999999994
 21
174.0
 31
0.0
  0
LINE
  5
7BF9
  8
0
 10
115.87185361100001
 20
195.75
 30
0.0
 11
115.87185361100001
 21
164.25
 31
0.0
  0
LINE
  5
7BFA
  8
0
 10
115.2
 20
195.75
 30
0.0
 11
115.2
 21
164.25
 31
0.0
  0
LINE
  5
7BFB
  8
0
 10
115.0
 20
164.44999999999999
 30
0.0
 11
115.0
 21
195.55000000000001
 31
0.0
  0
LINE
  5
7BFC
  8
0
 10
114.0
 20
191.0
 30
0.0
 11
114.0
 21
169.0
 31
0.0
  0
LINE
  5
7BFD
  8
0
 10
114.3
 20
190.69999999999999
 30
0.0
 11
114.3
 21
169.30000000000001
 31
0.0
  0
LINE
  5
7BFE
  8
0
 10
109.0
 20
191.0
 30
0.0
 11
109.0
 21
169.0
 31
0.0
  0
LINE
  5
7BFF
  8
0
 10
107.5
 20
169.86602540379999
 30
0.0
 11
107.5
 21
190.13397459620001
 31
0.0
  0
LINE
  5
7C00
  8
0
 10
166.0
 20
192.0
 30
0.0
 11
166.0
 21
168.0
 31
0.0
  0
LINE
  5
7C02
  8
0
 10
163.0
 20
168.0
 30
0.0
 11
163.0
 21
192.0
 31
0.0
  0
LINE
  5
7C04
  8
0
 10
139.67542648049999
 20
168.0
 30
0.0
 11
135.9226497308
 21
174.5
 31
0.0
  0
ARC
  5
7C05
  8
0
 10
135.05662432700001
 20
174.0
 30
0.0
 40
1.0000000000002269
 50
29.999999999999989
 51
90.0
  0
LINE
  5
7C06
  8
0
 10
135.05662432700001
 20
175.0
 30
0.0
 11
132.29422863409999
 21
175.0
 31
0.0
  0
ARC
  5
7C07
  8
0
 10
132.29422863409999
 20
174.0
 30
0.0
 40
1.0000000000000571
 50
90.0
 51
150.0
  0
LINE
  5
7C08
  8
0
 10
131.4282032303
 20
174.5
 30
0.0
 11
127.67542648049999
 21
168.0
 31
0.0
  0
LINE
  5
7C09
  8
0
 10
127.67542648049999
 20
168.0
 30
0.0
 11
126.0
 21
168.0
 31
0.0
  0
LINE
  5
7C0A
  8
0
 10
126.0
 20
192.0
 30
0.0
 11
126.0
 21
168.0
 31
0.0
  0
LINE
  5
7C0B
  8
0
 10
126.0
 20
192.0
 30
0.0
 11
127.67542648049999
 21
192.0
 31
0.0
  0
LINE
  5
7C0C
  8
0
 10
131.4282032303
 20
185.5
 30
0.0
 11
127.67542648049999
 21
192.0
 31
0.0
  0
ARC
  5
7C0D
  8
0
 10
132.29422863409999
 20
186.0
 30
0.0
 40
0.9999999999999715
 50
210.0
 51
270.0
  0
LINE
  5
7C0E
  8
0
 10
135.05662432700001
 20
185.0
 30
0.0
 11
132.29422863409999
 21
185.0
 31
0.0
  0
ARC
  5
7C0F
  8
0
 10
135.05662432700001
 20
186.0
 30
0.0
 40
1.0000000000000071
 50
270.0
 51
330.00000000000011
  0
LINE
  5
7C10
  8
0
 10
139.67542648049999
 20
192.0
 30
0.0
 11
135.9226497308
 21
185.5
 31
0.0
  0
LINE
  5
7C11
  8
0
 10
139.67542648049999
 20
192.0
 30
0.0
 11
166.0
 21
192.0
 31
0.0
  0
LINE
  5
7C12
  8
0
 10
166.0
 20
168.0
 30
0.0
 11
139.67542648049999
 21
168.0
 31
0.0
  0
LINE
  5
7C13
  8
0
 10
126.0
 20
168.0
 30
0.0
 11
125.0
 21
168.0
 31
0.0
  0
LINE
  5
7C14
  8
0
 10
125.0
 20
168.0
 30
0.0
 11
125.0
 21
192.0
 31
0.0
  0
LINE
  5
7C15
  8
0
 10
125.0
 20
192.0
 30
0.0
 11
126.0
 21
192.0
 31
0.0
  0
LINE
  5
7C16
  8
0
 10
98.599999999999994
 20
188.0
 30
0.0
 11
98.599999999999994
 21
172.0
 31
0.0
  0
LINE
  5
7C17
  8
0
 10
87.0
 20
188.0
 30
0.0
 11
87.0
 21
172.0
 31
0.0
  0
LINE
  5
7C18
  8
0
 10
97.0
 20
188.0
 30
0.0
 11
97.0
 21
172.0
 31
0.0
  0
LINE
  5
7C19
  8
0
 10
85.0
 20
174.0
 30
0.0
 11
85.0
 21
186.0
 31
0.0
  0
LINE
  5
7C1A
  8
0
 10
122.8269120674
 20
166.2443309201
 30
0.0
 11
122.8269120674
 21
193.7556690799
 31
0.0
  0
LINE
  5
7C1D
  8
3
 10
107.49999949710001
 20
107.00000021605
 30
0.0
 11
98.599999249000021
 21
107.00000021605
 31
0.0
  0
LINE
  5
7C1E
  8
3
 10
98.599999249000021
 20
92.999999783949974
 30
0.0
 11
107.49999949710001
 21
92.999999783949974
 31
0.0
  0
LINE
  5
7C1F
  8
3
 10
97.000000104300014
 20
107.00000021605
 30
0.0
 11
86.000000164000014
 21
107.00000021605
 31
0.0
  0
LINE
  5
7C20
  8
3
 10
86.000000164000014
 20
92.999999783949974
 30
0.0
 11
97.000000104300014
 21
92.999999783949974
 31
0.0
  0
LINE
  5
7C21
  8
3
 10
107.49999949710001
 20
187.00000021605001
 30
0.0
 11
98.599999249000021
 21
187.00000021605001
 31
0.0
  0
LINE
  5
7C22
  8
3
 10
98.599999249000021
 20
172.99999978394999
 30
0.0
 11
107.49999949710001
 21
172.99999978394999
 31
0.0
  0
LINE
  5
7C23
  8
3
 10
97.000000104300014
 20
187.00000021605001
 30
0.0
 11
86.000000164000014
 21
187.00000021605001
 31
0.0
  0
LINE
  5
7C24
  8
3
 10
86.000000164000014
 20
172.99999978394999
 30
0.0
 11
97.000000104300014
 21
172.99999978394999
 31
0.0
  0
LINE
  5
7C25
  8
1
 10
80.0
 20
100.0
 30
0.0
 11
171.0
 21
100.0
 31
0.0
  0
LINE
  5
7C26
  8
1
 10
80.0
 20
180.0
 30
0.0
 11
171.0
 21
180.0
 31
0.0
  0
LINE
  5
7C29
  8
1
 10
221.0
 20
100.0
 30
0.0
 11
262.5
 21
100.0
 31
0.0
  0
LINE
  5
7C2A
  8
1
 10
241.75
 20
79.25
 30
0.0
 11
241.75
 21
122.9999999999999
 31
0.0
  0
ENDSEC
  0
EOF
