  0
SECTION
  2
HEADER
  9
$ACADVER
  1
AC1009
  9
$INSBASE
 10
0.0
 20
0.0
 30
0.0
  9
$EXTMIN
 10
0.0
 20
-1.4802182810368341
 30
0.0
  9
$EXTMAX
 10
137.77500119059999
 20
107.75
 30
0.0
  9
$LIMMIN
 10
0.0
 20
0.0
  9
$LIMMAX
 10
12.0
 20
9.0
  9
$ORTHOMODE
 70
     1
  9
$REGENMODE
 70
     1
  9
$FILLMODE
 70
     1
  9
$QTEXTMODE
 70
     0
  9
$MIRRTEXT
 70
     0
  9
$DRAGMODE
 70
     2
  9
$LTSCALE
 40
5.0
  9
$OSMODE
 70
    37
  9
$ATTMODE
 70
     1
  9
$TEXTSIZE
 40
0.2
  9
$TRACEWID
 40
0.05
  9
$TEXTSTYLE
  7
STANDARD
  9
$CLAYER
  8
0
  9
$CELTYPE
  6
BYLAYER
  9
$CECOLOR
 62
   256
  9
$DIMSCALE
 40
1.0
  9
$DIMASZ
 40
0.18
  9
$DIMEXO
 40
0.0625
  9
$DIMDLI
 40
0.38
  9
$DIMRND
 40
0.0
  9
$DIMDLE
 40
0.0
  9
$DIMEXE
 40
0.18
  9
$DIMTP
 40
0.0
  9
$DIMTM
 40
0.0
  9
$DIMTXT
 40
2.6000000000000001
  9
$DIMCEN
 40
0.09
  9
$DIMTSZ
 40
0.0
  9
$DIMTOL
 70
     0
  9
$DIMLIM
 70
     0
  9
$DIMTIH
 70
     0
  9
$DIMTOH
 70
     0
  9
$DIMSE1
 70
     0
  9
$DIMSE2
 70
     0
  9
$DIMTAD
 70
     1
  9
$DIMZIN
 70
     8
  9
$DIMBLK
  1

  9
$DIMASO
 70
     1
  9
$DIMSHO
 70
     1
  9
$DIMPOST
  1

  9
$DIMAPOST
  1

  9
$DIMALT
 70
     0
  9
$DIMALTD
 70
     2
  9
$DIMALTF
 40
25.399999999999999
  9
$DIMLFAC
 40
1.0
  9
$DIMTOFL
 70
     0
  9
$DIMTVP
 40
0.0
  9
$DIMTIX
 70
     0
  9
$DIMSOXD
 70
     0
  9
$DIMSAH
 70
     0
  9
$DIMBLK1
  1

  9
$DIMBLK2
  1

  9
$DIMSTYLE
  2
STANDARD
  9
$DIMCLRD
 70
     0
  9
$DIMCLRE
 70
     0
  9
$DIMCLRT
 70
     0
  9
$DIMTFAC
 40
1.0
  9
$DIMGAP
 40
0.09
  9
$LUNITS
 70
     2
  9
$LUPREC
 70
     4
  9
$SKETCHINC
 40
0.1
  9
$FILLETRAD
 40
0.0
  9
$AUNITS
 70
     0
  9
$AUPREC
 70
     0
  9
$MENU
  1
.
  9
$ELEVATION
 40
0.0
  9
$PELEVATION
 40
0.0
  9
$THICKNESS
 40
0.0
  9
$LIMCHECK
 70
     0
  9
$BLIPMODE
 70
     0
  9
$CHAMFERA
 40
0.0
  9
$CHAMFERB
 40
0.0
  9
$SKPOLY
 70
     0
  9
$TDCREATE
 40
2453083.4120647679
  9
$TDUPDATE
 40
2458820.724438461
  9
$TDINDWG
 40
0.7390668171
  9
$TDUSRTIMER
 40
0.7390667014
  9
$USRTIMER
 70
     1
  9
$ANGBASE
 50
0.0
  9
$ANGDIR
 70
     0
  9
$PDMODE
 70
     0
  9
$PDSIZE
 40
0.0
  9
$PLINEWID
 40
0.0
  9
$COORDS
 70
     1
  9
$SPLFRAME
 70
     0
  9
$SPLINETYPE
 70
     6
  9
$SPLINESEGS
 70
     8
  9
$ATTDIA
 70
     0
  9
$ATTREQ
 70
     1
  9
$HANDLING
 70
     1
  9
$HANDSEED
  5
7B21
  9
$SURFTAB1
 70
     6
  9
$SURFTAB2
 70
     6
  9
$SURFTYPE
 70
     6
  9
$SURFU
 70
     6
  9
$SURFV
 70
     6
  9
$UCSNAME
  2

  9
$UCSORG
 10
0.0
 20
0.0
 30
0.0
  9
$UCSXDIR
 10
1.0
 20
0.0
 30
0.0
  9
$UCSYDIR
 10
0.0
 20
1.0
 30
0.0
  9
$PUCSNAME
  2

  9
$PUCSORG
 10
0.0
 20
0.0
 30
0.0
  9
$PUCSXDIR
 10
1.0
 20
0.0
 30
0.0
  9
$PUCSYDIR
 10
0.0
 20
1.0
 30
0.0
  9
$USERI1
 70
     0
  9
$USERI2
 70
     1
  9
$USERI3
 70
     0
  9
$USERI4
 70
     0
  9
$USERI5
 70
     0
  9
$USERR1
 40
0.0
  9
$USERR2
 40
0.0
  9
$USERR3
 40
0.0
  9
$USERR4
 40
0.0
  9
$USERR5
 40
0.0
  9
$WORLDVIEW
 70
     1
  9
$SHADEDGE
 70
     3
  9
$SHADEDIF
 70
    70
  9
$TILEMODE
 70
     1
  9
$MAXACTVP
 70
    64
  9
$PLIMCHECK
 70
     0
  9
$PEXTMIN
 10
0.0
 20
0.0
 30
0.0
  9
$PEXTMAX
 10
0.0
 20
0.0
 30
0.0
  9
$PLIMMIN
 10
0.0
 20
0.0
  9
$PLIMMAX
 10
12.0
 20
9.0
  9
$UNITMODE
 70
     0
  9
$VISRETAIN
 70
     1
  9
$PLINEGEN
 70
     0
  9
$PSLTSCALE
 70
     1
  0
ENDSEC
  0
SECTION
  2
TABLES
  0
TABLE
  2
VPORT
 70
     1
  0
VPORT
  2
*ACTIVE
 70
     0
 10
0.0
 20
0.0
 11
1.0
 21
1.0
 12
122.212183805621
 22
53.136715932274647
 13
0.0
 23
0.0
 14
0.5
 24
0.5
 15
0.5
 25
0.5
 16
0.0
 26
0.0
 36
1.0
 17
0.0
 27
0.0
 37
0.0
 40
110.19278025690009
 41
2.415644171779141
 42
50.0
 43
0.0
 44
0.0
 50
0.0
 51
0.0
 71
     0
 72
  1000
 73
     1
 74
     2
 75
     0
 76
     0
 77
     0
 78
     0
  0
ENDTAB
  0
TABLE
  2
LTYPE
 70
     3
  0
LTYPE
  2
CONTINUOUS
 70
     0
  3
Solid Line
 72
    65
 73
     0
 40
0.0
  0
LTYPE
  2
CENTER
 70
     0
  3
____ _ ____ _ ____ _ ____ _ ____ _ ____ _ ____
 72
    65
 73
     4
 40
2.0
 49
1.25
 49
-0.25
 49
0.25
 49
-0.25
  0
LTYPE
  2
PHANTOM2
 70
     0
  3
___ _ _ ___ _ _ ___ _ _ ___ _ _
 72
    65
 73
     6
 40
1.25
 49
0.625
 49
-0.125
 49
0.125
 49
-0.125
 49
0.125
 49
-0.125
  0
ENDTAB
  0
TABLE
  2
LAYER
 70
     4
  0
LAYER
  2
0
 70
     0
 62
     7
  6
CONTINUOUS
  0
LAYER
  2
1
 70
     0
 62
     1
  6
CENTER
  0
LAYER
  2
DEFPOINTS
 70
     0
 62
     7
  6
CONTINUOUS
  0
LAYER
  2
3
 70
     0
 62
     3
  6
CONTINUOUS
  0
ENDTAB
  0
TABLE
  2
STYLE
 70
     2
  0
STYLE
  2
STANDARD
 70
     0
 40
0.0
 41
1.0
 50
0.0
 71
     0
 42
0.2
  3
simplex.shx
  4
bigfont.shx
  0
STYLE
  2
STANDARD1
 70
     0
 40
0.0
 41
1.0
 50
0.0
 71
     0
 42
3.0
  3
txt
  4

  0
ENDTAB
  0
TABLE
  2
VIEW
 70
     0
  0
ENDTAB
  0
TABLE
  2
UCS
 70
     0
  0
ENDTAB
  0
TABLE
  2
APPID
 70
     5
  0
APPID
  2
ACAD
 70
     0
  0
APPID
  2
ACAD_MLEADERVER
 70
     0
  0
APPID
  2
ACAD_NAV_VCDISPLAY
 70
     0
  0
APPID
  2
ACAD_EXEMPT_FROM_CAD_STANDARDS
 70
     0
  0
APPID
  2
ACAD_DSTYLE_DIMRADIAL_EXTENSION
 70
     0
  0
ENDTAB
  0
TABLE
  2
DIMSTYLE
 70
     1
  0
DIMSTYLE
  2
STANDARD
 70
     0
  3

  4

  5

  6

  7

 40
1.0
 41
0.18
 42
0.0625
 43
0.38
 44
0.18
 45
0.0
 46
0.0
 47
0.0
 48
0.0
140
2.6000000000000001
141
0.09
142
0.0
143
25.399999999999999
144
1.0
145
0.0
146
1.0
147
0.09
 71
     0
 72
     0
 73
     0
 74
     0
 75
     0
 76
     0
 77
     1
 78
     8
170
     0
171
     2
172
     0
173
     0
174
     0
175
     0
176
     0
177
     0
178
     0
  0
ENDTAB
  0
ENDSEC
  0
SECTION
  2
BLOCKS
  0
BLOCK
  8
0
  2
$MODEL_SPACE
 70
     0
 10
0.0
 20
0.0
 30
0.0
  3
$MODEL_SPACE
  1

  0
ENDBLK
  5
21
  8
0
  0
BLOCK
 67
     1
  8
0
  2
$PAPER_SPACE
 70
     0
 10
0.0
 20
0.0
 30
0.0
  3
$PAPER_SPACE
  1

  0
ENDBLK
  5
5B
 67
     1
  8
0
  0
ENDSEC
  0
SECTION
  2
ENTITIES
  0
TEXT
  5
1F01
  8
0
 62
     3
 10
0.0
 20
0.0
 30
0.0
 40
5.0
  1
CP165-08001L
  7
STANDARD1
  0
ARC
  5
75F8
  8
0
 10
59.600000923800003
 20
53.199999999999989
 30
0.0
 40
0.5000000000000036
 50
0.0
 51
180.0
  0
ARC
  5
75F9
  8
0
 10
59.600000923800003
 20
46.799999999999983
 30
0.0
 40
0.5000000000000036
 50
180.0
 51
0.0
  0
LINE
  5
75FA
  8
0
 10
59.100000813600012
 20
53.199999919199989
 30
0.0
 11
59.100000813600012
 21
46.800000080899991
 31
0.0
  0
LINE
  5
75FB
  8
0
 10
70.871854535699995
 20
57.749999873399993
 30
0.0
 11
70.200000918800015
 21
57.749999873399993
 31
0.0
  0
LINE
  5
75FC
  8
0
 10
70.200000918800015
 20
42.25000012669998
 30
0.0
 11
70.871854535699995
 21
42.25000012669998
 31
0.0
  0
LINE
  5
75FD
  8
0
 10
70.200000918800015
 20
57.749999873399993
 30
0.0
 11
70.000000923800002
 21
57.550000213099992
 31
0.0
  0
LINE
  5
75FE
  8
0
 10
70.000000923800002
 20
42.449999787000003
 30
0.0
 11
70.200000918800015
 21
42.25000012669998
 31
0.0
  0
LINE
  5
75FF
  8
0
 10
70.871854535699995
 20
42.25000012669998
 30
0.0
 11
73.913457032300016
 21
43.122165556999988
 31
0.0
  0
LINE
  5
7600
  8
0
 10
73.913457032300016
 20
56.87783444299999
 30
0.0
 11
70.871854535699995
 21
57.749999873399993
 31
0.0
  0
ARC
  5
7601
  8
0
 10
73.500000923800002
 20
55.435941996099977
 30
0.0
 40
1.500000000000006
 50
0.0
 51
74.000000000000114
  0
ARC
  5
7602
  8
0
 10
73.500000923800002
 20
44.564058003999982
 30
0.0
 40
1.5
 50
285.99999999999989
 51
0.0
  0
POLYLINE
  5
7603
  8
0
 66
     1
 10
0.0
 20
0.0
 30
0.0
 70
   128
  0
VERTEX
  5
7909
  8
0
 10
70.000000923800002
 20
55.712701473399989
 30
0.0
  0
VERTEX
  5
790A
  8
0
 10
69.978037052399984
 20
55.707685835699969
 30
0.0
  0
VERTEX
  5
790B
  8
0
 10
69.900000926399997
 20
55.700000096199993
 30
0.0
  0
SEQEND
  5
790C
  8
0
  0
POLYLINE
  5
7604
  8
0
 66
     1
 10
0.0
 20
0.0
 30
0.0
 70
   128
  0
VERTEX
  5
790D
  8
0
 10
69.900000926399997
 20
44.29999990389998
 30
0.0
  0
VERTEX
  5
790E
  8
0
 10
69.978037052399984
 20
44.292314164399983
 30
0.0
  0
VERTEX
  5
790F
  8
0
 10
70.000000923800002
 20
44.287298526699999
 30
0.0
  0
SEQEND
  5
7910
  8
0
  0
LINE
  5
7605
  8
0
 10
69.000000876300007
 20
43.999999947899987
 30
0.0
 11
69.300000948800005
 21
44.29999990389998
 31
0.0
  0
LINE
  5
7606
  8
0
 10
69.300000948800005
 20
55.700000096199993
 30
0.0
 11
69.000000876300007
 21
56.000000052200001
 31
0.0
  0
LINE
  5
7607
  8
0
 10
69.000000876300007
 20
56.000000052200001
 30
0.0
 11
66.000000733900009
 21
56.000000052200001
 31
0.0
  0
LINE
  5
7608
  8
0
 10
66.000000733900009
 20
43.999999947899987
 30
0.0
 11
69.000000876300007
 21
43.999999947899987
 31
0.0
  0
LINE
  5
7609
  8
0
 10
66.000000733900009
 20
56.000000052200001
 30
0.0
 11
65.000001035600008
 21
55.422649905100002
 31
0.0
  0
LINE
  5
760A
  8
0
 10
65.000001035600008
 20
44.577350094999979
 30
0.0
 11
66.000000733900009
 21
43.999999947899987
 31
0.0
  0
LINE
  5
760B
  8
0
 10
69.900000926399997
 20
55.700000096199993
 30
0.0
 11
69.300000948800005
 21
55.700000096199993
 31
0.0
  0
LINE
  5
760C
  8
0
 10
69.300000948800005
 20
44.29999990389998
 30
0.0
 11
69.900000926399997
 21
44.29999990389998
 31
0.0
  0
LINE
  5
760D
  8
0
 10
75.000000812100012
 20
43.999999947899987
 30
0.0
 11
83.275001190600008
 21
43.999999947899987
 31
0.0
  0
LINE
  5
760E
  8
0
 10
83.275001190600008
 20
58.500000461999988
 30
0.0
 11
82.775001108600009
 21
58.999999612599993
 31
0.0
  0
LINE
  5
760F
  8
0
 10
82.775001108600009
 20
58.999999612599993
 30
0.0
 11
75.300000768100006
 21
58.999999612599993
 31
0.0
  0
LINE
  5
7610
  8
0
 10
75.300000768100006
 20
58.999999612599993
 30
0.0
 11
75.000000812100012
 21
58.700000122200002
 31
0.0
  0
LINE
  5
7611
  8
0
 10
59.000000983400007
 20
54.00000018999998
 30
0.0
 11
54.200001686800007
 21
54.00000018999998
 31
0.0
  0
LINE
  5
7612
  8
0
 10
54.200001686800007
 20
45.999999810099993
 30
0.0
 11
59.000000983400007
 21
45.999999810099993
 31
0.0
  0
LINE
  5
7613
  8
0
 10
54.200001686800007
 20
54.00000018999998
 30
0.0
 11
53.0
 21
52.799999900199992
 31
0.0
  0
LINE
  5
7614
  8
0
 10
53.0
 20
47.200000099899988
 30
0.0
 11
54.200001686800007
 21
45.999999810099993
 31
0.0
  0
LINE
  5
7615
  8
0
 10
65.000001035600008
 20
54.00000018999998
 30
0.0
 11
60.100000977500009
 21
54.00000018999998
 31
0.0
  0
LINE
  5
7616
  8
0
 10
60.100000977500009
 20
45.999999810099993
 30
0.0
 11
65.000001035600008
 21
45.999999810099993
 31
0.0
  0
LINE
  5
7617
  8
0
 10
59.100000813600012
 20
52.700000070099989
 30
0.0
 11
59.000000983400007
 21
52.700000070099989
 31
0.0
  0
LINE
  5
7618
  8
0
 10
59.000000983400007
 20
47.299999929999977
 30
0.0
 11
59.100000813600012
 21
47.299999929999977
 31
0.0
  0
LINE
  5
7619
  8
0
 10
70.871854535699995
 20
57.749999873399993
 30
0.0
 11
70.871854535699995
 21
42.25000012669998
 31
0.0
  0
LINE
  5
761A
  8
0
 10
70.200000918800015
 20
57.749999873399993
 30
0.0
 11
70.200000918800015
 21
42.25000012669998
 31
0.0
  0
LINE
  5
761D
  8
0
 10
70.000000923800002
 20
42.449999787000003
 30
0.0
 11
70.000000923800002
 21
57.550000213099992
 31
0.0
  0
LINE
  5
761E
  8
0
 10
69.000000876300007
 20
56.000000052200001
 30
0.0
 11
69.000000876300007
 21
43.999999947899987
 31
0.0
  0
LINE
  5
761F
  8
0
 10
69.300000948800005
 20
55.700000096199993
 30
0.0
 11
69.300000948800005
 21
44.29999990389998
 31
0.0
  0
LINE
  5
7620
  8
0
 10
66.000000733900009
 20
56.000000052200001
 30
0.0
 11
66.000000733900009
 21
43.999999947899987
 31
0.0
  0
LINE
  5
7623
  8
0
 10
65.000001035600008
 20
44.577350094999979
 30
0.0
 11
65.000001035600008
 21
55.422649905100002
 31
0.0
  0
LINE
  5
7624
  8
0
 10
81.962714597600012
 20
56.70820381499999
 30
0.0
 11
81.962714597600012
 21
50.0
 31
0.0
  0
POLYLINE
  5
7625
  8
0
 10
80.086325789300062
 20
44.667317748074666
 30
0.0
 66
     1
 70
     8
  0
VERTEX
  8
0
  5
7919
 10
80.0863
 20
44.6673
 30
0.000000
  70
    32
  0
VERTEX
  8
0
  5
791A
 10
80.1126
 20
44.6910
 30
0.000000
  70
    32
  0
VERTEX
  8
0
  5
791B
 10
80.1388
 20
44.7151
 30
0.000000
  70
    32
  0
VERTEX
  8
0
  5
791C
 10
80.1648
 20
44.7396
 30
0.000000
  70
    32
  0
VERTEX
  8
0
  5
791D
 10
80.1907
 20
44.7645
 30
0.000000
  70
    32
  0
VERTEX
  8
0
  5
791E
 10
80.2165
 20
44.7897
 30
0.000000
  70
    32
  0
VERTEX
  8
0
  5
791F
 10
80.2422
 20
44.8154
 30
0.000000
  70
    32
  0
VERTEX
  8
0
  5
7920
 10
80.2677
 20
44.8414
 30
0.000000
  70
    32
  0
VERTEX
  8
0
  5
7921
 10
80.2931
 20
44.8678
 30
0.000000
  70
    32
  0
VERTEX
  8
0
  5
7922
 10
80.3184
 20
44.8946
 30
0.000000
  70
    32
  0
VERTEX
  8
0
  5
7923
 10
80.3435
 20
44.9217
 30
0.000000
  70
    32
  0
VERTEX
  8
0
  5
7924
 10
80.3685
 20
44.9492
 30
0.000000
  70
    32
  0
VERTEX
  8
0
  5
7925
 10
80.3934
 20
44.9771
 30
0.000000
  70
    32
  0
VERTEX
  8
0
  5
7926
 10
80.4181
 20
45.0054
 30
0.000000
  70
    32
  0
VERTEX
  8
0
  5
7927
 10
80.4427
 20
45.0340
 30
0.000000
  70
    32
  0
VERTEX
  8
0
  5
7928
 10
80.4672
 20
45.0629
 30
0.000000
  70
    32
  0
VERTEX
  8
0
  5
7929
 10
80.4915
 20
45.0923
 30
0.000000
  70
    32
  0
VERTEX
  8
0
  5
792A
 10
80.5156
 20
45.1220
 30
0.000000
  70
    32
  0
VERTEX
  8
0
  5
792B
 10
80.5396
 20
45.1520
 30
0.000000
  70
    32
  0
VERTEX
  8
0
  5
792C
 10
80.5635
 20
45.1825
 30
0.000000
  70
    32
  0
VERTEX
  8
0
  5
792D
 10
80.5872
 20
45.2132
 30
0.000000
  70
    32
  0
VERTEX
  8
0
  5
792E
 10
80.6108
 20
45.2443
 30
0.000000
  70
    32
  0
VERTEX
  8
0
  5
792F
 10
80.6342
 20
45.2758
 30
0.000000
  70
    32
  0
VERTEX
  8
0
  5
7930
 10
80.6574
 20
45.3076
 30
0.000000
  70
    32
  0
VERTEX
  8
0
  5
7931
 10
80.6805
 20
45.3397
 30
0.000000
  70
    32
  0
VERTEX
  8
0
  5
7932
 10
80.7034
 20
45.3722
 30
0.000000
  70
    32
  0
VERTEX
  8
0
  5
7933
 10
80.7262
 20
45.4051
 30
0.000000
  70
    32
  0
VERTEX
  8
0
  5
7934
 10
80.7488
 20
45.4382
 30
0.000000
  70
    32
  0
VERTEX
  8
0
  5
7935
 10
80.7713
 20
45.4717
 30
0.000000
  70
    32
  0
VERTEX
  8
0
  5
7936
 10
80.7935
 20
45.5056
 30
0.000000
  70
    32
  0
VERTEX
  8
0
  5
7937
 10
80.8156
 20
45.5397
 30
0.000000
  70
    32
  0
VERTEX
  8
0
  5
7938
 10
80.8376
 20
45.5742
 30
0.000000
  70
    32
  0
VERTEX
  8
0
  5
7939
 10
80.8593
 20
45.6090
 30
0.000000
  70
    32
  0
VERTEX
  8
0
  5
793A
 10
80.8809
 20
45.6441
 30
0.000000
  70
    32
  0
VERTEX
  8
0
  5
793B
 10
80.9024
 20
45.6796
 30
0.000000
  70
    32
  0
VERTEX
  8
0
  5
793C
 10
80.9236
 20
45.7153
 30
0.000000
  70
    32
  0
VERTEX
  8
0
  5
793D
 10
80.9447
 20
45.7514
 30
0.000000
  70
    32
  0
VERTEX
  8
0
  5
793E
 10
80.9656
 20
45.7878
 30
0.000000
  70
    32
  0
VERTEX
  8
0
  5
793F
 10
80.9863
 20
45.8245
 30
0.000000
  70
    32
  0
VERTEX
  8
0
  5
7940
 10
81.0068
 20
45.8615
 30
0.000000
  70
    32
  0
VERTEX
  8
0
  5
7941
 10
81.0271
 20
45.8988
 30
0.000000
  70
    32
  0
VERTEX
  8
0
  5
7942
 10
81.0473
 20
45.9364
 30
0.000000
  70
    32
  0
VERTEX
  8
0
  5
7943
 10
81.0673
 20
45.9743
 30
0.000000
  70
    32
  0
VERTEX
  8
0
  5
7944
 10
81.0870
 20
46.0125
 30
0.000000
  70
    32
  0
VERTEX
  8
0
  5
7945
 10
81.1066
 20
46.0510
 30
0.000000
  70
    32
  0
VERTEX
  8
0
  5
7946
 10
81.1260
 20
46.0898
 30
0.000000
  70
    32
  0
VERTEX
  8
0
  5
7947
 10
81.1453
 20
46.1288
 30
0.000000
  70
    32
  0
VERTEX
  8
0
  5
7948
 10
81.1643
 20
46.1682
 30
0.000000
  70
    32
  0
VERTEX
  8
0
  5
7949
 10
81.1831
 20
46.2078
 30
0.000000
  70
    32
  0
VERTEX
  8
0
  5
794A
 10
81.2017
 20
46.2477
 30
0.000000
  70
    32
  0
VERTEX
  8
0
  5
794B
 10
81.2201
 20
46.2879
 30
0.000000
  70
    32
  0
VERTEX
  8
0
  5
794C
 10
81.2384
 20
46.3283
 30
0.000000
  70
    32
  0
VERTEX
  8
0
  5
794D
 10
81.2564
 20
46.3691
 30
0.000000
  70
    32
  0
VERTEX
  8
0
  5
794E
 10
81.2742
 20
46.4100
 30
0.000000
  70
    32
  0
VERTEX
  8
0
  5
794F
 10
81.2919
 20
46.4513
 30
0.000000
  70
    32
  0
VERTEX
  8
0
  5
7950
 10
81.3093
 20
46.4928
 30
0.000000
  70
    32
  0
VERTEX
  8
0
  5
7951
 10
81.3265
 20
46.5345
 30
0.000000
  70
    32
  0
VERTEX
  8
0
  5
7952
 10
81.3435
 20
46.5766
 30
0.000000
  70
    32
  0
VERTEX
  8
0
  5
7953
 10
81.3603
 20
46.6188
 30
0.000000
  70
    32
  0
VERTEX
  8
0
  5
7954
 10
81.3769
 20
46.6613
 30
0.000000
  70
    32
  0
VERTEX
  8
0
  5
7955
 10
81.3933
 20
46.7041
 30
0.000000
  70
    32
  0
VERTEX
  8
0
  5
7956
 10
81.4094
 20
46.7471
 30
0.000000
  70
    32
  0
VERTEX
  8
0
  5
7957
 10
81.4254
 20
46.7903
 30
0.000000
  70
    32
  0
VERTEX
  8
0
  5
7958
 10
81.4411
 20
46.8338
 30
0.000000
  70
    32
  0
VERTEX
  8
0
  5
7959
 10
81.4567
 20
46.8775
 30
0.000000
  70
    32
  0
VERTEX
  8
0
  5
795A
 10
81.4720
 20
46.9214
 30
0.000000
  70
    32
  0
VERTEX
  8
0
  5
795B
 10
81.4871
 20
46.9656
 30
0.000000
  70
    32
  0
VERTEX
  8
0
  5
795C
 10
81.5019
 20
47.0100
 30
0.000000
  70
    32
  0
VERTEX
  8
0
  5
795D
 10
81.5166
 20
47.0546
 30
0.000000
  70
    32
  0
VERTEX
  8
0
  5
795E
 10
81.5310
 20
47.0994
 30
0.000000
  70
    32
  0
VERTEX
  8
0
  5
795F
 10
81.5452
 20
47.1444
 30
0.000000
  70
    32
  0
VERTEX
  8
0
  5
7960
 10
81.5592
 20
47.1896
 30
0.000000
  70
    32
  0
VERTEX
  8
0
  5
7961
 10
81.5730
 20
47.2351
 30
0.000000
  70
    32
  0
VERTEX
  8
0
  5
7962
 10
81.5865
 20
47.2807
 30
0.000000
  70
    32
  0
VERTEX
  8
0
  5
7963
 10
81.5998
 20
47.3265
 30
0.000000
  70
    32
  0
VERTEX
  8
0
  5
7964
 10
81.6129
 20
47.3726
 30
0.000000
  70
    32
  0
VERTEX
  8
0
  5
7965
 10
81.6258
 20
47.4188
 30
0.000000
  70
    32
  0
VERTEX
  8
0
  5
7966
 10
81.6384
 20
47.4652
 30
0.000000
  70
    32
  0
VERTEX
  8
0
  5
7967
 10
81.6508
 20
47.5118
 30
0.000000
  70
    32
  0
VERTEX
  8
0
  5
7968
 10
81.6630
 20
47.5586
 30
0.000000
  70
    32
  0
VERTEX
  8
0
  5
7969
 10
81.6749
 20
47.6056
 30
0.000000
  70
    32
  0
VERTEX
  8
0
  5
796A
 10
81.6866
 20
47.6527
 30
0.000000
  70
    32
  0
VERTEX
  8
0
  5
796B
 10
81.6981
 20
47.7000
 30
0.000000
  70
    32
  0
VERTEX
  8
0
  5
796C
 10
81.7093
 20
47.7475
 30
0.000000
  70
    32
  0
VERTEX
  8
0
  5
796D
 10
81.7203
 20
47.7951
 30
0.000000
  70
    32
  0
VERTEX
  8
0
  5
796E
 10
81.7311
 20
47.8429
 30
0.000000
  70
    32
  0
VERTEX
  8
0
  5
796F
 10
81.7416
 20
47.8909
 30
0.000000
  70
    32
  0
VERTEX
  8
0
  5
7970
 10
81.7519
 20
47.9390
 30
0.000000
  70
    32
  0
VERTEX
  8
0
  5
7971
 10
81.7620
 20
47.9873
 30
0.000000
  70
    32
  0
VERTEX
  8
0
  5
7972
 10
81.7718
 20
48.0357
 30
0.000000
  70
    32
  0
VERTEX
  8
0
  5
7973
 10
81.7814
 20
48.0842
 30
0.000000
  70
    32
  0
VERTEX
  8
0
  5
7974
 10
81.7907
 20
48.1329
 30
0.000000
  70
    32
  0
VERTEX
  8
0
  5
7975
 10
81.7998
 20
48.1818
 30
0.000000
  70
    32
  0
VERTEX
  8
0
  5
7976
 10
81.8087
 20
48.2307
 30
0.000000
  70
    32
  0
VERTEX
  8
0
  5
7977
 10
81.8173
 20
48.2798
 30
0.000000
  70
    32
  0
VERTEX
  8
0
  5
7978
 10
81.8257
 20
48.3291
 30
0.000000
  70
    32
  0
VERTEX
  8
0
  5
7979
 10
81.8338
 20
48.3784
 30
0.000000
  70
    32
  0
VERTEX
  8
0
  5
797A
 10
81.8417
 20
48.4279
 30
0.000000
  70
    32
  0
VERTEX
  8
0
  5
797B
 10
81.8493
 20
48.4774
 30
0.000000
  70
    32
  0
VERTEX
  8
0
  5
797C
 10
81.8567
 20
48.5271
 30
0.000000
  70
    32
  0
VERTEX
  8
0
  5
797D
 10
81.8639
 20
48.5769
 30
0.000000
  70
    32
  0
VERTEX
  8
0
  5
797E
 10
81.8708
 20
48.6268
 30
0.000000
  70
    32
  0
VERTEX
  8
0
  5
797F
 10
81.8774
 20
48.6768
 30
0.000000
  70
    32
  0
VERTEX
  8
0
  5
7980
 10
81.8838
 20
48.7269
 30
0.000000
  70
    32
  0
VERTEX
  8
0
  5
7981
 10
81.8900
 20
48.7771
 30
0.000000
  70
    32
  0
VERTEX
  8
0
  5
7982
 10
81.8959
 20
48.8274
 30
0.000000
  70
    32
  0
VERTEX
  8
0
  5
7983
 10
81.9016
 20
48.8778
 30
0.000000
  70
    32
  0
VERTEX
  8
0
  5
7984
 10
81.9070
 20
48.9282
 30
0.000000
  70
    32
  0
VERTEX
  8
0
  5
7985
 10
81.9122
 20
48.9787
 30
0.000000
  70
    32
  0
VERTEX
  8
0
  5
7986
 10
81.9171
 20
49.0293
 30
0.000000
  70
    32
  0
VERTEX
  8
0
  5
7987
 10
81.9218
 20
49.0800
 30
0.000000
  70
    32
  0
VERTEX
  8
0
  5
7988
 10
81.9262
 20
49.1307
 30
0.000000
  70
    32
  0
VERTEX
  8
0
  5
7989
 10
81.9303
 20
49.1816
 30
0.000000
  70
    32
  0
VERTEX
  8
0
  5
798A
 10
81.9342
 20
49.2324
 30
0.000000
  70
    32
  0
VERTEX
  8
0
  5
798B
 10
81.9379
 20
49.2833
 30
0.000000
  70
    32
  0
VERTEX
  8
0
  5
798C
 10
81.9413
 20
49.3343
 30
0.000000
  70
    32
  0
VERTEX
  8
0
  5
798D
 10
81.9445
 20
49.3853
 30
0.000000
  70
    32
  0
VERTEX
  8
0
  5
798E
 10
81.9474
 20
49.4364
 30
0.000000
  70
    32
  0
VERTEX
  8
0
  5
798F
 10
81.9501
 20
49.4875
 30
0.000000
  70
    32
  0
VERTEX
  8
0
  5
7990
 10
81.9525
 20
49.5386
 30
0.000000
  70
    32
  0
VERTEX
  8
0
  5
7991
 10
81.9546
 20
49.5898
 30
0.000000
  70
    32
  0
VERTEX
  8
0
  5
7992
 10
81.9565
 20
49.6410
 30
0.000000
  70
    32
  0
VERTEX
  8
0
  5
7993
 10
81.9582
 20
49.6923
 30
0.000000
  70
    32
  0
VERTEX
  8
0
  5
7994
 10
81.9595
 20
49.7435
 30
0.000000
  70
    32
  0
VERTEX
  8
0
  5
7995
 10
81.9607
 20
49.7948
 30
0.000000
  70
    32
  0
VERTEX
  8
0
  5
7996
 10
81.9616
 20
49.8461
 30
0.000000
  70
    32
  0
VERTEX
  8
0
  5
7997
 10
81.9622
 20
49.8974
 30
0.000000
  70
    32
  0
VERTEX
  8
0
  5
7998
 10
81.9626
 20
49.9487
 30
0.000000
  70
    32
  0
VERTEX
  8
0
  5
7999
 10
81.9627
 20
50.0000
 30
0.000000
  70
    32
  0
SEQEND
  8
0
  5
799A
  0
POLYLINE
  5
7626
  8
0
 10
81.962714164199937
 20
56.708203932499472
 30
0.0
 66
     1
 70
     8
  0
VERTEX
  8
0
  5
799B
 10
81.9627
 20
56.7082
 30
0.000000
  70
    32
  0
VERTEX
  8
0
  5
799C
 10
81.9500
 20
56.7278
 30
0.000000
  70
    32
  0
VERTEX
  8
0
  5
799D
 10
81.9373
 20
56.7474
 30
0.000000
  70
    32
  0
VERTEX
  8
0
  5
799E
 10
81.9245
 20
56.7668
 30
0.000000
  70
    32
  0
VERTEX
  8
0
  5
799F
 10
81.9117
 20
56.7862
 30
0.000000
  70
    32
  0
VERTEX
  8
0
  5
79A0
 10
81.8988
 20
56.8056
 30
0.000000
  70
    32
  0
VERTEX
  8
0
  5
79A1
 10
81.8859
 20
56.8248
 30
0.000000
  70
    32
  0
VERTEX
  8
0
  5
79A2
 10
81.8730
 20
56.8440
 30
0.000000
  70
    32
  0
VERTEX
  8
0
  5
79A3
 10
81.8601
 20
56.8631
 30
0.000000
  70
    32
  0
VERTEX
  8
0
  5
79A4
 10
81.8471
 20
56.8821
 30
0.000000
  70
    32
  0
VERTEX
  8
0
  5
79A5
 10
81.8340
 20
56.9011
 30
0.000000
  70
    32
  0
VERTEX
  8
0
  5
79A6
 10
81.8210
 20
56.9200
 30
0.000000
  70
    32
  0
VERTEX
  8
0
  5
79A7
 10
81.8079
 20
56.9388
 30
0.000000
  70
    32
  0
VERTEX
  8
0
  5
79A8
 10
81.7947
 20
56.9575
 30
0.000000
  70
    32
  0
VERTEX
  8
0
  5
79A9
 10
81.7816
 20
56.9762
 30
0.000000
  70
    32
  0
VERTEX
  8
0
  5
79AA
 10
81.7683
 20
56.9947
 30
0.000000
  70
    32
  0
VERTEX
  8
0
  5
79AB
 10
81.7551
 20
57.0133
 30
0.000000
  70
    32
  0
VERTEX
  8
0
  5
79AC
 10
81.7418
 20
57.0317
 30
0.000000
  70
    32
  0
VERTEX
  8
0
  5
79AD
 10
81.7285
 20
57.0501
 30
0.000000
  70
    32
  0
VERTEX
  8
0
  5
79AE
 10
81.7152
 20
57.0683
 30
0.000000
  70
    32
  0
VERTEX
  8
0
  5
79AF
 10
81.7018
 20
57.0865
 30
0.000000
  70
    32
  0
VERTEX
  8
0
  5
79B0
 10
81.6884
 20
57.1047
 30
0.000000
  70
    32
  0
VERTEX
  8
0
  5
79B1
 10
81.6749
 20
57.1227
 30
0.000000
  70
    32
  0
VERTEX
  8
0
  5
79B2
 10
81.6614
 20
57.1407
 30
0.000000
  70
    32
  0
VERTEX
  8
0
  5
79B3
 10
81.6479
 20
57.1586
 30
0.000000
  70
    32
  0
VERTEX
  8
0
  5
79B4
 10
81.6344
 20
57.1764
 30
0.000000
  70
    32
  0
VERTEX
  8
0
  5
79B5
 10
81.6208
 20
57.1942
 30
0.000000
  70
    32
  0
VERTEX
  8
0
  5
79B6
 10
81.6072
 20
57.2119
 30
0.000000
  70
    32
  0
VERTEX
  8
0
  5
79B7
 10
81.5935
 20
57.2295
 30
0.000000
  70
    32
  0
VERTEX
  8
0
  5
79B8
 10
81.5798
 20
57.2470
 30
0.000000
  70
    32
  0
VERTEX
  8
0
  5
79B9
 10
81.5661
 20
57.2644
 30
0.000000
  70
    32
  0
VERTEX
  8
0
  5
79BA
 10
81.5523
 20
57.2818
 30
0.000000
  70
    32
  0
VERTEX
  8
0
  5
79BB
 10
81.5386
 20
57.2991
 30
0.000000
  70
    32
  0
VERTEX
  8
0
  5
79BC
 10
81.5247
 20
57.3163
 30
0.000000
  70
    32
  0
VERTEX
  8
0
  5
79BD
 10
81.5109
 20
57.3334
 30
0.000000
  70
    32
  0
VERTEX
  8
0
  5
79BE
 10
81.4970
 20
57.3504
 30
0.000000
  70
    32
  0
VERTEX
  8
0
  5
79BF
 10
81.4831
 20
57.3674
 30
0.000000
  70
    32
  0
VERTEX
  8
0
  5
79C0
 10
81.4691
 20
57.3843
 30
0.000000
  70
    32
  0
VERTEX
  8
0
  5
79C1
 10
81.4552
 20
57.4011
 30
0.000000
  70
    32
  0
VERTEX
  8
0
  5
79C2
 10
81.4412
 20
57.4178
 30
0.000000
  70
    32
  0
VERTEX
  8
0
  5
79C3
 10
81.4271
 20
57.4345
 30
0.000000
  70
    32
  0
VERTEX
  8
0
  5
79C4
 10
81.4130
 20
57.4511
 30
0.000000
  70
    32
  0
VERTEX
  8
0
  5
79C5
 10
81.3989
 20
57.4676
 30
0.000000
  70
    32
  0
VERTEX
  8
0
  5
79C6
 10
81.3848
 20
57.4840
 30
0.000000
  70
    32
  0
VERTEX
  8
0
  5
79C7
 10
81.3706
 20
57.5003
 30
0.000000
  70
    32
  0
VERTEX
  8
0
  5
79C8
 10
81.3564
 20
57.5165
 30
0.000000
  70
    32
  0
VERTEX
  8
0
  5
79C9
 10
81.3422
 20
57.5327
 30
0.000000
  70
    32
  0
VERTEX
  8
0
  5
79CA
 10
81.3280
 20
57.5488
 30
0.000000
  70
    32
  0
VERTEX
  8
0
  5
79CB
 10
81.3137
 20
57.5648
 30
0.000000
  70
    32
  0
VERTEX
  8
0
  5
79CC
 10
81.2993
 20
57.5807
 30
0.000000
  70
    32
  0
VERTEX
  8
0
  5
79CD
 10
81.2850
 20
57.5966
 30
0.000000
  70
    32
  0
VERTEX
  8
0
  5
79CE
 10
81.2706
 20
57.6124
 30
0.000000
  70
    32
  0
VERTEX
  8
0
  5
79CF
 10
81.2562
 20
57.6280
 30
0.000000
  70
    32
  0
VERTEX
  8
0
  5
79D0
 10
81.2418
 20
57.6436
 30
0.000000
  70
    32
  0
VERTEX
  8
0
  5
79D1
 10
81.2273
 20
57.6592
 30
0.000000
  70
    32
  0
VERTEX
  8
0
  5
79D2
 10
81.2128
 20
57.6746
 30
0.000000
  70
    32
  0
VERTEX
  8
0
  5
79D3
 10
81.1983
 20
57.6900
 30
0.000000
  70
    32
  0
VERTEX
  8
0
  5
79D4
 10
81.1837
 20
57.7052
 30
0.000000
  70
    32
  0
VERTEX
  8
0
  5
79D5
 10
81.1691
 20
57.7204
 30
0.000000
  70
    32
  0
VERTEX
  8
0
  5
79D6
 10
81.1545
 20
57.7355
 30
0.000000
  70
    32
  0
VERTEX
  8
0
  5
79D7
 10
81.1399
 20
57.7506
 30
0.000000
  70
    32
  0
VERTEX
  8
0
  5
79D8
 10
81.1252
 20
57.7655
 30
0.000000
  70
    32
  0
VERTEX
  8
0
  5
79D9
 10
81.1105
 20
57.7803
 30
0.000000
  70
    32
  0
VERTEX
  8
0
  5
79DA
 10
81.0958
 20
57.7951
 30
0.000000
  70
    32
  0
VERTEX
  8
0
  5
79DB
 10
81.0810
 20
57.8098
 30
0.000000
  70
    32
  0
VERTEX
  8
0
  5
79DC
 10
81.0663
 20
57.8244
 30
0.000000
  70
    32
  0
VERTEX
  8
0
  5
79DD
 10
81.0515
 20
57.8389
 30
0.000000
  70
    32
  0
VERTEX
  8
0
  5
79DE
 10
81.0366
 20
57.8534
 30
0.000000
  70
    32
  0
VERTEX
  8
0
  5
79DF
 10
81.0218
 20
57.8677
 30
0.000000
  70
    32
  0
VERTEX
  8
0
  5
79E0
 10
81.0069
 20
57.8820
 30
0.000000
  70
    32
  0
VERTEX
  8
0
  5
79E1
 10
80.9919
 20
57.8962
 30
0.000000
  70
    32
  0
VERTEX
  8
0
  5
79E2
 10
80.9770
 20
57.9103
 30
0.000000
  70
    32
  0
VERTEX
  8
0
  5
79E3
 10
80.9620
 20
57.9243
 30
0.000000
  70
    32
  0
VERTEX
  8
0
  5
79E4
 10
80.9470
 20
57.9382
 30
0.000000
  70
    32
  0
VERTEX
  8
0
  5
79E5
 10
80.9320
 20
57.9521
 30
0.000000
  70
    32
  0
VERTEX
  8
0
  5
79E6
 10
80.9170
 20
57.9659
 30
0.000000
  70
    32
  0
VERTEX
  8
0
  5
79E7
 10
80.9019
 20
57.9795
 30
0.000000
  70
    32
  0
VERTEX
  8
0
  5
79E8
 10
80.8868
 20
57.9931
 30
0.000000
  70
    32
  0
VERTEX
  8
0
  5
79E9
 10
80.8717
 20
58.0066
 30
0.000000
  70
    32
  0
VERTEX
  8
0
  5
79EA
 10
80.8565
 20
58.0200
 30
0.000000
  70
    32
  0
VERTEX
  8
0
  5
79EB
 10
80.8413
 20
58.0334
 30
0.000000
  70
    32
  0
VERTEX
  8
0
  5
79EC
 10
80.8261
 20
58.0466
 30
0.000000
  70
    32
  0
VERTEX
  8
0
  5
79ED
 10
80.8109
 20
58.0598
 30
0.000000
  70
    32
  0
VERTEX
  8
0
  5
79EE
 10
80.7956
 20
58.0728
 30
0.000000
  70
    32
  0
VERTEX
  8
0
  5
79EF
 10
80.7804
 20
58.0858
 30
0.000000
  70
    32
  0
VERTEX
  8
0
  5
79F0
 10
80.7651
 20
58.0987
 30
0.000000
  70
    32
  0
VERTEX
  8
0
  5
79F1
 10
80.7497
 20
58.1115
 30
0.000000
  70
    32
  0
VERTEX
  8
0
  5
79F2
 10
80.7344
 20
58.1243
 30
0.000000
  70
    32
  0
VERTEX
  8
0
  5
79F3
 10
80.7190
 20
58.1369
 30
0.000000
  70
    32
  0
VERTEX
  8
0
  5
79F4
 10
80.7036
 20
58.1495
 30
0.000000
  70
    32
  0
VERTEX
  8
0
  5
79F5
 10
80.6882
 20
58.1619
 30
0.000000
  70
    32
  0
VERTEX
  8
0
  5
79F6
 10
80.6728
 20
58.1743
 30
0.000000
  70
    32
  0
VERTEX
  8
0
  5
79F7
 10
80.6573
 20
58.1866
 30
0.000000
  70
    32
  0
VERTEX
  8
0
  5
79F8
 10
80.6418
 20
58.1988
 30
0.000000
  70
    32
  0
VERTEX
  8
0
  5
79F9
 10
80.6263
 20
58.2109
 30
0.000000
  70
    32
  0
VERTEX
  8
0
  5
79FA
 10
80.6107
 20
58.2229
 30
0.000000
  70
    32
  0
VERTEX
  8
0
  5
79FB
 10
80.5952
 20
58.2349
 30
0.000000
  70
    32
  0
VERTEX
  8
0
  5
79FC
 10
80.5796
 20
58.2467
 30
0.000000
  70
    32
  0
VERTEX
  8
0
  5
79FD
 10
80.5640
 20
58.2585
 30
0.000000
  70
    32
  0
VERTEX
  8
0
  5
79FE
 10
80.5484
 20
58.2702
 30
0.000000
  70
    32
  0
VERTEX
  8
0
  5
79FF
 10
80.5327
 20
58.2817
 30
0.000000
  70
    32
  0
VERTEX
  8
0
  5
7A00
 10
80.5171
 20
58.2932
 30
0.000000
  70
    32
  0
VERTEX
  8
0
  5
7A01
 10
80.5014
 20
58.3046
 30
0.000000
  70
    32
  0
VERTEX
  8
0
  5
7A02
 10
80.4856
 20
58.3160
 30
0.000000
  70
    32
  0
VERTEX
  8
0
  5
7A03
 10
80.4699
 20
58.3272
 30
0.000000
  70
    32
  0
VERTEX
  8
0
  5
7A04
 10
80.4542
 20
58.3383
 30
0.000000
  70
    32
  0
VERTEX
  8
0
  5
7A05
 10
80.4384
 20
58.3494
 30
0.000000
  70
    32
  0
VERTEX
  8
0
  5
7A06
 10
80.4226
 20
58.3603
 30
0.000000
  70
    32
  0
VERTEX
  8
0
  5
7A07
 10
80.4068
 20
58.3712
 30
0.000000
  70
    32
  0
VERTEX
  8
0
  5
7A08
 10
80.3909
 20
58.3820
 30
0.000000
  70
    32
  0
VERTEX
  8
0
  5
7A09
 10
80.3751
 20
58.3927
 30
0.000000
  70
    32
  0
VERTEX
  8
0
  5
7A0A
 10
80.3592
 20
58.4033
 30
0.000000
  70
    32
  0
VERTEX
  8
0
  5
7A0B
 10
80.3433
 20
58.4138
 30
0.000000
  70
    32
  0
VERTEX
  8
0
  5
7A0C
 10
80.3274
 20
58.4242
 30
0.000000
  70
    32
  0
VERTEX
  8
0
  5
7A0D
 10
80.3114
 20
58.4345
 30
0.000000
  70
    32
  0
VERTEX
  8
0
  5
7A0E
 10
80.2955
 20
58.4448
 30
0.000000
  70
    32
  0
VERTEX
  8
0
  5
7A0F
 10
80.2795
 20
58.4549
 30
0.000000
  70
    32
  0
VERTEX
  8
0
  5
7A10
 10
80.2635
 20
58.4650
 30
0.000000
  70
    32
  0
VERTEX
  8
0
  5
7A11
 10
80.2475
 20
58.4749
 30
0.000000
  70
    32
  0
VERTEX
  8
0
  5
7A12
 10
80.2314
 20
58.4848
 30
0.000000
  70
    32
  0
VERTEX
  8
0
  5
7A13
 10
80.2154
 20
58.4946
 30
0.000000
  70
    32
  0
VERTEX
  8
0
  5
7A14
 10
80.1993
 20
58.5043
 30
0.000000
  70
    32
  0
VERTEX
  8
0
  5
7A15
 10
80.1832
 20
58.5139
 30
0.000000
  70
    32
  0
VERTEX
  8
0
  5
7A16
 10
80.1671
 20
58.5234
 30
0.000000
  70
    32
  0
VERTEX
  8
0
  5
7A17
 10
80.1510
 20
58.5328
 30
0.000000
  70
    32
  0
VERTEX
  8
0
  5
7A18
 10
80.1349
 20
58.5421
 30
0.000000
  70
    32
  0
VERTEX
  8
0
  5
7A19
 10
80.1187
 20
58.5514
 30
0.000000
  70
    32
  0
VERTEX
  8
0
  5
7A1A
 10
80.1025
 20
58.5605
 30
0.000000
  70
    32
  0
VERTEX
  8
0
  5
7A1B
 10
80.0863
 20
58.5696
 30
0.000000
  70
    32
  0
SEQEND
  8
0
  5
7A1C
  0
POLYLINE
  5
7628
  8
0
 10
75.962714164100007
 20
50.0
 30
0.0
 66
     1
 70
     8
  0
VERTEX
  8
0
  5
7A1D
 10
75.9627
 20
50.0000
 30
0.000000
  70
    32
  0
VERTEX
  8
0
  5
7A1E
 10
75.9628
 20
49.9487
 30
0.000000
  70
    32
  0
VERTEX
  8
0
  5
7A1F
 10
75.9632
 20
49.8974
 30
0.000000
  70
    32
  0
VERTEX
  8
0
  5
7A20
 10
75.9639
 20
49.8461
 30
0.000000
  70
    32
  0
VERTEX
  8
0
  5
7A21
 10
75.9647
 20
49.7948
 30
0.000000
  70
    32
  0
VERTEX
  8
0
  5
7A22
 10
75.9659
 20
49.7435
 30
0.000000
  70
    32
  0
VERTEX
  8
0
  5
7A23
 10
75.9673
 20
49.6923
 30
0.000000
  70
    32
  0
VERTEX
  8
0
  5
7A24
 10
75.9689
 20
49.6410
 30
0.000000
  70
    32
  0
VERTEX
  8
0
  5
7A25
 10
75.9708
 20
49.5898
 30
0.000000
  70
    32
  0
VERTEX
  8
0
  5
7A26
 10
75.9730
 20
49.5386
 30
0.000000
  70
    32
  0
VERTEX
  8
0
  5
7A27
 10
75.9754
 20
49.4875
 30
0.000000
  70
    32
  0
VERTEX
  8
0
  5
7A28
 10
75.9780
 20
49.4364
 30
0.000000
  70
    32
  0
VERTEX
  8
0
  5
7A29
 10
75.9809
 20
49.3853
 30
0.000000
  70
    32
  0
VERTEX
  8
0
  5
7A2A
 10
75.9841
 20
49.3343
 30
0.000000
  70
    32
  0
VERTEX
  8
0
  5
7A2B
 10
75.9875
 20
49.2833
 30
0.000000
  70
    32
  0
VERTEX
  8
0
  5
7A2C
 10
75.9912
 20
49.2324
 30
0.000000
  70
    32
  0
VERTEX
  8
0
  5
7A2D
 10
75.9951
 20
49.1816
 30
0.000000
  70
    32
  0
VERTEX
  8
0
  5
7A2E
 10
75.9993
 20
49.1307
 30
0.000000
  70
    32
  0
VERTEX
  8
0
  5
7A2F
 10
76.0037
 20
49.0800
 30
0.000000
  70
    32
  0
VERTEX
  8
0
  5
7A30
 10
76.0083
 20
49.0293
 30
0.000000
  70
    32
  0
VERTEX
  8
0
  5
7A31
 10
76.0133
 20
48.9787
 30
0.000000
  70
    32
  0
VERTEX
  8
0
  5
7A32
 10
76.0184
 20
48.9282
 30
0.000000
  70
    32
  0
VERTEX
  8
0
  5
7A33
 10
76.0238
 20
48.8778
 30
0.000000
  70
    32
  0
VERTEX
  8
0
  5
7A34
 10
76.0295
 20
48.8274
 30
0.000000
  70
    32
  0
VERTEX
  8
0
  5
7A35
 10
76.0354
 20
48.7771
 30
0.000000
  70
    32
  0
VERTEX
  8
0
  5
7A36
 10
76.0416
 20
48.7269
 30
0.000000
  70
    32
  0
VERTEX
  8
0
  5
7A37
 10
76.0480
 20
48.6768
 30
0.000000
  70
    32
  0
VERTEX
  8
0
  5
7A38
 10
76.0547
 20
48.6268
 30
0.000000
  70
    32
  0
VERTEX
  8
0
  5
7A39
 10
76.0616
 20
48.5769
 30
0.000000
  70
    32
  0
VERTEX
  8
0
  5
7A3A
 10
76.0687
 20
48.5271
 30
0.000000
  70
    32
  0
VERTEX
  8
0
  5
7A3B
 10
76.0761
 20
48.4774
 30
0.000000
  70
    32
  0
VERTEX
  8
0
  5
7A3C
 10
76.0837
 20
48.4279
 30
0.000000
  70
    32
  0
VERTEX
  8
0
  5
7A3D
 10
76.0916
 20
48.3784
 30
0.000000
  70
    32
  0
VERTEX
  8
0
  5
7A3E
 10
76.0998
 20
48.3291
 30
0.000000
  70
    32
  0
VERTEX
  8
0
  5
7A3F
 10
76.1081
 20
48.2798
 30
0.000000
  70
    32
  0
VERTEX
  8
0
  5
7A40
 10
76.1167
 20
48.2307
 30
0.000000
  70
    32
  0
VERTEX
  8
0
  5
7A41
 10
76.1256
 20
48.1818
 30
0.000000
  70
    32
  0
VERTEX
  8
0
  5
7A42
 10
76.1347
 20
48.1329
 30
0.000000
  70
    32
  0
VERTEX
  8
0
  5
7A43
 10
76.1440
 20
48.0842
 30
0.000000
  70
    32
  0
VERTEX
  8
0
  5
7A44
 10
76.1536
 20
48.0357
 30
0.000000
  70
    32
  0
VERTEX
  8
0
  5
7A45
 10
76.1634
 20
47.9873
 30
0.000000
  70
    32
  0
VERTEX
  8
0
  5
7A46
 10
76.1735
 20
47.9390
 30
0.000000
  70
    32
  0
VERTEX
  8
0
  5
7A47
 10
76.1838
 20
47.8909
 30
0.000000
  70
    32
  0
VERTEX
  8
0
  5
7A48
 10
76.1943
 20
47.8429
 30
0.000000
  70
    32
  0
VERTEX
  8
0
  5
7A49
 10
76.2051
 20
47.7951
 30
0.000000
  70
    32
  0
VERTEX
  8
0
  5
7A4A
 10
76.2161
 20
47.7475
 30
0.000000
  70
    32
  0
VERTEX
  8
0
  5
7A4B
 10
76.2273
 20
47.7000
 30
0.000000
  70
    32
  0
VERTEX
  8
0
  5
7A4C
 10
76.2388
 20
47.6527
 30
0.000000
  70
    32
  0
VERTEX
  8
0
  5
7A4D
 10
76.2505
 20
47.6056
 30
0.000000
  70
    32
  0
VERTEX
  8
0
  5
7A4E
 10
76.2625
 20
47.5586
 30
0.000000
  70
    32
  0
VERTEX
  8
0
  5
7A4F
 10
76.2746
 20
47.5118
 30
0.000000
  70
    32
  0
VERTEX
  8
0
  5
7A50
 10
76.2870
 20
47.4652
 30
0.000000
  70
    32
  0
VERTEX
  8
0
  5
7A51
 10
76.2997
 20
47.4188
 30
0.000000
  70
    32
  0
VERTEX
  8
0
  5
7A52
 10
76.3125
 20
47.3726
 30
0.000000
  70
    32
  0
VERTEX
  8
0
  5
7A53
 10
76.3256
 20
47.3265
 30
0.000000
  70
    32
  0
VERTEX
  8
0
  5
7A54
 10
76.3389
 20
47.2807
 30
0.000000
  70
    32
  0
VERTEX
  8
0
  5
7A55
 10
76.3525
 20
47.2351
 30
0.000000
  70
    32
  0
VERTEX
  8
0
  5
7A56
 10
76.3662
 20
47.1896
 30
0.000000
  70
    32
  0
VERTEX
  8
0
  5
7A57
 10
76.3802
 20
47.1444
 30
0.000000
  70
    32
  0
VERTEX
  8
0
  5
7A58
 10
76.3944
 20
47.0994
 30
0.000000
  70
    32
  0
VERTEX
  8
0
  5
7A59
 10
76.4088
 20
47.0546
 30
0.000000
  70
    32
  0
VERTEX
  8
0
  5
7A5A
 10
76.4235
 20
47.0100
 30
0.000000
  70
    32
  0
VERTEX
  8
0
  5
7A5B
 10
76.4384
 20
46.9656
 30
0.000000
  70
    32
  0
VERTEX
  8
0
  5
7A5C
 10
76.4535
 20
46.9214
 30
0.000000
  70
    32
  0
VERTEX
  8
0
  5
7A5D
 10
76.4688
 20
46.8775
 30
0.000000
  70
    32
  0
VERTEX
  8
0
  5
7A5E
 10
76.4843
 20
46.8338
 30
0.000000
  70
    32
  0
VERTEX
  8
0
  5
7A5F
 10
76.5000
 20
46.7903
 30
0.000000
  70
    32
  0
VERTEX
  8
0
  5
7A60
 10
76.5160
 20
46.7471
 30
0.000000
  70
    32
  0
VERTEX
  8
0
  5
7A61
 10
76.5322
 20
46.7041
 30
0.000000
  70
    32
  0
VERTEX
  8
0
  5
7A62
 10
76.5485
 20
46.6613
 30
0.000000
  70
    32
  0
VERTEX
  8
0
  5
7A63
 10
76.5651
 20
46.6188
 30
0.000000
  70
    32
  0
VERTEX
  8
0
  5
7A64
 10
76.5819
 20
46.5766
 30
0.000000
  70
    32
  0
VERTEX
  8
0
  5
7A65
 10
76.5989
 20
46.5345
 30
0.000000
  70
    32
  0
VERTEX
  8
0
  5
7A66
 10
76.6162
 20
46.4928
 30
0.000000
  70
    32
  0
VERTEX
  8
0
  5
7A67
 10
76.6336
 20
46.4513
 30
0.000000
  70
    32
  0
VERTEX
  8
0
  5
7A68
 10
76.6512
 20
46.4100
 30
0.000000
  70
    32
  0
VERTEX
  8
0
  5
7A69
 10
76.6690
 20
46.3691
 30
0.000000
  70
    32
  0
VERTEX
  8
0
  5
7A6A
 10
76.6871
 20
46.3283
 30
0.000000
  70
    32
  0
VERTEX
  8
0
  5
7A6B
 10
76.7053
 20
46.2879
 30
0.000000
  70
    32
  0
VERTEX
  8
0
  5
7A6C
 10
76.7237
 20
46.2477
 30
0.000000
  70
    32
  0
VERTEX
  8
0
  5
7A6D
 10
76.7423
 20
46.2078
 30
0.000000
  70
    32
  0
VERTEX
  8
0
  5
7A6E
 10
76.7612
 20
46.1682
 30
0.000000
  70
    32
  0
VERTEX
  8
0
  5
7A6F
 10
76.7802
 20
46.1288
 30
0.000000
  70
    32
  0
VERTEX
  8
0
  5
7A70
 10
76.7994
 20
46.0898
 30
0.000000
  70
    32
  0
VERTEX
  8
0
  5
7A71
 10
76.8188
 20
46.0510
 30
0.000000
  70
    32
  0
VERTEX
  8
0
  5
7A72
 10
76.8384
 20
46.0125
 30
0.000000
  70
    32
  0
VERTEX
  8
0
  5
7A73
 10
76.8582
 20
45.9743
 30
0.000000
  70
    32
  0
VERTEX
  8
0
  5
7A74
 10
76.8781
 20
45.9364
 30
0.000000
  70
    32
  0
VERTEX
  8
0
  5
7A75
 10
76.8983
 20
45.8988
 30
0.000000
  70
    32
  0
VERTEX
  8
0
  5
7A76
 10
76.9186
 20
45.8615
 30
0.000000
  70
    32
  0
VERTEX
  8
0
  5
7A77
 10
76.9392
 20
45.8245
 30
0.000000
  70
    32
  0
VERTEX
  8
0
  5
7A78
 10
76.9599
 20
45.7878
 30
0.000000
  70
    32
  0
VERTEX
  8
0
  5
7A79
 10
76.9808
 20
45.7514
 30
0.000000
  70
    32
  0
VERTEX
  8
0
  5
7A7A
 10
77.0018
 20
45.7153
 30
0.000000
  70
    32
  0
VERTEX
  8
0
  5
7A7B
 10
77.0231
 20
45.6796
 30
0.000000
  70
    32
  0
VERTEX
  8
0
  5
7A7C
 10
77.0445
 20
45.6441
 30
0.000000
  70
    32
  0
VERTEX
  8
0
  5
7A7D
 10
77.0661
 20
45.6090
 30
0.000000
  70
    32
  0
VERTEX
  8
0
  5
7A7E
 10
77.0879
 20
45.5742
 30
0.000000
  70
    32
  0
VERTEX
  8
0
  5
7A7F
 10
77.1098
 20
45.5397
 30
0.000000
  70
    32
  0
VERTEX
  8
0
  5
7A80
 10
77.1319
 20
45.5056
 30
0.000000
  70
    32
  0
VERTEX
  8
0
  5
7A81
 10
77.1542
 20
45.4717
 30
0.000000
  70
    32
  0
VERTEX
  8
0
  5
7A82
 10
77.1766
 20
45.4382
 30
0.000000
  70
    32
  0
VERTEX
  8
0
  5
7A83
 10
77.1992
 20
45.4051
 30
0.000000
  70
    32
  0
VERTEX
  8
0
  5
7A84
 10
77.2220
 20
45.3722
 30
0.000000
  70
    32
  0
VERTEX
  8
0
  5
7A85
 10
77.2449
 20
45.3397
 30
0.000000
  70
    32
  0
VERTEX
  8
0
  5
7A86
 10
77.2680
 20
45.3076
 30
0.000000
  70
    32
  0
VERTEX
  8
0
  5
7A87
 10
77.2913
 20
45.2758
 30
0.000000
  70
    32
  0
VERTEX
  8
0
  5
7A88
 10
77.3147
 20
45.2443
 30
0.000000
  70
    32
  0
VERTEX
  8
0
  5
7A89
 10
77.3382
 20
45.2132
 30
0.000000
  70
    32
  0
VERTEX
  8
0
  5
7A8A
 10
77.3619
 20
45.1825
 30
0.000000
  70
    32
  0
VERTEX
  8
0
  5
7A8B
 10
77.3858
 20
45.1520
 30
0.000000
  70
    32
  0
VERTEX
  8
0
  5
7A8C
 10
77.4098
 20
45.1220
 30
0.000000
  70
    32
  0
VERTEX
  8
0
  5
7A8D
 10
77.4340
 20
45.0923
 30
0.000000
  70
    32
  0
VERTEX
  8
0
  5
7A8E
 10
77.4583
 20
45.0629
 30
0.000000
  70
    32
  0
VERTEX
  8
0
  5
7A8F
 10
77.4827
 20
45.0340
 30
0.000000
  70
    32
  0
VERTEX
  8
0
  5
7A90
 10
77.5073
 20
45.0054
 30
0.000000
  70
    32
  0
VERTEX
  8
0
  5
7A91
 10
77.5320
 20
44.9771
 30
0.000000
  70
    32
  0
VERTEX
  8
0
  5
7A92
 10
77.5569
 20
44.9492
 30
0.000000
  70
    32
  0
VERTEX
  8
0
  5
7A93
 10
77.5819
 20
44.9217
 30
0.000000
  70
    32
  0
VERTEX
  8
0
  5
7A94
 10
77.6071
 20
44.8946
 30
0.000000
  70
    32
  0
VERTEX
  8
0
  5
7A95
 10
77.6323
 20
44.8678
 30
0.000000
  70
    32
  0
VERTEX
  8
0
  5
7A96
 10
77.6577
 20
44.8414
 30
0.000000
  70
    32
  0
VERTEX
  8
0
  5
7A97
 10
77.6833
 20
44.8154
 30
0.000000
  70
    32
  0
VERTEX
  8
0
  5
7A98
 10
77.7089
 20
44.7897
 30
0.000000
  70
    32
  0
VERTEX
  8
0
  5
7A99
 10
77.7347
 20
44.7645
 30
0.000000
  70
    32
  0
VERTEX
  8
0
  5
7A9A
 10
77.7606
 20
44.7396
 30
0.000000
  70
    32
  0
VERTEX
  8
0
  5
7A9B
 10
77.7867
 20
44.7151
 30
0.000000
  70
    32
  0
VERTEX
  8
0
  5
7A9C
 10
77.8128
 20
44.6910
 30
0.000000
  70
    32
  0
VERTEX
  8
0
  5
7A9D
 10
77.8391
 20
44.6673
 30
0.000000
  70
    32
  0
SEQEND
  8
0
  5
7A9E
  0
ARC
  5
7629
  8
0
 10
78.220761102100013
 20
45.194226542699987
 30
0.0
 40
0.6506122944561066
 50
234.08284851799999
 51
274.52717104720023
  0
LINE
  5
762A
  8
0
 10
79.653313077999996
 20
44.545644149199987
 30
0.0
 11
78.272115133699984
 21
44.545644149199987
 31
0.0
  0
ARC
  5
762B
  8
0
 10
79.683379701700005
 20
45.269984335199993
 30
0.0
 40
0.7249639348378267
 50
267.62307503950001
 51
303.76690539530023
  0
LINE
  5
762D
  8
0
 10
75.962714079700007
 20
50.0
 30
0.0
 11
75.962714079700007
 21
56.70820381499999
 31
0.0
  0
POLYLINE
  5
762E
  8
0
 10
77.839102538999995
 20
58.569568250501305
 30
0.0
 66
     1
 70
     8
  0
VERTEX
  8
0
  5
7A9F
 10
77.8391
 20
58.5696
 30
0.000000
  70
    32
  0
VERTEX
  8
0
  5
7AA0
 10
77.8229
 20
58.5605
 30
0.000000
  70
    32
  0
VERTEX
  8
0
  5
7AA1
 10
77.8067
 20
58.5514
 30
0.000000
  70
    32
  0
VERTEX
  8
0
  5
7AA2
 10
77.7906
 20
58.5421
 30
0.000000
  70
    32
  0
VERTEX
  8
0
  5
7AA3
 10
77.7744
 20
58.5328
 30
0.000000
  70
    32
  0
VERTEX
  8
0
  5
7AA4
 10
77.7583
 20
58.5234
 30
0.000000
  70
    32
  0
VERTEX
  8
0
  5
7AA5
 10
77.7422
 20
58.5139
 30
0.000000
  70
    32
  0
VERTEX
  8
0
  5
7AA6
 10
77.7261
 20
58.5043
 30
0.000000
  70
    32
  0
VERTEX
  8
0
  5
7AA7
 10
77.7100
 20
58.4946
 30
0.000000
  70
    32
  0
VERTEX
  8
0
  5
7AA8
 10
77.6940
 20
58.4848
 30
0.000000
  70
    32
  0
VERTEX
  8
0
  5
7AA9
 10
77.6779
 20
58.4749
 30
0.000000
  70
    32
  0
VERTEX
  8
0
  5
7AAA
 10
77.6619
 20
58.4650
 30
0.000000
  70
    32
  0
VERTEX
  8
0
  5
7AAB
 10
77.6459
 20
58.4549
 30
0.000000
  70
    32
  0
VERTEX
  8
0
  5
7AAC
 10
77.6300
 20
58.4448
 30
0.000000
  70
    32
  0
VERTEX
  8
0
  5
7AAD
 10
77.6140
 20
58.4345
 30
0.000000
  70
    32
  0
VERTEX
  8
0
  5
7AAE
 10
77.5981
 20
58.4242
 30
0.000000
  70
    32
  0
VERTEX
  8
0
  5
7AAF
 10
77.5821
 20
58.4138
 30
0.000000
  70
    32
  0
VERTEX
  8
0
  5
7AB0
 10
77.5662
 20
58.4033
 30
0.000000
  70
    32
  0
VERTEX
  8
0
  5
7AB1
 10
77.5504
 20
58.3927
 30
0.000000
  70
    32
  0
VERTEX
  8
0
  5
7AB2
 10
77.5345
 20
58.3820
 30
0.000000
  70
    32
  0
VERTEX
  8
0
  5
7AB3
 10
77.5187
 20
58.3712
 30
0.000000
  70
    32
  0
VERTEX
  8
0
  5
7AB4
 10
77.5028
 20
58.3603
 30
0.000000
  70
    32
  0
VERTEX
  8
0
  5
7AB5
 10
77.4870
 20
58.3494
 30
0.000000
  70
    32
  0
VERTEX
  8
0
  5
7AB6
 10
77.4713
 20
58.3383
 30
0.000000
  70
    32
  0
VERTEX
  8
0
  5
7AB7
 10
77.4555
 20
58.3272
 30
0.000000
  70
    32
  0
VERTEX
  8
0
  5
7AB8
 10
77.4398
 20
58.3160
 30
0.000000
  70
    32
  0
VERTEX
  8
0
  5
7AB9
 10
77.4241
 20
58.3046
 30
0.000000
  70
    32
  0
VERTEX
  8
0
  5
7ABA
 10
77.4084
 20
58.2932
 30
0.000000
  70
    32
  0
VERTEX
  8
0
  5
7ABB
 10
77.3927
 20
58.2817
 30
0.000000
  70
    32
  0
VERTEX
  8
0
  5
7ABC
 10
77.3771
 20
58.2702
 30
0.000000
  70
    32
  0
VERTEX
  8
0
  5
7ABD
 10
77.3614
 20
58.2585
 30
0.000000
  70
    32
  0
VERTEX
  8
0
  5
7ABE
 10
77.3458
 20
58.2467
 30
0.000000
  70
    32
  0
VERTEX
  8
0
  5
7ABF
 10
77.3302
 20
58.2349
 30
0.000000
  70
    32
  0
VERTEX
  8
0
  5
7AC0
 10
77.3147
 20
58.2229
 30
0.000000
  70
    32
  0
VERTEX
  8
0
  5
7AC1
 10
77.2991
 20
58.2109
 30
0.000000
  70
    32
  0
VERTEX
  8
0
  5
7AC2
 10
77.2836
 20
58.1988
 30
0.000000
  70
    32
  0
VERTEX
  8
0
  5
7AC3
 10
77.2681
 20
58.1866
 30
0.000000
  70
    32
  0
VERTEX
  8
0
  5
7AC4
 10
77.2527
 20
58.1743
 30
0.000000
  70
    32
  0
VERTEX
  8
0
  5
7AC5
 10
77.2372
 20
58.1619
 30
0.000000
  70
    32
  0
VERTEX
  8
0
  5
7AC6
 10
77.2218
 20
58.1495
 30
0.000000
  70
    32
  0
VERTEX
  8
0
  5
7AC7
 10
77.2064
 20
58.1369
 30
0.000000
  70
    32
  0
VERTEX
  8
0
  5
7AC8
 10
77.1910
 20
58.1243
 30
0.000000
  70
    32
  0
VERTEX
  8
0
  5
7AC9
 10
77.1757
 20
58.1115
 30
0.000000
  70
    32
  0
VERTEX
  8
0
  5
7ACA
 10
77.1604
 20
58.0987
 30
0.000000
  70
    32
  0
VERTEX
  8
0
  5
7ACB
 10
77.1451
 20
58.0858
 30
0.000000
  70
    32
  0
VERTEX
  8
0
  5
7ACC
 10
77.1298
 20
58.0728
 30
0.000000
  70
    32
  0
VERTEX
  8
0
  5
7ACD
 10
77.1145
 20
58.0598
 30
0.000000
  70
    32
  0
VERTEX
  8
0
  5
7ACE
 10
77.0993
 20
58.0466
 30
0.000000
  70
    32
  0
VERTEX
  8
0
  5
7ACF
 10
77.0841
 20
58.0334
 30
0.000000
  70
    32
  0
VERTEX
  8
0
  5
7AD0
 10
77.0689
 20
58.0200
 30
0.000000
  70
    32
  0
VERTEX
  8
0
  5
7AD1
 10
77.0538
 20
58.0066
 30
0.000000
  70
    32
  0
VERTEX
  8
0
  5
7AD2
 10
77.0386
 20
57.9931
 30
0.000000
  70
    32
  0
VERTEX
  8
0
  5
7AD3
 10
77.0235
 20
57.9795
 30
0.000000
  70
    32
  0
VERTEX
  8
0
  5
7AD4
 10
77.0085
 20
57.9659
 30
0.000000
  70
    32
  0
VERTEX
  8
0
  5
7AD5
 10
76.9934
 20
57.9521
 30
0.000000
  70
    32
  0
VERTEX
  8
0
  5
7AD6
 10
76.9784
 20
57.9382
 30
0.000000
  70
    32
  0
VERTEX
  8
0
  5
7AD7
 10
76.9634
 20
57.9243
 30
0.000000
  70
    32
  0
VERTEX
  8
0
  5
7AD8
 10
76.9484
 20
57.9103
 30
0.000000
  70
    32
  0
VERTEX
  8
0
  5
7AD9
 10
76.9335
 20
57.8962
 30
0.000000
  70
    32
  0
VERTEX
  8
0
  5
7ADA
 10
76.9186
 20
57.8820
 30
0.000000
  70
    32
  0
VERTEX
  8
0
  5
7ADB
 10
76.9037
 20
57.8677
 30
0.000000
  70
    32
  0
VERTEX
  8
0
  5
7ADC
 10
76.8888
 20
57.8534
 30
0.000000
  70
    32
  0
VERTEX
  8
0
  5
7ADD
 10
76.8740
 20
57.8389
 30
0.000000
  70
    32
  0
VERTEX
  8
0
  5
7ADE
 10
76.8592
 20
57.8244
 30
0.000000
  70
    32
  0
VERTEX
  8
0
  5
7ADF
 10
76.8444
 20
57.8098
 30
0.000000
  70
    32
  0
VERTEX
  8
0
  5
7AE0
 10
76.8296
 20
57.7951
 30
0.000000
  70
    32
  0
VERTEX
  8
0
  5
7AE1
 10
76.8149
 20
57.7803
 30
0.000000
  70
    32
  0
VERTEX
  8
0
  5
7AE2
 10
76.8002
 20
57.7655
 30
0.000000
  70
    32
  0
VERTEX
  8
0
  5
7AE3
 10
76.7855
 20
57.7506
 30
0.000000
  70
    32
  0
VERTEX
  8
0
  5
7AE4
 10
76.7709
 20
57.7355
 30
0.000000
  70
    32
  0
VERTEX
  8
0
  5
7AE5
 10
76.7563
 20
57.7204
 30
0.000000
  70
    32
  0
VERTEX
  8
0
  5
7AE6
 10
76.7417
 20
57.7052
 30
0.000000
  70
    32
  0
VERTEX
  8
0
  5
7AE7
 10
76.7272
 20
57.6900
 30
0.000000
  70
    32
  0
VERTEX
  8
0
  5
7AE8
 10
76.7126
 20
57.6746
 30
0.000000
  70
    32
  0
VERTEX
  8
0
  5
7AE9
 10
76.6981
 20
57.6592
 30
0.000000
  70
    32
  0
VERTEX
  8
0
  5
7AEA
 10
76.6837
 20
57.6436
 30
0.000000
  70
    32
  0
VERTEX
  8
0
  5
7AEB
 10
76.6692
 20
57.6280
 30
0.000000
  70
    32
  0
VERTEX
  8
0
  5
7AEC
 10
76.6548
 20
57.6124
 30
0.000000
  70
    32
  0
VERTEX
  8
0
  5
7AED
 10
76.6404
 20
57.5966
 30
0.000000
  70
    32
  0
VERTEX
  8
0
  5
7AEE
 10
76.6261
 20
57.5807
 30
0.000000
  70
    32
  0
VERTEX
  8
0
  5
7AEF
 10
76.6118
 20
57.5648
 30
0.000000
  70
    32
  0
VERTEX
  8
0
  5
7AF0
 10
76.5975
 20
57.5488
 30
0.000000
  70
    32
  0
VERTEX
  8
0
  5
7AF1
 10
76.5832
 20
57.5327
 30
0.000000
  70
    32
  0
VERTEX
  8
0
  5
7AF2
 10
76.5690
 20
57.5165
 30
0.000000
  70
    32
  0
VERTEX
  8
0
  5
7AF3
 10
76.5548
 20
57.5003
 30
0.000000
  70
    32
  0
VERTEX
  8
0
  5
7AF4
 10
76.5406
 20
57.4840
 30
0.000000
  70
    32
  0
VERTEX
  8
0
  5
7AF5
 10
76.5265
 20
57.4676
 30
0.000000
  70
    32
  0
VERTEX
  8
0
  5
7AF6
 10
76.5124
 20
57.4511
 30
0.000000
  70
    32
  0
VERTEX
  8
0
  5
7AF7
 10
76.4983
 20
57.4345
 30
0.000000
  70
    32
  0
VERTEX
  8
0
  5
7AF8
 10
76.4843
 20
57.4178
 30
0.000000
  70
    32
  0
VERTEX
  8
0
  5
7AF9
 10
76.4703
 20
57.4011
 30
0.000000
  70
    32
  0
VERTEX
  8
0
  5
7AFA
 10
76.4563
 20
57.3843
 30
0.000000
  70
    32
  0
VERTEX
  8
0
  5
7AFB
 10
76.4423
 20
57.3674
 30
0.000000
  70
    32
  0
VERTEX
  8
0
  5
7AFC
 10
76.4284
 20
57.3504
 30
0.000000
  70
    32
  0
VERTEX
  8
0
  5
7AFD
 10
76.4145
 20
57.3334
 30
0.000000
  70
    32
  0
VERTEX
  8
0
  5
7AFE
 10
76.4007
 20
57.3163
 30
0.000000
  70
    32
  0
VERTEX
  8
0
  5
7AFF
 10
76.3869
 20
57.2991
 30
0.000000
  70
    32
  0
VERTEX
  8
0
  5
7B00
 10
76.3731
 20
57.2818
 30
0.000000
  70
    32
  0
VERTEX
  8
0
  5
7B01
 10
76.3593
 20
57.2644
 30
0.000000
  70
    32
  0
VERTEX
  8
0
  5
7B02
 10
76.3456
 20
57.2470
 30
0.000000
  70
    32
  0
VERTEX
  8
0
  5
7B03
 10
76.3319
 20
57.2295
 30
0.000000
  70
    32
  0
VERTEX
  8
0
  5
7B04
 10
76.3183
 20
57.2119
 30
0.000000
  70
    32
  0
VERTEX
  8
0
  5
7B05
 10
76.3047
 20
57.1942
 30
0.000000
  70
    32
  0
VERTEX
  8
0
  5
7B06
 10
76.2911
 20
57.1764
 30
0.000000
  70
    32
  0
VERTEX
  8
0
  5
7B07
 10
76.2775
 20
57.1586
 30
0.000000
  70
    32
  0
VERTEX
  8
0
  5
7B08
 10
76.2640
 20
57.1407
 30
0.000000
  70
    32
  0
VERTEX
  8
0
  5
7B09
 10
76.2505
 20
57.1227
 30
0.000000
  70
    32
  0
VERTEX
  8
0
  5
7B0A
 10
76.2371
 20
57.1047
 30
0.000000
  70
    32
  0
VERTEX
  8
0
  5
7B0B
 10
76.2236
 20
57.0865
 30
0.000000
  70
    32
  0
VERTEX
  8
0
  5
7B0C
 10
76.2103
 20
57.0683
 30
0.000000
  70
    32
  0
VERTEX
  8
0
  5
7B0D
 10
76.1969
 20
57.0501
 30
0.000000
  70
    32
  0
VERTEX
  8
0
  5
7B0E
 10
76.1836
 20
57.0317
 30
0.000000
  70
    32
  0
VERTEX
  8
0
  5
7B0F
 10
76.1703
 20
57.0133
 30
0.000000
  70
    32
  0
VERTEX
  8
0
  5
7B10
 10
76.1571
 20
56.9947
 30
0.000000
  70
    32
  0
VERTEX
  8
0
  5
7B11
 10
76.1439
 20
56.9762
 30
0.000000
  70
    32
  0
VERTEX
  8
0
  5
7B12
 10
76.1307
 20
56.9575
 30
0.000000
  70
    32
  0
VERTEX
  8
0
  5
7B13
 10
76.1176
 20
56.9388
 30
0.000000
  70
    32
  0
VERTEX
  8
0
  5
7B14
 10
76.1045
 20
56.9200
 30
0.000000
  70
    32
  0
VERTEX
  8
0
  5
7B15
 10
76.0914
 20
56.9011
 30
0.000000
  70
    32
  0
VERTEX
  8
0
  5
7B16
 10
76.0784
 20
56.8821
 30
0.000000
  70
    32
  0
VERTEX
  8
0
  5
7B17
 10
76.0654
 20
56.8631
 30
0.000000
  70
    32
  0
VERTEX
  8
0
  5
7B18
 10
76.0524
 20
56.8440
 30
0.000000
  70
    32
  0
VERTEX
  8
0
  5
7B19
 10
76.0395
 20
56.8248
 30
0.000000
  70
    32
  0
VERTEX
  8
0
  5
7B1A
 10
76.0266
 20
56.8056
 30
0.000000
  70
    32
  0
VERTEX
  8
0
  5
7B1B
 10
76.0137
 20
56.7862
 30
0.000000
  70
    32
  0
VERTEX
  8
0
  5
7B1C
 10
76.0009
 20
56.7668
 30
0.000000
  70
    32
  0
VERTEX
  8
0
  5
7B1D
 10
75.9882
 20
56.7474
 30
0.000000
  70
    32
  0
VERTEX
  8
0
  5
7B1E
 10
75.9754
 20
56.7278
 30
0.000000
  70
    32
  0
VERTEX
  8
0
  5
7B1F
 10
75.9627
 20
56.7082
 30
0.000000
  70
    32
  0
SEQEND
  8
0
  5
7B20
  0
LINE
  5
762F
  8
0
 10
83.275001190600008
 20
58.500000461999988
 30
0.0
 11
83.275001190600008
 21
43.999999947899987
 31
0.0
  0
LINE
  5
7630
  8
0
 10
83.275001190600008
 20
56.02079741659999
 30
0.0
 11
82.775001108600009
 21
56.70820381499999
 31
0.0
  0
LINE
  5
7631
  8
0
 10
82.775001108600009
 20
56.70820381499999
 30
0.0
 11
82.775001108600009
 21
58.999999612599993
 31
0.0
  0
ARC
  5
7632
  8
0
 10
79.715335368099986
 20
57.730279183599968
 30
0.0
 40
0.9176275780093687
 50
66.153159522999829
 51
93.875566556499777
  0
LINE
  5
7633
  8
0
 10
79.653313077999996
 20
58.645808324299992
 30
0.0
 11
78.272115133699984
 21
58.645808324299992
 31
0.0
  0
ARC
  5
7634
  8
0
 10
78.22229635490001
 20
57.66096803329998
 30
0.0
 40
0.9860995434041529
 50
87.104124595099847
 51
112.86714932539979
  0
LINE
  5
7635
  8
0
 10
75.962714079700007
 20
56.70820381499999
 30
0.0
 11
75.300000768100006
 21
56.70820381499999
 31
0.0
  0
LINE
  5
7636
  8
0
 10
75.300000768100006
 20
58.999999612599993
 30
0.0
 11
75.300000768100006
 21
56.70820381499999
 31
0.0
  0
LINE
  5
7637
  8
0
 10
82.775001108600009
 20
56.70820381499999
 30
0.0
 11
81.962714597600012
 21
56.70820381499999
 31
0.0
  0
LINE
  5
7638
  8
0
 10
75.300000768100006
 20
56.70820381499999
 30
0.0
 11
75.000000812100012
 21
56.300000008199987
 31
0.0
  0
LINE
  5
7639
  8
0
 10
75.000000812100012
 20
58.700000122200002
 30
0.0
 11
75.000000812100012
 21
43.999999947899987
 31
0.0
  0
LINE
  5
763C
  8
0
 10
54.200001686800007
 20
54.00000018999998
 30
0.0
 11
54.200001686800007
 21
45.999999810099993
 31
0.0
  0
LINE
  5
763E
  8
0
 10
59.000000983400007
 20
54.00000018999998
 30
0.0
 11
59.000000983400007
 21
45.9999998101
 31
0.0
  0
LINE
  5
763F
  8
0
 10
53.0
 20
47.200000099899988
 30
0.0
 11
53.0
 21
52.799999900199992
 31
0.0
  0
LINE
  5
7641
  8
0
 10
60.100000977500009
 20
54.00000018999998
 30
0.0
 11
60.100000977500009
 21
45.999999810099993
 31
0.0
  0
LINE
  5
7642
  8
0
 10
73.913457032300016
 20
43.122165556999988
 30
0.0
 11
73.913457032300016
 21
56.87783444299999
 31
0.0
  0
LINE
  5
7644
  8
0
 10
80.086325921100027
 20
58.569568395699989
 30
0.0
 11
80.086325921100027
 21
44.667317718299977
 31
0.0
  0
LINE
  5
7647
  8
0
 10
77.839102290499994
 20
44.667317718299977
 30
0.0
 11
77.839102290499994
 21
58.569568395699989
 31
0.0
  0
LINE
  5
7648
  8
0
 10
78.272115133699984
 20
58.645808324299992
 30
0.0
 11
78.272115133699984
 21
44.545644149199987
 31
0.0
  0
LINE
  5
7649
  8
0
 10
79.653313077999996
 20
44.545644149199987
 30
0.0
 11
79.653313077999996
 21
58.645808324299992
 31
0.0
  0
LINE
  5
764A
  8
3
 10
65.000001035600008
 20
53.400000045100001
 30
0.0
 11
60.100000977500009
 21
53.400000045100001
 31
0.0
  0
LINE
  5
764B
  8
3
 10
53.600000843400011
 20
46.59999995499998
 30
0.0
 11
59.0000009834
 21
46.59999995499998
 31
0.0
  0
LINE
  5
764C
  8
1
 10
86.275001190600022
 20
50.000000000000007
 30
0.0
 11
50.0
 21
50.0
 31
0.0
  0
ARC
  5
764E
  8
0
 10
127.02500119059999
 20
50.000000000000007
 30
0.0
 40
7.7500000000000071
 50
140.7319739982002
 51
39.268025393212241
  0
LINE
  5
764F
  8
0
 10
121.0250011384
 20
50.000000000000007
 30
0.0
 11
121.0250011384
 21
56.708203885810313
 31
0.0
  0
ARC
  5
7650
  8
0
 10
127.02500119059999
 20
50.000000000000007
 30
0.0
 40
8.5000000000000302
 50
45.099127844000151
 51
134.90087215599991
  0
LINE
  5
7651
  8
0
 10
133.0250012427
 20
56.708203885899771
 30
0.0
 11
133.0250012427
 21
50.000000000000007
 31
0.0
  0
LINE
  5
7652
  8
0
 10
125.27500113649999
 20
56.000000052200001
 30
0.0
 11
125.27500113649999
 21
50.000000000000007
 31
0.0
  0
LINE
  5
7653
  8
0
 10
125.27500113649999
 20
50.000000000000007
 30
0.0
 11
123.0250010006
 21
50.000000000000007
 31
0.0
  0
LINE
  5
7654
  8
0
 10
123.0250010006
 20
50.000000000000007
 30
0.0
 11
127.02500119059999
 21
45.9999998101
 31
0.0
  0
LINE
  5
7655
  8
0
 10
127.02500119059999
 20
45.9999998101
 30
0.0
 11
131.02500138049999
 21
50.000000000000007
 31
0.0
  0
LINE
  5
7656
  8
0
 10
131.02500138049999
 20
50.000000000000007
 30
0.0
 11
128.77500124459999
 21
50.000000000000007
 31
0.0
  0
LINE
  5
7657
  8
0
 10
128.77500124459999
 20
50.000000000000007
 30
0.0
 11
128.77500124459999
 21
56.000000052200001
 31
0.0
  0
LINE
  5
7658
  8
0
 10
128.77500124459999
 20
56.000000052200001
 30
0.0
 11
125.27500113649999
 21
56.000000052200001
 31
0.0
  0
ARC
  5
7659
  8
0
 10
127.02500119059999
 20
50.000000000000007
 30
0.0
 40
6.0000000000000213
 50
180.0
 51
0.0
  0
ARC
  5
765B
  8
0
 10
127.02500119059999
 20
50.000000000000007
 30
0.0
 40
9.0000000000000213
 50
48.189685104200059
 51
131.81031489579979
  0
ARC
  5
765D
  8
0
 10
127.02500119059999
 20
50.000000000000007
 30
0.0
 40
6.8778345399593173
 50
150.73494631930041
 51
29.26505279283306
  0
LINE
  5
7661
  8
3
 10
59.000000983400007
 20
53.400000045100001
 30
0.0
 11
53.600000843400011
 21
53.400000045100001
 31
0.0
  0
LINE
  5
7662
  8
3
 10
60.100000977500009
 20
46.599999955000001
 30
0.0
 11
65.000001035600008
 21
46.59999995499998
 31
0.0
  0
LINE
  5
7669
  8
1
 10
116.27500119059999
 20
50.000000000000007
 30
0.0
 11
137.77500119059999
 21
50.000000000000007
 31
0.0
  0
LINE
  5
766E
  8
1
 10
127.02500119059999
 20
39.25
 30
0.0
 11
127.02500119059999
 21
62.000000000000043
 31
0.0
  0
ARC
  5
7790
  8
0
 10
59.600001190600011
 20
103.2
 30
0.0
 40
0.5
 50
0.0
 51
180.0
  0
ARC
  5
7791
  8
0
 10
59.600001190600011
 20
96.800000000000011
 30
0.0
 40
0.5
 50
180.0
 51
0.0
  0
LINE
  5
7792
  8
0
 10
59.100001190600011
 20
103.2
 30
0.0
 11
59.100001190600011
 21
96.800000000000011
 31
0.0
  0
LINE
  5
7793
  8
0
 10
70.871854801600023
 20
92.249999999999986
 30
0.0
 11
73.913457224350012
 21
93.122165460000005
 31
0.0
  0
LINE
  5
7794
  8
0
 10
73.913457224350012
 20
106.87783453995
 30
0.0
 11
70.871854801600023
 21
107.75
 31
0.0
  0
LINE
  5
7795
  8
0
 10
70.871854801600023
 20
107.75
 30
0.0
 11
70.20000119060002
 21
107.75
 31
0.0
  0
LINE
  5
7796
  8
0
 10
70.20000119060002
 20
92.249999999999986
 30
0.0
 11
70.871854801600023
 21
92.249999999999986
 31
0.0
  0
LINE
  5
7797
  8
0
 10
70.20000119060002
 20
107.75
 30
0.0
 11
70.000001190600017
 21
107.55
 31
0.0
  0
LINE
  5
7798
  8
0
 10
70.000001190600017
 20
92.449999999999989
 30
0.0
 11
70.20000119060002
 21
92.249999999999986
 31
0.0
  0
ARC
  5
7799
  8
0
 10
73.500001190600017
 20
105.43594199605
 30
0.0
 40
1.5000000000000151
 50
0.0
 51
73.999999999999929
  0
ARC
  5
779A
  8
0
 10
73.500001190600017
 20
94.564058003900016
 30
0.0
 40
1.5000000000000011
 50
286.00000000000011
 51
0.0
  0
POLYLINE
  5
779B
  8
0
 66
     1
 10
0.0
 20
0.0
 30
0.0
 70
   128
  0
VERTEX
  5
7911
  8
0
 10
70.000001190600017
 20
105.71270166535
 30
0.0
  0
VERTEX
  5
7912
  8
0
 10
69.97803731945001
 20
105.7076858877999
 30
0.0
  0
VERTEX
  5
7913
  8
0
 10
69.900001190600008
 20
105.7
 30
0.0
  0
SEQEND
  5
7914
  8
0
  0
POLYLINE
  5
779C
  8
0
 66
     1
 10
0.0
 20
0.0
 30
0.0
 70
   128
  0
VERTEX
  5
7915
  8
0
 10
69.900001190600008
 20
94.300000000000011
 30
0.0
  0
VERTEX
  5
7916
  8
0
 10
69.97803731945001
 20
94.292314112149995
 30
0.0
  0
VERTEX
  5
7917
  8
0
 10
70.000001190600017
 20
94.287298334599996
 30
0.0
  0
SEQEND
  5
7918
  8
0
  0
LINE
  5
779D
  8
0
 10
69.000001190600017
 20
94.0
 30
0.0
 11
69.300001190600014
 21
94.300000000000011
 31
0.0
  0
LINE
  5
779E
  8
0
 10
69.300001190600014
 20
105.7
 30
0.0
 11
69.000001190600017
 21
106.0
 31
0.0
  0
LINE
  5
779F
  8
0
 10
69.000001190600017
 20
106.0
 30
0.0
 11
66.000001190600017
 21
106.0
 31
0.0
  0
LINE
  5
77A0
  8
0
 10
66.000001190600017
 20
94.0
 30
0.0
 11
69.000001190600017
 21
94.0
 31
0.0
  0
LINE
  5
77A1
  8
0
 10
66.000001190600017
 20
106.0
 30
0.0
 11
65.000001190600017
 21
105.4226497308
 31
0.0
  0
LINE
  5
77A2
  8
0
 10
65.000001190600017
 20
94.577350269150017
 30
0.0
 11
66.000001190600017
 21
94.0
 31
0.0
  0
LINE
  5
77A3
  8
0
 10
69.900001190600008
 20
105.7
 30
0.0
 11
69.300001190600014
 21
105.7
 31
0.0
  0
LINE
  5
77A4
  8
0
 10
69.300001190600014
 20
94.300000000000011
 30
0.0
 11
69.900001190600008
 21
94.300000000000011
 31
0.0
  0
LINE
  5
77A5
  8
0
 10
65.000001190600017
 20
104.0
 30
0.0
 11
60.100001190600011
 21
104.0
 31
0.0
  0
LINE
  5
77A6
  8
0
 10
60.100001190600011
 20
96.0
 30
0.0
 11
65.000001190600017
 21
96.0
 31
0.0
  0
LINE
  5
77A7
  8
0
 10
59.000001190600017
 20
104.0
 30
0.0
 11
54.200001190600013
 21
104.0
 31
0.0
  0
LINE
  5
77A8
  8
0
 10
54.200001190600013
 20
96.0
 30
0.0
 11
59.000001190600017
 21
96.0
 31
0.0
  0
LINE
  5
77A9
  8
0
 10
54.200001190600013
 20
104.0
 30
0.0
 11
53.00000119060001
 21
102.8
 31
0.0
  0
LINE
  5
77AA
  8
0
 10
53.00000119060001
 20
97.199999999999974
 30
0.0
 11
54.200001190600013
 21
96.0
 31
0.0
  0
LINE
  5
77AB
  8
0
 10
59.100001190600011
 20
102.7
 30
0.0
 11
59.000001190600017
 21
102.7
 31
0.0
  0
LINE
  5
77AC
  8
0
 10
59.000001190600017
 20
97.300000000000026
 30
0.0
 11
59.100001190600011
 21
97.300000000000026
 31
0.0
  0
LINE
  5
77AD
  8
0
 10
70.871854801600023
 20
107.75
 30
0.0
 11
70.871854801600023
 21
92.249999999999986
 31
0.0
  0
LINE
  5
77AE
  8
0
 10
70.20000119060002
 20
107.75
 30
0.0
 11
70.20000119060002
 21
92.249999999999986
 31
0.0
  0
LINE
  5
77AF
  8
0
 10
70.000001190600017
 20
92.449999999999989
 30
0.0
 11
70.000001190600017
 21
107.55
 31
0.0
  0
LINE
  5
77B0
  8
0
 10
69.000001190600017
 20
106.0
 30
0.0
 11
69.000001190600017
 21
94.0
 31
0.0
  0
LINE
  5
77B1
  8
0
 10
69.300001190600014
 20
105.7
 30
0.0
 11
69.300001190600014
 21
94.300000000000011
 31
0.0
  0
LINE
  5
77B2
  8
0
 10
66.000001190600017
 20
106.0
 30
0.0
 11
66.000001190600017
 21
94.0
 31
0.0
  0
LINE
  5
77B3
  8
0
 10
65.000001190600017
 20
94.577350269150017
 30
0.0
 11
65.000001190600017
 21
105.4226497308
 31
0.0
  0
LINE
  5
77B4
  8
0
 10
83.275001190600008
 20
106.0
 30
0.0
 11
83.275001190600008
 21
94.0
 31
0.0
  0
LINE
  5
77B6
  8
0
 10
82.775001190599994
 20
94.0
 30
0.0
 11
82.775001190599994
 21
106.0
 31
0.0
  0
LINE
  5
77B8
  8
0
 10
81.962714430900007
 20
94.0
 30
0.0
 11
80.086326056050012
 21
97.250000000000014
 31
0.0
  0
ARC
  5
77B9
  8
0
 10
79.653313354150015
 20
97.0
 30
0.0
 40
0.5000000000001564
 50
29.999999999999758
 51
90.0
  0
LINE
  5
77BA
  8
0
 10
79.653313354150015
 20
97.5
 30
0.0
 11
78.272115507650014
 21
97.5
 31
0.0
  0
ARC
  5
77BB
  8
0
 10
78.272115507650014
 20
97.0
 30
0.0
 40
0.5000000000000235
 50
90.0
 51
150.0000000000002
  0
LINE
  5
77BC
  8
0
 10
77.839102805750017
 20
97.250000000000014
 30
0.0
 11
75.962714430899993
 21
94.0
 31
0.0
  0
LINE
  5
77BD
  8
0
 10
75.962714430899993
 20
94.0
 30
0.0
 11
75.000001190600017
 21
94.0
 31
0.0
  0
LINE
  5
77BE
  8
0
 10
75.300001190600014
 20
106.0
 30
0.0
 11
75.300001190600014
 21
94.0
 31
0.0
  0
LINE
  5
77BF
  8
0
 10
75.000001190600017
 20
106.0
 30
0.0
 11
75.962714430899993
 21
106.0
 31
0.0
  0
LINE
  5
77C0
  8
0
 10
77.839102805750017
 20
102.75
 30
0.0
 11
75.962714430899993
 21
106.0
 31
0.0
  0
ARC
  5
77C1
  8
0
 10
78.272115507650014
 20
103.0
 30
0.0
 40
0.500000000000036
 50
209.9999999999996
 51
270.0
  0
LINE
  5
77C2
  8
0
 10
79.653313354150015
 20
102.5
 30
0.0
 11
78.272115507650014
 21
102.5
 31
0.0
  0
ARC
  5
77C3
  8
0
 10
79.653313354150015
 20
103.0
 30
0.0
 40
0.4999999999999858
 50
270.0
 51
330.00000000000011
  0
LINE
  5
77C4
  8
0
 10
81.962714430900007
 20
106.0
 30
0.0
 11
80.086326056050012
 21
102.75
 31
0.0
  0
LINE
  5
77C5
  8
0
 10
81.962714430900007
 20
106.0
 30
0.0
 11
83.275001190600008
 21
106.0
 31
0.0
  0
LINE
  5
77C6
  8
0
 10
83.275001190600008
 20
94.0
 30
0.0
 11
81.962714430900007
 21
94.0
 31
0.0
  0
LINE
  5
77C8
  8
0
 10
75.000001190600017
 20
94.0
 30
0.0
 11
75.000001190600017
 21
106.0
 31
0.0
  0
LINE
  5
77CA
  8
0
 10
60.100001190600011
 20
104.0
 30
0.0
 11
60.100001190600011
 21
96.0
 31
0.0
  0
LINE
  5
77CB
  8
0
 10
54.200001190600013
 20
104.0
 30
0.0
 11
54.200001190600013
 21
96.0
 31
0.0
  0
LINE
  5
77CC
  8
0
 10
59.000001190600017
 20
104.0
 30
0.0
 11
59.000001190600017
 21
96.0
 31
0.0
  0
LINE
  5
77CD
  8
0
 10
53.00000119060001
 20
97.199999999999974
 30
0.0
 11
53.00000119060001
 21
102.8
 31
0.0
  0
LINE
  5
77CE
  8
0
 10
73.913457224350012
 20
93.122165460000005
 30
0.0
 11
73.913457224350012
 21
106.87783453995
 31
0.0
  0
LINE
  5
77DB
  8
1
 10
86.275001190599994
 20
100.0
 30
0.0
 11
50.00000119060001
 21
100.0
 31
0.0
  0
LINE
  5
77DC
  8
3
 10
65.000002226200024
 20
103.40000004505001
 30
0.0
 11
60.100002168100019
 21
103.40000004505001
 31
0.0
  0
LINE
  5
77DD
  8
3
 10
59.000002174000016
 20
103.40000004505001
 30
0.0
 11
53.600002034000021
 21
103.40000004505001
 31
0.0
  0
LINE
  5
77DE
  8
3
 10
53.600002034000021
 20
96.599999954949993
 30
0.0
 11
59.000002174000009
 21
96.599999954949993
 31
0.0
  0
LINE
  5
77DF
  8
3
 10
60.100002168100019
 20
96.599999954950022
 30
0.0
 11
65.000002226200024
 21
96.599999954949993
 31
0.0
  0
ENDSEC
  0
EOF
