  0
SECTION
  2
HEADER
  9
$ACADVER
  1
AC1009
  9
$INSBASE
 10
0.0
 20
0.0
 30
0.0
  9
$EXTMIN
 10
0.0
 20
-1.4802182810368341
 30
0.0
  9
$EXTMAX
 10
105.5000000149011
 20
60.500000000000028
 30
0.0
  9
$LIMMIN
 10
0.0
 20
0.0
  9
$LIMMAX
 10
12.0
 20
9.0
  9
$ORTHOMODE
 70
     1
  9
$REGENMODE
 70
     1
  9
$FILLMODE
 70
     1
  9
$QTEXTMODE
 70
     0
  9
$MIRRTEXT
 70
     0
  9
$DRAGMODE
 70
     2
  9
$LTSCALE
 40
5.0
  9
$OSMODE
 70
    37
  9
$ATTMODE
 70
     1
  9
$TEXTSIZE
 40
0.2
  9
$TRACEWID
 40
0.05
  9
$TEXTSTYLE
  7
STANDARD
  9
$CLAYER
  8
0
  9
$CELTYPE
  6
BYLAYER
  9
$CECOLOR
 62
   256
  9
$DIMSCALE
 40
1.0
  9
$DIMASZ
 40
0.18
  9
$DIMEXO
 40
0.0625
  9
$DIMDLI
 40
0.38
  9
$DIMRND
 40
0.0
  9
$DIMDLE
 40
0.0
  9
$DIMEXE
 40
0.18
  9
$DIMTP
 40
0.0
  9
$DIMTM
 40
0.0
  9
$DIMTXT
 40
2.6000000000000001
  9
$DIMCEN
 40
0.09
  9
$DIMTSZ
 40
0.0
  9
$DIMTOL
 70
     0
  9
$DIMLIM
 70
     0
  9
$DIMTIH
 70
     0
  9
$DIMTOH
 70
     0
  9
$DIMSE1
 70
     0
  9
$DIMSE2
 70
     0
  9
$DIMTAD
 70
     1
  9
$DIMZIN
 70
     8
  9
$DIMBLK
  1

  9
$DIMASO
 70
     1
  9
$DIMSHO
 70
     1
  9
$DIMPOST
  1

  9
$DIMAPOST
  1

  9
$DIMALT
 70
     0
  9
$DIMALTD
 70
     2
  9
$DIMALTF
 40
25.399999999999999
  9
$DIMLFAC
 40
1.0
  9
$DIMTOFL
 70
     0
  9
$DIMTVP
 40
0.0
  9
$DIMTIX
 70
     0
  9
$DIMSOXD
 70
     0
  9
$DIMSAH
 70
     0
  9
$DIMBLK1
  1

  9
$DIMBLK2
  1

  9
$DIMSTYLE
  2
STANDARD
  9
$DIMCLRD
 70
     0
  9
$DIMCLRE
 70
     0
  9
$DIMCLRT
 70
     0
  9
$DIMTFAC
 40
1.0
  9
$DIMGAP
 40
0.09
  9
$LUNITS
 70
     2
  9
$LUPREC
 70
     4
  9
$SKETCHINC
 40
0.1
  9
$FILLETRAD
 40
0.0
  9
$AUNITS
 70
     0
  9
$AUPREC
 70
     0
  9
$MENU
  1
.
  9
$ELEVATION
 40
0.0
  9
$PELEVATION
 40
0.0
  9
$THICKNESS
 40
0.0
  9
$LIMCHECK
 70
     0
  9
$BLIPMODE
 70
     0
  9
$CHAMFERA
 40
0.0
  9
$CHAMFERB
 40
0.0
  9
$SKPOLY
 70
     0
  9
$TDCREATE
 40
2453083.4120647679
  9
$TDUPDATE
 40
2456923.4969960069
  9
$TDINDWG
 40
0.7115572454
  9
$TDUSRTIMER
 40
0.7115571296
  9
$USRTIMER
 70
     1
  9
$ANGBASE
 50
0.0
  9
$ANGDIR
 70
     0
  9
$PDMODE
 70
     0
  9
$PDSIZE
 40
0.0
  9
$PLINEWID
 40
0.0
  9
$COORDS
 70
     1
  9
$SPLFRAME
 70
     0
  9
$SPLINETYPE
 70
     6
  9
$SPLINESEGS
 70
     8
  9
$ATTDIA
 70
     0
  9
$ATTREQ
 70
     1
  9
$HANDLING
 70
     1
  9
$HANDSEED
  5
7674
  9
$SURFTAB1
 70
     6
  9
$SURFTAB2
 70
     6
  9
$SURFTYPE
 70
     6
  9
$SURFU
 70
     6
  9
$SURFV
 70
     6
  9
$UCSNAME
  2

  9
$UCSORG
 10
0.0
 20
0.0
 30
0.0
  9
$UCSXDIR
 10
1.0
 20
0.0
 30
0.0
  9
$UCSYDIR
 10
0.0
 20
1.0
 30
0.0
  9
$PUCSNAME
  2

  9
$PUCSORG
 10
0.0
 20
0.0
 30
0.0
  9
$PUCSXDIR
 10
1.0
 20
0.0
 30
0.0
  9
$PUCSYDIR
 10
0.0
 20
1.0
 30
0.0
  9
$USERI1
 70
     0
  9
$USERI2
 70
     1
  9
$USERI3
 70
     0
  9
$USERI4
 70
     0
  9
$USERI5
 70
     0
  9
$USERR1
 40
0.0
  9
$USERR2
 40
0.0
  9
$USERR3
 40
0.0
  9
$USERR4
 40
0.0
  9
$USERR5
 40
0.0
  9
$WORLDVIEW
 70
     1
  9
$SHADEDGE
 70
     3
  9
$SHADEDIF
 70
    70
  9
$TILEMODE
 70
     1
  9
$MAXACTVP
 70
    64
  9
$PLIMCHECK
 70
     0
  9
$PEXTMIN
 10
0.0
 20
0.0
 30
0.0
  9
$PEXTMAX
 10
0.0
 20
0.0
 30
0.0
  9
$PLIMMIN
 10
0.0
 20
0.0
  9
$PLIMMAX
 10
12.0
 20
9.0
  9
$UNITMODE
 70
     0
  9
$VISRETAIN
 70
     1
  9
$PLINEGEN
 70
     0
  9
$PSLTSCALE
 70
     1
  0
ENDSEC
  0
SECTION
  2
TABLES
  0
TABLE
  2
VPORT
 70
     1
  0
VPORT
  2
*ACTIVE
 70
     0
 10
0.0
 20
0.0
 11
1.0
 21
1.0
 12
52.75085817766147
 22
33.308096257764277
 13
0.0
 23
0.0
 14
0.5
 24
0.5
 15
0.5
 25
0.5
 16
0.0
 26
0.0
 36
1.0
 17
0.0
 27
0.0
 37
0.0
 40
70.120433235663072
 41
1.7454798331015291
 42
50.0
 43
0.0
 44
0.0
 50
0.0
 51
0.0
 71
     0
 72
  1000
 73
     1
 74
     2
 75
     0
 76
     0
 77
     0
 78
     0
  0
ENDTAB
  0
TABLE
  2
LTYPE
 70
     3
  0
LTYPE
  2
CONTINUOUS
 70
     0
  3
Solid Line
 72
    65
 73
     0
 40
0.0
  0
LTYPE
  2
CENTER
 70
     0
  3
____ _ ____ _ ____ _ ____ _ ____ _ ____ _ ____
 72
    65
 73
     4
 40
2.0
 49
1.25
 49
-0.25
 49
0.25
 49
-0.25
  0
LTYPE
  2
PHANTOM2
 70
     0
  3
___ _ _ ___ _ _ ___ _ _ ___ _ _
 72
    65
 73
     6
 40
1.25
 49
0.625
 49
-0.125
 49
0.125
 49
-0.125
 49
0.125
 49
-0.125
  0
ENDTAB
  0
TABLE
  2
LAYER
 70
     4
  0
LAYER
  2
0
 70
     0
 62
     7
  6
CONTINUOUS
  0
LAYER
  2
1
 70
     0
 62
     1
  6
CENTER
  0
LAYER
  2
DEFPOINTS
 70
     0
 62
     7
  6
CONTINUOUS
  0
LAYER
  2
3
 70
     0
 62
     3
  6
CONTINUOUS
  0
ENDTAB
  0
TABLE
  2
STYLE
 70
     2
  0
STYLE
  2
STANDARD
 70
     0
 40
0.0
 41
1.0
 50
0.0
 71
     0
 42
0.2
  3
simplex.shx
  4
bigfont.shx
  0
STYLE
  2
STANDARD1
 70
     0
 40
0.0
 41
1.0
 50
0.0
 71
     0
 42
3.0
  3
txt
  4

  0
ENDTAB
  0
TABLE
  2
VIEW
 70
     0
  0
ENDTAB
  0
TABLE
  2
UCS
 70
     0
  0
ENDTAB
  0
TABLE
  2
APPID
 70
     5
  0
APPID
  2
ACAD
 70
     0
  0
APPID
  2
ACAD_MLEADERVER
 70
     0
  0
APPID
  2
ACAD_NAV_VCDISPLAY
 70
     0
  0
APPID
  2
ACAD_EXEMPT_FROM_CAD_STANDARDS
 70
     0
  0
APPID
  2
ACAD_DSTYLE_DIMRADIAL_EXTENSION
 70
     0
  0
ENDTAB
  0
TABLE
  2
DIMSTYLE
 70
     1
  0
DIMSTYLE
  2
STANDARD
 70
     0
  3

  4

  5

  6

  7

 40
1.0
 41
0.18
 42
0.0625
 43
0.38
 44
0.18
 45
0.0
 46
0.0
 47
0.0
 48
0.0
140
2.6000000000000001
141
0.09
142
0.0
143
25.399999999999999
144
1.0
145
0.0
146
1.0
147
0.09
 71
     0
 72
     0
 73
     0
 74
     0
 75
     0
 76
     0
 77
     1
 78
     8
170
     0
171
     2
172
     0
173
     0
174
     0
175
     0
176
     0
177
     0
178
     0
  0
ENDTAB
  0
ENDSEC
  0
SECTION
  2
BLOCKS
  0
BLOCK
  8
0
  2
$MODEL_SPACE
 70
     0
 10
0.0
 20
0.0
 30
0.0
  3
$MODEL_SPACE
  1

  0
ENDBLK
  5
21
  8
0
  0
BLOCK
 67
     1
  8
0
  2
$PAPER_SPACE
 70
     0
 10
0.0
 20
0.0
 30
0.0
  3
$PAPER_SPACE
  1

  0
ENDBLK
  5
5B
 67
     1
  8
0
  0
ENDSEC
  0
SECTION
  2
ENTITIES
  0
TEXT
  5
1F01
  8
0
 62
     3
 10
0.0
 20
0.0
 30
0.0
 40
5.0
  1
CP156-08001
  7
STANDARD1
  0
LINE
  5
756B
  8
0
 10
45.200000099255668
 20
57.499999832361972
 30
0.0
 11
45.000000104308093
 21
57.30000017210844
 31
0.0
  0
LINE
  5
756C
  8
0
 10
45.000000104308157
 20
42.69999982789161
 30
0.0
 11
45.200000099255732
 21
42.500000167638092
 31
0.0
  0
LINE
  5
756D
  8
0
 10
46.046224485151441
 20
57.499999832361972
 30
0.0
 11
45.200000099255668
 21
57.499999832361972
 31
0.0
  0
LINE
  5
756E
  8
0
 10
45.200000099255732
 20
42.500000167638092
 30
0.0
 11
46.046224485151498
 21
42.500000167638092
 31
0.0
  0
LINE
  5
756F
  8
0
 10
46.046224485151498
 20
42.500000167638092
 30
0.0
 11
49.637818887829809
 21
43.529872968792937
 31
0.0
  0
LINE
  5
7570
  8
0
 10
49.637818887829752
 20
56.47012703120712
 30
0.0
 11
46.046224485151441
 21
57.499999832361972
 31
0.0
  0
ARC
  5
7571
  8
0
 10
49.5000001043081
 20
55.989496046154592
 30
0.0
 40
0.5000000000000066
 50
0.0000000000008142
 51
74.000000000000114
  0
ARC
  5
7572
  8
0
 10
49.500000104308157
 20
44.010503953845472
 30
0.0
 40
0.5
 50
285.99999999999989
 51
0.0
  0
ARC
  5
7573
  8
0
 10
50.400000104308099
 20
55.900500000000036
 30
0.0
 40
0.4000000000000057
 50
180.0
 51
270.0
  0
ARC
  5
7574
  8
0
 10
50.400000104308148
 20
44.099500000000027
 30
0.0
 40
0.4000000000000057
 50
90.0
 51
180.0
  0
LINE
  5
7575
  8
0
 10
51.211325164884308
 20
55.500500090420289
 30
0.0
 11
50.400000244379029
 21
55.500500090420289
 31
0.0
  0
LINE
  5
7576
  8
0
 10
50.400000244379072
 20
44.499499909579789
 30
0.0
 11
51.211325164884357
 21
44.499499909579789
 31
0.0
  0
ARC
  5
7577
  8
0
 10
51.211324969713303
 20
55.000500000000052
 30
0.0
 40
0.5
 50
30.000000000000909
 51
90.0
  0
ARC
  5
7578
  8
0
 10
51.211324969713331
 20
44.99950000000004
 30
0.0
 40
0.5
 50
270.0
 51
330.00000000000102
  0
ARC
  5
7579
  8
0
 10
58.587713344579591
 20
55.000000000000071
 30
0.0
 40
0.5000000000000041
 50
90.0
 51
150.0000000000004
  0
ARC
  5
757A
  8
0
 10
58.587713344579619
 20
45.000000000000071
 30
0.0
 40
0.5000000000000077
 50
210.00000000000091
 51
270.0
  0
LINE
  5
757B
  8
0
 10
58.587713345885312
 20
44.500000029802393
 30
0.0
 11
60.492892928421533
 21
44.500000029802408
 31
0.0
  0
LINE
  5
757C
  8
0
 10
60.492892928421483
 20
55.499999970197763
 30
0.0
 11
58.587713345885263
 21
55.499999970197742
 31
0.0
  0
ARC
  5
757D
  8
0
 10
60.492893323121557
 20
55.000000000000078
 30
0.0
 40
0.5
 50
44.999999999999943
 51
90.0
  0
ARC
  5
757E
  8
0
 10
60.492893323121599
 20
45.000000000000078
 30
0.0
 40
0.500000000000004
 50
270.0
 51
315.00000000000063
  0
LINE
  5
757F
  8
0
 10
60.846446260809927
 20
44.646446779370393
 30
0.0
 11
61.207106515765197
 21
45.007106568664398
 31
0.0
  0
LINE
  5
7580
  8
0
 10
61.207106515765169
 20
54.992893431335773
 30
0.0
 11
60.846446260809877
 21
55.353553220629777
 31
0.0
  0
LINE
  5
7581
  8
0
 10
51.644337542355089
 20
44.74949995055799
 30
0.0
 11
52.626121968030937
 21
46.449999976903257
 31
0.0
  0
LINE
  5
7582
  8
0
 10
52.626121968030908
 20
53.550000023096857
 30
0.0
 11
51.644337542355039
 21
55.250500049442088
 31
0.0
  0
LINE
  5
7583
  8
0
 10
58.154700502753244
 20
55.249999929219548
 30
0.0
 11
57.173204787075498
 21
53.550000023096857
 31
0.0
  0
LINE
  5
7584
  8
0
 10
57.173204787075527
 20
46.449999976903257
 30
0.0
 11
58.154700502753293
 21
44.75000007078058
 31
0.0
  0
ARC
  5
7585
  8
0
 10
60.500000104308107
 20
54.285786437626989
 30
0.0
 40
1.0
 50
0.0000000000008142
 51
44.999999999999943
  0
ARC
  5
7586
  8
0
 10
60.500000104308143
 20
45.71421356237316
 30
0.0
 40
1.0
 50
315.00000000000063
 51
0.0000000000008142
  0
LINE
  5
7587
  8
0
 10
34.199999824166291
 20
54.00000018998977
 30
0.0
 11
32.999999999999993
 21
52.799999900162192
 31
0.0
  0
LINE
  5
7588
  8
0
 10
33.000000000000021
 20
47.200000099837752
 30
0.0
 11
34.199999824166312
 21
45.999999810010159
 31
0.0
  0
LINE
  5
7589
  8
0
 10
42.500000160187469
 20
54.000000189989798
 30
0.0
 11
34.199999824166291
 21
54.00000018998977
 31
0.0
  0
LINE
  5
758A
  8
0
 10
34.199999824166312
 20
45.999999810010159
 30
0.0
 11
42.50000016018749
 21
45.999999810010188
 31
0.0
  0
ARC
  5
758B
  8
0
 10
43.100000104308137
 20
46.150000000000013
 30
0.0
 40
0.600000000000005
 50
90.0
 51
180.0
  0
ARC
  5
758C
  8
0
 10
43.100000104308108
 20
53.850000000000023
 30
0.0
 40
0.6000000000000015
 50
180.0
 51
270.00000000000171
  0
ARC
  5
758D
  8
0
 10
44.400000104308141
 20
46.150000000000013
 30
0.0
 40
0.6000000000000086
 50
0.0000000000008142
 51
90.0
  0
ARC
  5
758E
  8
0
 10
44.40000010430812
 20
53.850000000000023
 30
0.0
 40
0.5999999999999979
 50
270.0
 51
0.0000000000008142
  0
ARC
  5
758F
  8
0
 10
53.145737046633172
 20
46.150000000000041
 30
0.0
 40
0.6000000000000059
 50
90.0
 51
150.0000000000004
  0
ARC
  5
7590
  8
0
 10
53.145737046633137
 20
53.850000000000051
 30
0.0
 40
0.6000000000000059
 50
210.00000000000091
 51
270.0
  0
ARC
  5
7591
  8
0
 10
56.653589942794362
 20
46.150000000000063
 30
0.0
 40
0.6000000000000059
 50
29.999999999999581
 51
90.0
  0
ARC
  5
7592
  8
0
 10
56.653589942794341
 20
53.850000000000058
 30
0.0
 40
0.6000000000000023
 50
270.0
 51
330.00000000000102
  0
LINE
  5
7593
  8
0
 10
44.400000075809643
 20
53.250000067055261
 30
0.0
 11
43.100000072270618
 21
53.25000006705524
 31
0.0
  0
LINE
  5
7594
  8
0
 10
43.100000072270639
 20
46.749999932944789
 30
0.0
 11
44.400000075809672
 21
46.749999932944803
 31
0.0
  0
LINE
  5
7595
  8
0
 10
53.1457366347313
 20
46.749999932944831
 30
0.0
 11
56.653590120375171
 21
46.749999932944831
 31
0.0
  0
LINE
  5
7596
  8
0
 10
56.653590120375142
 20
53.250000067055282
 30
0.0
 11
53.145736634731279
 21
53.250000067055282
 31
0.0
  0
LINE
  5
7597
  8
0
 10
45.000000104308157
 20
42.69999982789161
 30
0.0
 11
45.000000104308093
 21
57.30000017210844
 31
0.0
  0
LINE
  5
7598
  8
0
 10
46.046224485151441
 20
57.499999832361972
 30
0.0
 11
46.046224485151498
 21
42.500000167638092
 31
0.0
  0
LINE
  5
7599
  8
0
 10
49.999999992549398
 20
55.989496130496292
 30
0.0
 11
49.999999992549448
 21
44.010503869503758
 31
0.0
  0
LINE
  5
759A
  8
0
 10
61.500000014901168
 20
45.714213699102487
 30
0.0
 11
61.500000014901147
 21
54.285786300897684
 31
0.0
  0
LINE
  5
759B
  8
0
 10
34.199999824166291
 20
54.00000018998977
 30
0.0
 11
34.199999824166312
 21
45.999999810010159
 31
0.0
  0
LINE
  5
759C
  8
0
 10
33.000000000000021
 20
47.200000099837752
 30
0.0
 11
32.999999999999993
 21
52.799999900162192
 31
0.0
  0
LINE
  5
759D
  8
0
 10
42.500000160187469
 20
54.000000189989798
 30
0.0
 11
42.50000016018749
 21
45.999999810010188
 31
0.0
  0
LINE
  5
759E
  8
0
 10
49.637818887829809
 20
43.529872968792937
 30
0.0
 11
49.637818887829752
 21
56.47012703120712
 31
0.0
  0
LINE
  5
759F
  8
0
 10
50.400000244379029
 20
55.500500090420289
 30
0.0
 11
50.400000244379072
 21
44.499499909579789
 31
0.0
  0
LINE
  5
75A0
  8
0
 10
51.211325164884357
 20
44.499499909579789
 30
0.0
 11
51.211325164884308
 21
55.500500090420289
 31
0.0
  0
LINE
  5
75A3
  8
0
 10
58.587713345885263
 20
55.499999970197742
 30
0.0
 11
58.587713345885312
 21
44.500000029802393
 31
0.0
  0
LINE
  5
75A4
  8
0
 10
60.492892928421533
 20
44.500000029802408
 30
0.0
 11
60.492892928421483
 21
55.499999970197763
 31
0.0
  0
LINE
  5
75A9
  8
0
 10
43.100000072270618
 20
53.25000006705524
 30
0.0
 11
43.100000072270639
 21
46.749999932944789
 31
0.0
  0
LINE
  5
75AA
  8
0
 10
44.400000075809672
 20
46.749999932944803
 30
0.0
 11
44.400000075809643
 21
53.250000067055261
 31
0.0
  0
LINE
  5
75AB
  8
0
 10
53.145736634731279
 20
53.250000067055282
 30
0.0
 11
53.1457366347313
 21
46.749999932944831
 31
0.0
  0
LINE
  5
75AC
  8
0
 10
56.653590120375171
 20
46.749999932944831
 30
0.0
 11
56.653590120375142
 21
53.250000067055282
 31
0.0
  0
LINE
  5
75AD
  8
1
 10
30.0
 20
50.0
 30
0.0
 11
64.500000014901147
 21
50.0
 31
0.0
  0
LINE
  5
75B0
  8
0
 10
94.133974619675413
 20
51.500000013038601
 30
0.0
 11
95.866025410126881
 21
51.500000013038601
 31
0.0
  0
POLYLINE
  5
75B1
  8
0
 66
     1
 10
0.0
 20
0.0
 30
0.0
 70
   128
  0
VERTEX
  5
765C
  8
0
 10
93.267949224449666
 20
50.000000000000078
 30
0.0
  0
VERTEX
  5
765D
  8
0
 10
93.494732674211235
 20
50.392800429836001
 30
0.0
  0
VERTEX
  5
765E
  8
0
 10
93.731679414398954
 20
50.803204253316011
 30
0.0
  0
VERTEX
  5
765F
  8
0
 10
93.933143579401062
 20
51.152150565758433
 30
0.0
  0
VERTEX
  5
7660
  8
0
 10
94.133974619675413
 20
51.500000013038601
 30
0.0
  0
SEQEND
  5
7661
  8
0
  0
POLYLINE
  5
75B2
  8
0
 66
     1
 10
0.0
 20
0.0
 30
0.0
 70
   128
  0
VERTEX
  5
7662
  8
0
 10
94.133974619675413
 20
48.499999986961569
 30
0.0
  0
VERTEX
  5
7663
  8
0
 10
93.907191228121505
 20
48.892800416797478
 30
0.0
  0
VERTEX
  5
7664
  8
0
 10
93.670244371518464
 20
49.303204298485149
 30
0.0
  0
VERTEX
  5
7665
  8
0
 10
93.468780206516371
 20
49.652150523616079
 30
0.0
  0
VERTEX
  5
7666
  8
0
 10
93.267949224449666
 20
50.000000000000078
 30
0.0
  0
SEQEND
  5
7667
  8
0
  0
LINE
  5
75B3
  8
0
 10
95.866025410126881
 20
48.499999986961569
 30
0.0
 11
94.133974619675413
 21
48.499999986961569
 31
0.0
  0
POLYLINE
  5
75B4
  8
0
 66
     1
 10
0.0
 20
0.0
 30
0.0
 70
   128
  0
VERTEX
  5
7668
  8
0
 10
95.866025410126881
 20
51.500000013038601
 30
0.0
  0
VERTEX
  5
7669
  8
0
 10
96.092808801680775
 20
51.107199583202679
 30
0.0
  0
VERTEX
  5
766A
  8
0
 10
96.329755658283815
 20
50.696795701515008
 30
0.0
  0
VERTEX
  5
766B
  8
0
 10
96.531219823285923
 20
50.347849476384077
 30
0.0
  0
VERTEX
  5
766C
  8
0
 10
96.732050805352614
 20
50.000000000000078
 30
0.0
  0
SEQEND
  5
766D
  8
0
  0
CIRCLE
  5
75B5
  8
0
 10
95.000000014901147
 20
50.000000000000078
 30
0.0
 40
2.0
  0
POLYLINE
  5
75B6
  8
0
 66
     1
 10
0.0
 20
0.0
 30
0.0
 70
   128
  0
VERTEX
  5
766E
  8
0
 10
96.732050805352614
 20
50.000000000000078
 30
0.0
  0
VERTEX
  5
766F
  8
0
 10
96.505267355591045
 20
49.60719957016417
 30
0.0
  0
VERTEX
  5
7670
  8
0
 10
96.268320615403326
 20
49.19679574668416
 30
0.0
  0
VERTEX
  5
7671
  8
0
 10
96.066856450401232
 20
48.847849434241738
 30
0.0
  0
VERTEX
  5
7672
  8
0
 10
95.866025410126881
 20
48.499999986961569
 30
0.0
  0
SEQEND
  5
7673
  8
0
  0
CIRCLE
  5
75B7
  8
0
 10
95.000000014901147
 20
50.000000000000078
 30
0.0
 40
5.5000000000000071
  0
ARC
  5
75B8
  8
0
 10
95.000000014901147
 20
50.000000000000071
 30
0.0
 40
1.5
 50
210.00000000000091
 51
270.0
  0
ARC
  5
75B9
  8
0
 10
95.000000014901147
 20
50.000000000000071
 30
0.0
 40
1.5
 50
270.0
 51
330.00000000000102
  0
ARC
  5
75BA
  8
0
 10
95.000000014901147
 20
50.000000000000071
 30
0.0
 40
1.5
 50
150.0000000000004
 51
210.00000000000091
  0
ARC
  5
75BB
  8
0
 10
95.000000014901147
 20
50.000000000000071
 30
0.0
 40
1.5
 50
330.00000000000102
 51
29.999999999999581
  0
ARC
  5
75BC
  8
0
 10
95.000000014901147
 20
50.000000000000071
 30
0.0
 40
1.5
 50
29.999999999999581
 51
90.0
  0
ARC
  5
75BD
  8
0
 10
95.000000014901147
 20
50.000000000000071
 30
0.0
 40
1.5
 50
90.0
 51
150.0000000000004
  0
CIRCLE
  5
75BE
  8
0
 10
95.000000014901147
 20
50.000000000000043
 30
0.0
 40
5.5004999999999953
  0
CIRCLE
  5
75BF
  8
0
 10
95.000000014901147
 20
50.000000000000028
 30
0.0
 40
7.5
  0
CIRCLE
  5
75C1
  8
0
 10
95.000000014901147
 20
50.000000000000078
 30
0.0
 40
4.2857864376269168
  0
CIRCLE
  5
75C5
  8
0
 10
95.000000014901147
 20
50.000000000000028
 30
0.0
 40
6.4701268941237151
  0
LINE
  5
75C8
  8
3
 10
42.812254122580967
 20
46.676499999999869
 30
0.0
 11
33.523500000000112
 21
46.676499999999898
 31
0.0
  0
LINE
  5
75C9
  8
3
 10
42.81225412258101
 20
53.323500000000109
 30
0.0
 11
33.523500000000098
 21
53.323500000000116
 31
0.0
  0
LINE
  5
75E1
  8
1
 10
84.500000014901147
 20
50.000000000000028
 30
0.0
 11
105.5000000149011
 21
50.000000000000028
 31
0.0
  0
LINE
  5
75E6
  8
1
 10
95.000000014901147
 20
60.500000000000028
 30
0.0
 11
95.000000014901147
 21
39.500000000000028
 31
0.0
  0
ENDSEC
  0
EOF
