  0
SECTION
  2
HEADER
  9
$ACADVER
  1
AC1009
  9
$INSBASE
 10
0.0
 20
0.0
 30
0.0
  9
$EXTMIN
 10
0.0
 20
-1.4802182810368341
 30
0.0
  9
$EXTMAX
 10
91.000000156449985
 20
58.499999999999943
 30
0.0
  9
$LIMMIN
 10
0.0
 20
0.0
  9
$LIMMAX
 10
12.0
 20
9.0
  9
$ORTHOMODE
 70
     1
  9
$REGENMODE
 70
     1
  9
$FILLMODE
 70
     1
  9
$QTEXTMODE
 70
     0
  9
$MIRRTEXT
 70
     0
  9
$DRAGMODE
 70
     2
  9
$LTSCALE
 40
5.0
  9
$OSMODE
 70
    37
  9
$ATTMODE
 70
     1
  9
$TEXTSIZE
 40
0.2
  9
$TRACEWID
 40
0.05
  9
$TEXTSTYLE
  7
STANDARD
  9
$CLAYER
  8
0
  9
$CELTYPE
  6
BYLAYER
  9
$CECOLOR
 62
   256
  9
$DIMSCALE
 40
1.0
  9
$DIMASZ
 40
0.18
  9
$DIMEXO
 40
0.0625
  9
$DIMDLI
 40
0.38
  9
$DIMRND
 40
0.0
  9
$DIMDLE
 40
0.0
  9
$DIMEXE
 40
0.18
  9
$DIMTP
 40
0.0
  9
$DIMTM
 40
0.0
  9
$DIMTXT
 40
2.6000000000000001
  9
$DIMCEN
 40
0.09
  9
$DIMTSZ
 40
0.0
  9
$DIMTOL
 70
     0
  9
$DIMLIM
 70
     0
  9
$DIMTIH
 70
     0
  9
$DIMTOH
 70
     0
  9
$DIMSE1
 70
     0
  9
$DIMSE2
 70
     0
  9
$DIMTAD
 70
     1
  9
$DIMZIN
 70
     8
  9
$DIMBLK
  1

  9
$DIMASO
 70
     1
  9
$DIMSHO
 70
     1
  9
$DIMPOST
  1

  9
$DIMAPOST
  1

  9
$DIMALT
 70
     0
  9
$DIMALTD
 70
     2
  9
$DIMALTF
 40
25.399999999999999
  9
$DIMLFAC
 40
1.0
  9
$DIMTOFL
 70
     0
  9
$DIMTVP
 40
0.0
  9
$DIMTIX
 70
     0
  9
$DIMSOXD
 70
     0
  9
$DIMSAH
 70
     0
  9
$DIMBLK1
  1

  9
$DIMBLK2
  1

  9
$DIMSTYLE
  2
STANDARD
  9
$DIMCLRD
 70
     0
  9
$DIMCLRE
 70
     0
  9
$DIMCLRT
 70
     0
  9
$DIMTFAC
 40
1.0
  9
$DIMGAP
 40
0.09
  9
$LUNITS
 70
     2
  9
$LUPREC
 70
     4
  9
$SKETCHINC
 40
0.1
  9
$FILLETRAD
 40
0.0
  9
$AUNITS
 70
     0
  9
$AUPREC
 70
     0
  9
$MENU
  1
.
  9
$ELEVATION
 40
0.0
  9
$PELEVATION
 40
0.0
  9
$THICKNESS
 40
0.0
  9
$LIMCHECK
 70
     0
  9
$BLIPMODE
 70
     0
  9
$CHAMFERA
 40
0.0
  9
$CHAMFERB
 40
0.0
  9
$SKPOLY
 70
     0
  9
$TDCREATE
 40
2453083.4120647679
  9
$TDUPDATE
 40
2458247.5718992939
  9
$TDINDWG
 40
0.7180721759000001
  9
$TDUSRTIMER
 40
0.7180720602
  9
$USRTIMER
 70
     1
  9
$ANGBASE
 50
0.0
  9
$ANGDIR
 70
     0
  9
$PDMODE
 70
     0
  9
$PDSIZE
 40
0.0
  9
$PLINEWID
 40
0.0
  9
$COORDS
 70
     1
  9
$SPLFRAME
 70
     0
  9
$SPLINETYPE
 70
     6
  9
$SPLINESEGS
 70
     8
  9
$ATTDIA
 70
     0
  9
$ATTREQ
 70
     1
  9
$HANDLING
 70
     1
  9
$HANDSEED
  5
790A
  9
$SURFTAB1
 70
     6
  9
$SURFTAB2
 70
     6
  9
$SURFTYPE
 70
     6
  9
$SURFU
 70
     6
  9
$SURFV
 70
     6
  9
$UCSNAME
  2

  9
$UCSORG
 10
0.0
 20
0.0
 30
0.0
  9
$UCSXDIR
 10
1.0
 20
0.0
 30
0.0
  9
$UCSYDIR
 10
0.0
 20
1.0
 30
0.0
  9
$PUCSNAME
  2

  9
$PUCSORG
 10
0.0
 20
0.0
 30
0.0
  9
$PUCSXDIR
 10
1.0
 20
0.0
 30
0.0
  9
$PUCSYDIR
 10
0.0
 20
1.0
 30
0.0
  9
$USERI1
 70
     0
  9
$USERI2
 70
     1
  9
$USERI3
 70
     0
  9
$USERI4
 70
     0
  9
$USERI5
 70
     0
  9
$USERR1
 40
0.0
  9
$USERR2
 40
0.0
  9
$USERR3
 40
0.0
  9
$USERR4
 40
0.0
  9
$USERR5
 40
0.0
  9
$WORLDVIEW
 70
     1
  9
$SHADEDGE
 70
     3
  9
$SHADEDIF
 70
    70
  9
$TILEMODE
 70
     1
  9
$MAXACTVP
 70
    64
  9
$PLIMCHECK
 70
     0
  9
$PEXTMIN
 10
0.0
 20
0.0
 30
0.0
  9
$PEXTMAX
 10
0.0
 20
0.0
 30
0.0
  9
$PLIMMIN
 10
0.0
 20
0.0
  9
$PLIMMAX
 10
12.0
 20
9.0
  9
$UNITMODE
 70
     0
  9
$VISRETAIN
 70
     1
  9
$PLINEGEN
 70
     0
  9
$PSLTSCALE
 70
     1
  0
ENDSEC
  0
SECTION
  2
TABLES
  0
TABLE
  2
VPORT
 70
     1
  0
VPORT
  2
*ACTIVE
 70
     0
 10
0.0
 20
0.0
 11
1.0
 21
1.0
 12
87.307660562349767
 22
28.51004772251267
 13
0.0
 23
0.0
 14
0.5
 24
0.5
 15
0.5
 25
0.5
 16
0.0
 26
0.0
 36
1.0
 17
0.0
 27
0.0
 37
0.0
 40
67.339466586711453
 41
2.6019575856443709
 42
50.0
 43
0.0
 44
0.0
 50
0.0
 51
0.0
 71
     0
 72
  1000
 73
     1
 74
     2
 75
     0
 76
     0
 77
     0
 78
     0
  0
ENDTAB
  0
TABLE
  2
LTYPE
 70
     3
  0
LTYPE
  2
CONTINUOUS
 70
     0
  3
Solid Line
 72
    65
 73
     0
 40
0.0
  0
LTYPE
  2
CENTER
 70
     0
  3
____ _ ____ _ ____ _ ____ _ ____ _ ____ _ ____
 72
    65
 73
     4
 40
2.0
 49
1.25
 49
-0.25
 49
0.25
 49
-0.25
  0
LTYPE
  2
PHANTOM2
 70
     0
  3
___ _ _ ___ _ _ ___ _ _ ___ _ _
 72
    65
 73
     6
 40
1.25
 49
0.625
 49
-0.125
 49
0.125
 49
-0.125
 49
0.125
 49
-0.125
  0
ENDTAB
  0
TABLE
  2
LAYER
 70
     4
  0
LAYER
  2
0
 70
     0
 62
     7
  6
CONTINUOUS
  0
LAYER
  2
1
 70
     0
 62
     1
  6
CENTER
  0
LAYER
  2
DEFPOINTS
 70
     0
 62
     7
  6
CONTINUOUS
  0
LAYER
  2
3
 70
     0
 62
     3
  6
CONTINUOUS
  0
ENDTAB
  0
TABLE
  2
STYLE
 70
     2
  0
STYLE
  2
STANDARD
 70
     0
 40
0.0
 41
1.0
 50
0.0
 71
     0
 42
0.2
  3
simplex.shx
  4
bigfont.shx
  0
STYLE
  2
STANDARD1
 70
     0
 40
0.0
 41
1.0
 50
0.0
 71
     0
 42
3.0
  3
txt
  4

  0
ENDTAB
  0
TABLE
  2
VIEW
 70
     0
  0
ENDTAB
  0
TABLE
  2
UCS
 70
     0
  0
ENDTAB
  0
TABLE
  2
APPID
 70
     5
  0
APPID
  2
ACAD
 70
     0
  0
APPID
  2
ACAD_MLEADERVER
 70
     0
  0
APPID
  2
ACAD_NAV_VCDISPLAY
 70
     0
  0
APPID
  2
ACAD_EXEMPT_FROM_CAD_STANDARDS
 70
     0
  0
APPID
  2
ACAD_DSTYLE_DIMRADIAL_EXTENSION
 70
     0
  0
ENDTAB
  0
TABLE
  2
DIMSTYLE
 70
     1
  0
DIMSTYLE
  2
STANDARD
 70
     0
  3

  4

  5

  6

  7

 40
1.0
 41
0.18
 42
0.0625
 43
0.38
 44
0.18
 45
0.0
 46
0.0
 47
0.0
 48
0.0
140
2.6000000000000001
141
0.09
142
0.0
143
25.399999999999999
144
1.0
145
0.0
146
1.0
147
0.09
 71
     0
 72
     0
 73
     0
 74
     0
 75
     0
 76
     0
 77
     1
 78
     8
170
     0
171
     2
172
     0
173
     0
174
     0
175
     0
176
     0
177
     0
178
     0
  0
ENDTAB
  0
ENDSEC
  0
SECTION
  2
BLOCKS
  0
BLOCK
  8
0
  2
$MODEL_SPACE
 70
     0
 10
0.0
 20
0.0
 30
0.0
  3
$MODEL_SPACE
  1

  0
ENDBLK
  5
21
  8
0
  0
BLOCK
 67
     1
  8
0
  2
$PAPER_SPACE
 70
     0
 10
0.0
 20
0.0
 30
0.0
  3
$PAPER_SPACE
  1

  0
ENDBLK
  5
5B
 67
     1
  8
0
  0
ENDSEC
  0
SECTION
  2
ENTITIES
  0
TEXT
  5
1F01
  8
0
 62
     3
 10
0.0
 20
0.0
 30
0.0
 40
5.0
  1
CP156-06001
  7
STANDARD1
  0
LINE
  5
76AA
  8
0
 10
41.2000003749
 20
55.499999970199987
 30
0.0
 11
41.000000379949988
 21
55.299999844299982
 31
0.0
  0
LINE
  5
76AB
  8
0
 10
41.000000379949988
 20
44.700000155700003
 30
0.0
 11
41.2000003749
 21
44.500000029799992
 31
0.0
  0
LINE
  5
76AC
  8
0
 10
42.046224760799987
 20
55.499999970199987
 30
0.0
 11
41.2000003749
 21
55.499999970199987
 31
0.0
  0
LINE
  5
76AD
  8
0
 10
41.2000003749
 20
44.500000029799992
 30
0.0
 11
42.046224760799987
 21
44.500000029799992
 31
0.0
  0
LINE
  5
76AE
  8
0
 10
42.046224760799987
 20
44.500000029799992
 30
0.0
 11
44.637818999599993
 21
45.24312792344999
 31
0.0
  0
LINE
  5
76AF
  8
0
 10
44.637818999599993
 20
54.756872076549989
 30
0.0
 11
42.046224760799987
 21
55.499999970199987
 31
0.0
  0
ARC
  5
76B0
  8
0
 10
44.500000379949988
 20
54.27624143189999
 30
0.0
 40
0.5000000000000046
 50
0.0
 51
74.000000000000114
  0
ARC
  5
76B1
  8
0
 10
44.500000379949988
 20
45.723758568099989
 30
0.0
 40
0.4999999999999977
 50
285.99999999999989
 51
0.0
  0
ARC
  5
76B2
  8
0
 10
49.01243594524999
 20
46.5
 30
0.0
 40
0.5
 50
209.9999999999996
 51
270.0
  0
ARC
  5
76B3
  8
0
 10
49.01243594524999
 20
53.5
 30
0.0
 40
0.5
 50
90.0
 51
150.0000000000004
  0
LINE
  5
76B4
  8
0
 10
50.500000074500001
 20
54.000000190000002
 30
0.0
 11
49.012435778949992
 21
54.000000190000002
 31
0.0
  0
LINE
  5
76B5
  8
0
 10
49.012435778949992
 20
45.999999809999998
 30
0.0
 11
50.500000074500001
 21
45.999999809999998
 31
0.0
  0
ARC
  5
76B6
  8
0
 10
50.500000379949988
 20
53.5
 30
0.0
 40
0.5
 50
0.0
 51
90.0
  0
ARC
  5
76B7
  8
0
 10
50.500000379949988
 20
46.5
 30
0.0
 40
0.5
 50
270.0
 51
0.0
  0
LINE
  5
76B8
  8
0
 10
48.579423401500001
 20
53.749999916149982
 30
0.0
 11
47.91547049954999
 21
52.600000007049999
 31
0.0
  0
LINE
  5
76B9
  8
0
 10
47.91547049954999
 20
47.399999992899993
 30
0.0
 11
48.579423401500001
 21
46.250000083799982
 31
0.0
  0
ARC
  5
76BA
  8
0
 10
46.000000379949988
 20
53.399999999999991
 30
0.0
 40
1.0
 50
180.0
 51
270.0
  0
ARC
  5
76BB
  8
0
 10
46.000000379949988
 20
46.599999999999987
 30
0.0
 40
1.0000000000000071
 50
90.0
 51
180.0
  0
LINE
  5
76BC
  8
0
 10
34.00000016389999
 20
53.000000026049989
 30
0.0
 11
33.0
 21
52.000000094999997
 31
0.0
  0
LINE
  5
76BD
  8
0
 10
33.0
 20
47.999999904999989
 30
0.0
 11
34.00000016389999
 21
46.999999973899989
 31
0.0
  0
LINE
  5
76BE
  8
0
 10
39.000000284999999
 20
53.000000026049989
 30
0.0
 11
34.00000016389999
 21
53.000000026049989
 31
0.0
  0
LINE
  5
76BF
  8
0
 10
34.00000016389999
 20
46.999999973899989
 30
0.0
 11
39.000000284999999
 21
46.999999973899989
 31
0.0
  0
ARC
  5
76C0
  8
0
 10
39.400000379950001
 20
47.25
 30
0.0
 40
0.4000000000000057
 50
90.0
 51
180.0
  0
ARC
  5
76C1
  8
0
 10
39.400000379950001
 20
52.75
 30
0.0
 40
0.3999999999999986
 50
180.0
 51
270.0
  0
ARC
  5
76C2
  8
0
 10
40.600000379949989
 20
47.25
 30
0.0
 40
0.4000000000000057
 50
0.0
 51
90.0
  0
ARC
  5
76C3
  8
0
 10
40.600000379949989
 20
52.75
 30
0.0
 40
0.3999999999999986
 50
270.0
 51
0.0
  0
ARC
  5
76C4
  8
0
 10
47.569060272299993
 20
52.799999999999997
 30
0.0
 40
0.4000000000000057
 50
270.0
 51
330.00000000000051
  0
ARC
  5
76C5
  8
0
 10
47.569060272299993
 20
47.200000000000003
 30
0.0
 40
0.3999999999999986
 50
29.999999999999581
 51
90.0
  0
LINE
  5
76C6
  8
0
 10
47.569060411300001
 20
52.400000113999987
 30
0.0
 11
46.000000268199997
 21
52.400000113999987
 31
0.0
  0
LINE
  5
76C7
  8
0
 10
46.000000268199997
 20
47.599999885999992
 30
0.0
 11
47.569060411300001
 21
47.599999885999992
 31
0.0
  0
LINE
  5
76C8
  8
0
 10
40.6000003901
 20
52.3499999661
 30
0.0
 11
39.400000420399998
 21
52.3499999661
 31
0.0
  0
LINE
  5
76C9
  8
0
 10
39.400000420399998
 20
47.650000033899993
 30
0.0
 11
40.6000003901
 21
47.650000033899993
 31
0.0
  0
LINE
  5
76CB
  8
0
 10
41.000000379949988
 20
44.700000155700003
 30
0.0
 11
41.000000379949988
 21
55.299999844299982
 31
0.0
  0
LINE
  5
76CC
  8
0
 10
42.046224760799987
 20
55.499999970199987
 30
0.0
 11
42.046224760799987
 21
44.500000029799992
 31
0.0
  0
LINE
  5
76CD
  8
0
 10
45.000000569949989
 20
45.723758358499992
 30
0.0
 11
45.000000569949989
 21
54.2762416415
 31
0.0
  0
LINE
  5
76CE
  8
0
 10
51.000000156449978
 20
46.49999989194999
 30
0.0
 11
51.000000156449978
 21
53.500000108049989
 31
0.0
  0
LINE
  5
76CF
  8
0
 10
34.00000016389999
 20
53.000000026049989
 30
0.0
 11
34.00000016389999
 21
46.999999973899989
 31
0.0
  0
LINE
  5
76D0
  8
0
 10
33.0
 20
47.999999904999989
 30
0.0
 11
33.0
 21
52.000000094999997
 31
0.0
  0
LINE
  5
76D1
  8
0
 10
39.000000284999999
 20
53.000000026049989
 30
0.0
 11
39.000000284999999
 21
46.999999973899989
 31
0.0
  0
LINE
  5
76D2
  8
0
 10
44.637818999599993
 20
45.24312792344999
 30
0.0
 11
44.637818999599993
 21
54.756872076549989
 31
0.0
  0
LINE
  5
76D3
  8
0
 10
49.012435778949992
 20
54.000000190000002
 30
0.0
 11
49.012435778949992
 21
45.999999809999998
 31
0.0
  0
LINE
  5
76D5
  8
0
 10
50.500000074500001
 20
45.999999809999998
 30
0.0
 11
50.500000074500001
 21
54.000000190000002
 31
0.0
  0
LINE
  5
76D7
  8
0
 10
46.000000268199997
 20
52.400000113999987
 30
0.0
 11
46.000000268199997
 21
47.599999885999992
 31
0.0
  0
LINE
  5
76D8
  8
0
 10
39.400000420399998
 20
52.3499999661
 30
0.0
 11
39.400000420399998
 21
47.650000033899993
 31
0.0
  0
LINE
  5
76D9
  8
0
 10
40.6000003901
 20
47.650000033899993
 30
0.0
 11
40.6000003901
 21
52.3499999661
 31
0.0
  0
LINE
  5
76DA
  8
0
 10
47.569060411300001
 20
47.599999885999992
 30
0.0
 11
47.569060411300001
 21
52.400000113999987
 31
0.0
  0
CIRCLE
  5
76DF
  8
0
 10
82.500000156449985
 20
50.0
 30
0.0
 40
4.0
  0
CIRCLE
  5
76E0
  8
0
 10
82.500000156449985
 20
50.0
 30
0.0
 40
1.7000000000000031
  0
LINE
  5
76E2
  8
0
 10
81.778312297949981
 20
51.249999972049991
 30
0.0
 11
83.221688014899968
 21
51.249999972049991
 31
0.0
  0
LINE
  5
76E5
  8
0
 10
83.221688014899968
 20
48.750000027950009
 30
0.0
 11
81.778312297949981
 21
48.750000027950009
 31
0.0
  0
CIRCLE
  5
76ED
  8
0
 10
82.500000156449985
 20
50.0
 30
0.0
 40
5.4999999999999947
  0
CIRCLE
  5
76EE
  8
0
 10
82.500000156449985
 20
50.0
 30
0.0
 40
3.5
  0
CIRCLE
  5
76EF
  8
0
 10
82.500000156449985
 20
50.0
 30
0.0
 40
4.2762414319134257
  0
CIRCLE
  5
76F0
  8
0
 10
82.500000156449985
 20
50.0
 30
0.0
 40
4.7568722798825993
  0
LINE
  5
7781
  8
1
 10
30.0
 20
50.0
 30
0.0
 11
54.000000156449978
 21
49.999999999999993
 31
0.0
  0
LINE
  5
7782
  8
1
 10
74.000000156449985
 20
49.999999999999943
 30
0.0
 11
91.000000156449985
 21
49.999999999999943
 31
0.0
  0
LINE
  5
7783
  8
1
 10
82.500000156449985
 20
58.499999999999943
 30
0.0
 11
82.500000156449985
 21
41.499999999999943
 31
0.0
  0
LINE
  5
7791
  8
3
 10
39.126088469322262
 20
52.458499973900068
 30
0.0
 11
33.458499985661781
 21
52.458499973900089
 31
0.0
  0
LINE
  5
7792
  8
3
 10
39.126088413770418
 20
47.541499973899903
 30
0.0
 11
33.45850003783886
 21
47.541499973899889
 31
0.0
  0
CIRCLE
  5
7831
  8
0
 10
82.509015828904694
 20
49.999999999999943
 30
0.0
 40
1.249999972049934
  0
LINE
  5
7879
  8
0
 10
81.056624439499984
 20
50.0
 30
0.0
 11
81.778312297949981
 21
51.249999972049991
 31
0.0
  0
LINE
  5
787A
  8
0
 10
81.056624439499984
 20
49.999999999999893
 30
0.0
 11
81.778312297949981
 21
48.750000027949902
 31
0.0
  0
LINE
  5
787B
  8
0
 10
83.943375873399987
 20
50.0
 30
0.0
 11
83.22168801494999
 21
51.249999972049991
 31
0.0
  0
LINE
  5
787C
  8
0
 10
83.943375873399987
 20
49.999999999999893
 30
0.0
 11
83.22168801494999
 21
48.750000027949902
 31
0.0
  0
ENDSEC
  0
EOF
