  0
SECTION
  2
HEADER
  9
$ACADVER
  1
AC1009
  9
$INSBASE
 10
0.0
 20
0.0
 30
0.0
  9
$EXTMIN
 10
0.0
 20
-1.4802182810368341
 30
0.0
  9
$EXTMAX
 10
281.5000000894002028
 20
131.5
 30
0.0
  9
$LIMMIN
 10
0.0
 20
0.0
  9
$LIMMAX
 10
12.0
 20
9.0
  9
$ORTHOMODE
 70
     1
  9
$REGENMODE
 70
     1
  9
$FILLMODE
 70
     1
  9
$QTEXTMODE
 70
     0
  9
$MIRRTEXT
 70
     0
  9
$DRAGMODE
 70
     2
  9
$LTSCALE
 40
5.0
  9
$OSMODE
 70
    37
  9
$ATTMODE
 70
     1
  9
$TEXTSIZE
 40
0.2
  9
$TRACEWID
 40
0.05
  9
$TEXTSTYLE
  7
STANDARD
  9
$CLAYER
  8
0
  9
$CELTYPE
  6
BYLAYER
  9
$CECOLOR
 62
   256
  9
$DIMSCALE
 40
1.0
  9
$DIMASZ
 40
0.18
  9
$DIMEXO
 40
0.0625
  9
$DIMDLI
 40
0.38
  9
$DIMRND
 40
0.0
  9
$DIMDLE
 40
0.0
  9
$DIMEXE
 40
0.18
  9
$DIMTP
 40
0.0
  9
$DIMTM
 40
0.0
  9
$DIMTXT
 40
2.6000000000000001
  9
$DIMCEN
 40
0.09
  9
$DIMTSZ
 40
0.0
  9
$DIMTOL
 70
     0
  9
$DIMLIM
 70
     0
  9
$DIMTIH
 70
     0
  9
$DIMTOH
 70
     0
  9
$DIMSE1
 70
     0
  9
$DIMSE2
 70
     0
  9
$DIMTAD
 70
     1
  9
$DIMZIN
 70
     8
  9
$DIMBLK
  1

  9
$DIMASO
 70
     1
  9
$DIMSHO
 70
     1
  9
$DIMPOST
  1

  9
$DIMAPOST
  1

  9
$DIMALT
 70
     0
  9
$DIMALTD
 70
     2
  9
$DIMALTF
 40
25.3999999999999986
  9
$DIMLFAC
 40
1.0
  9
$DIMTOFL
 70
     0
  9
$DIMTVP
 40
0.0
  9
$DIMTIX
 70
     0
  9
$DIMSOXD
 70
     0
  9
$DIMSAH
 70
     0
  9
$DIMBLK1
  1

  9
$DIMBLK2
  1

  9
$DIMSTYLE
  2
STANDARD
  9
$DIMCLRD
 70
     0
  9
$DIMCLRE
 70
     0
  9
$DIMCLRT
 70
     0
  9
$DIMTFAC
 40
1.0
  9
$DIMGAP
 40
0.09
  9
$LUNITS
 70
     2
  9
$LUPREC
 70
     4
  9
$SKETCHINC
 40
0.1
  9
$FILLETRAD
 40
0.0
  9
$AUNITS
 70
     0
  9
$AUPREC
 70
     0
  9
$MENU
  1
.
  9
$ELEVATION
 40
0.0
  9
$PELEVATION
 40
0.0
  9
$THICKNESS
 40
0.0
  9
$LIMCHECK
 70
     0
  9
$BLIPMODE
 70
     0
  9
$CHAMFERA
 40
0.0
  9
$CHAMFERB
 40
0.0
  9
$SKPOLY
 70
     0
  9
$TDCREATE
 40
2453083.4120601848699152
  9
$TDUPDATE
 40
2460139.5734143517911434
  9
$TDINDWG
 40
0.729892662
  9
$TDUSRTIMER
 40
0.7298925463
  9
$USRTIMER
 70
     1
  9
$ANGBASE
 50
0.0
  9
$ANGDIR
 70
     0
  9
$PDMODE
 70
     0
  9
$PDSIZE
 40
0.0
  9
$PLINEWID
 40
0.0
  9
$COORDS
 70
     1
  9
$SPLFRAME
 70
     0
  9
$SPLINETYPE
 70
     6
  9
$SPLINESEGS
 70
     8
  9
$ATTDIA
 70
     1
  9
$ATTREQ
 70
     1
  9
$HANDLING
 70
     1
  9
$HANDSEED
  5
7C7B
  9
$SURFTAB1
 70
     6
  9
$SURFTAB2
 70
     6
  9
$SURFTYPE
 70
     6
  9
$SURFU
 70
     6
  9
$SURFV
 70
     6
  9
$UCSNAME
  2

  9
$UCSORG
 10
0.0
 20
0.0
 30
0.0
  9
$UCSXDIR
 10
1.0
 20
0.0
 30
0.0
  9
$UCSYDIR
 10
0.0
 20
1.0
 30
0.0
  9
$PUCSNAME
  2

  9
$PUCSORG
 10
0.0
 20
0.0
 30
0.0
  9
$PUCSXDIR
 10
1.0
 20
0.0
 30
0.0
  9
$PUCSYDIR
 10
0.0
 20
1.0
 30
0.0
  9
$USERI1
 70
     0
  9
$USERI2
 70
     1
  9
$USERI3
 70
     0
  9
$USERI4
 70
     0
  9
$USERI5
 70
     0
  9
$USERR1
 40
0.0
  9
$USERR2
 40
0.0
  9
$USERR3
 40
0.0
  9
$USERR4
 40
0.0
  9
$USERR5
 40
0.0
  9
$WORLDVIEW
 70
     1
  9
$SHADEDGE
 70
     3
  9
$SHADEDIF
 70
    70
  9
$TILEMODE
 70
     1
  9
$MAXACTVP
 70
    64
  9
$PLIMCHECK
 70
     0
  9
$PEXTMIN
 10
0.0
 20
0.0
 30
0.0
  9
$PEXTMAX
 10
0.0
 20
0.0
 30
0.0
  9
$PLIMMIN
 10
0.0
 20
0.0
  9
$PLIMMAX
 10
12.0
 20
9.0
  9
$UNITMODE
 70
     0
  9
$VISRETAIN
 70
     1
  9
$PLINEGEN
 70
     0
  9
$PSLTSCALE
 70
     1
  0
ENDSEC
  0
SECTION
  2
TABLES
  0
TABLE
  2
VPORT
 70
     1
  0
VPORT
  2
*ACTIVE
 70
     0
 10
0.0
 20
0.0
 11
1.0
 21
1.0
 12
292.1201382541963767
 22
65.0085232622975724
 13
0.0
 23
0.0
 14
0.5
 24
0.5
 15
0.5
 25
0.5
 16
0.0
 26
0.0
 36
1.0
 17
0.0
 27
0.0
 37
0.0
 40
249.5465666697442941
 41
2.3485221674876842
 42
50.0
 43
0.0
 44
0.0
 50
0.0
 51
0.0
 71
     0
 72
  1000
 73
     1
 74
     2
 75
     0
 76
     0
 77
     0
 78
     0
  0
ENDTAB
  0
TABLE
  2
LTYPE
 70
     3
  0
LTYPE
  2
CONTINUOUS
 70
     0
  3
Solid Line
 72
    65
 73
     0
 40
0.0
  0
LTYPE
  2
CENTER
 70
     0
  3
____ _ ____ _ ____ _ ____ _ ____ _ ____ _ ____
 72
    65
 73
     4
 40
2.0
 49
1.25
 49
-0.25
 49
0.25
 49
-0.25
  0
LTYPE
  2
PHANTOM2
 70
     0
  3
___ _ _ ___ _ _ ___ _ _ ___ _ _
 72
    65
 73
     6
 40
1.25
 49
0.625
 49
-0.125
 49
0.125
 49
-0.125
 49
0.125
 49
-0.125
  0
ENDTAB
  0
TABLE
  2
LAYER
 70
     4
  0
LAYER
  2
0
 70
     0
 62
     7
  6
CONTINUOUS
  0
LAYER
  2
1
 70
     0
 62
     1
  6
CENTER
  0
LAYER
  2
DEFPOINTS
 70
     0
 62
     7
  6
CONTINUOUS
  0
LAYER
  2
3
 70
     0
 62
     3
  6
CONTINUOUS
  0
ENDTAB
  0
TABLE
  2
STYLE
 70
     2
  0
STYLE
  2
STANDARD
 70
     0
 40
0.0
 41
1.0
 50
0.0
 71
     0
 42
0.2
  3
simplex.shx
  4
bigfont.shx
  0
STYLE
  2
STANDARD1
 70
     0
 40
0.0
 41
1.0
 50
0.0
 71
     0
 42
3.0
  3
txt
  4

  0
ENDTAB
  0
TABLE
  2
VIEW
 70
     0
  0
ENDTAB
  0
TABLE
  2
UCS
 70
     0
  0
ENDTAB
  0
TABLE
  2
APPID
 70
     5
  0
APPID
  2
ACAD
 70
     0
  0
APPID
  2
ACAD_MLEADERVER
 70
     0
  0
APPID
  2
ACAD_NAV_VCDISPLAY
 70
     0
  0
APPID
  2
ACAD_EXEMPT_FROM_CAD_STANDARDS
 70
     0
  0
APPID
  2
ACAD_DSTYLE_DIMRADIAL_EXTENSION
 70
     0
  0
ENDTAB
  0
TABLE
  2
DIMSTYLE
 70
     1
  0
DIMSTYLE
  2
STANDARD
 70
     0
  3

  4

  5

  6

  7

 40
1.0
 41
0.18
 42
0.0625
 43
0.38
 44
0.18
 45
0.0
 46
0.0
 47
0.0
 48
0.0
140
2.6000000000000001
141
0.09
142
0.0
143
25.3999999999999986
144
1.0
145
0.0
146
1.0
147
0.09
 71
     0
 72
     0
 73
     0
 74
     0
 75
     0
 76
     0
 77
     1
 78
     8
170
     0
171
     2
172
     0
173
     0
174
     0
175
     0
176
     0
177
     0
178
     0
  0
ENDTAB
  0
ENDSEC
  0
SECTION
  2
BLOCKS
  0
BLOCK
  8
0
  2
$MODEL_SPACE
 70
     0
 10
0.0
 20
0.0
 30
0.0
  3
$MODEL_SPACE
  1

  0
ENDBLK
  5
21
  8
0
  0
BLOCK
 67
     1
  8
0
  2
$PAPER_SPACE
 70
     0
 10
0.0
 20
0.0
 30
0.0
  3
$PAPER_SPACE
  1

  0
ENDBLK
  5
5B
 67
     1
  8
0
  0
ENDSEC
  0
SECTION
  2
ENTITIES
  0
TEXT
  5
1F01
  8
0
 62
     3
 10
0.0
 20
0.0
 30
0.0
 40
5.0
  1
CP155-20001LS
  7
STANDARD1
  0
LINE
  5
7B8C
  8
0
 10
78.0000025034000259
 20
121.5000005067000046
 30
0.0
 11
77.0000023395000142
 21
120.500000342800007
 31
0.0
  0
LINE
  5
7B8D
  8
0
 10
77.0000023395000142
 20
59.4999996573000018
 30
0.0
 11
78.0000025034000259
 21
58.4999994934000185
 31
0.0
  0
LINE
  5
7B8E
  8
0
 10
106.0000016214000027
 20
58.4999994934000185
 30
0.0
 11
107.0000016688999978
 21
59.4999996573000018
 31
0.0
  0
LINE
  5
7B8F
  8
0
 10
107.0000016688999978
 20
120.500000342800007
 30
0.0
 11
106.0000016214000027
 21
121.5000005067000046
 31
0.0
  0
LINE
  5
7B90
  8
0
 10
106.0000016214000027
 20
121.5000005067000046
 30
0.0
 11
78.0000025034000259
 21
121.5000005067000046
 31
0.0
  0
LINE
  5
7B91
  8
0
 10
78.0000025034000259
 20
58.4999994934000185
 30
0.0
 11
106.0000016214000027
 21
58.4999994934000185
 31
0.0
  0
LINE
  5
7B92
  8
0
 10
108.3949674712000046
 20
112.0999997108999935
 30
0.0
 11
107.2000016638999966
 21
112.0999997108999935
 31
0.0
  0
LINE
  5
7B93
  8
0
 10
107.2000016638999966
 20
67.9000002891000065
 30
0.0
 11
108.3949674712000046
 21
67.9000002891000065
 31
0.0
  0
LINE
  5
7B94
  8
0
 10
108.3949674712000046
 20
67.9000002891000065
 30
0.0
 11
117.8269134461999954
 21
70.6045666337000171
 31
0.0
  0
LINE
  5
7B95
  8
0
 10
117.8269134461999954
 20
109.3954333662999971
 30
0.0
 11
108.3949674712000046
 21
112.0999997108999935
 31
0.0
  0
LINE
  5
7B96
  8
0
 10
107.2000016638999966
 20
112.0999997108999935
 30
0.0
 11
107.0000016688999978
 21
111.900000050700001
 31
0.0
  0
LINE
  5
7B97
  8
0
 10
107.0000016688999978
 20
68.0999999494000008
 30
0.0
 11
107.2000016638999966
 21
67.9000002891000065
 31
0.0
  0
ARC
  5
7B98
  8
0
 10
117.0000016688999978
 20
106.5116478349000033
 30
0.0
 40
3.0000000000000031
 50
0.0
 51
73.9999999999982521
  0
ARC
  5
7B99
  8
0
 10
117.0000016688999978
 20
73.4883521652000127
 30
0.0
 40
3.0000000000000031
 50
286.000000000001819
 51
0.0
  0
LINE
  5
7B9A
  8
0
 10
77.0000023395000142
 20
104.9999996648000007
 30
0.0
 11
71.0000032185999999
 21
104.9999996648000007
 31
0.0
  0
LINE
  5
7B9B
  8
0
 10
71.0000032185999999
 20
75.0000003353000011
 30
0.0
 11
77.0000023395000142
 21
75.0000003353000011
 31
0.0
  0
LINE
  5
7B9C
  8
0
 10
71.0000032185999999
 20
104.9999996648000007
 30
0.0
 11
69.5000001787999935
 21
104.1339749098000027
 31
0.0
  0
LINE
  5
7B9D
  8
0
 10
69.5000001787999935
 20
75.8660250901999973
 30
0.0
 11
71.0000032185999999
 21
75.0000003353000011
 31
0.0
  0
ARC
  5
7B9E
  8
0
 10
123.4226513997000012
 20
105.5
 30
0.0
 40
1.0
 50
30.0000000000008491
 51
90.0
  0
ARC
  5
7B9F
  8
0
 10
123.4226513997000012
 20
74.5000000000000142
 30
0.0
 40
1.0000000000000071
 50
270.0
 51
329.9999999999990905
  0
LINE
  5
7BA0
  8
0
 10
120.5000020190999948
 20
106.4999999105999962
 30
0.0
 11
120.0000019370999951
 21
106.000000760000006
 31
0.0
  0
LINE
  5
7BA1
  8
0
 10
120.0000019370999951
 20
73.99999924010001
 30
0.0
 11
120.5000020190999948
 21
73.5000000894000038
 31
0.0
  0
LINE
  5
7BA2
  8
0
 10
123.4226515144000018
 20
106.4999999105999962
 30
0.0
 11
120.5000020190999948
 21
106.4999999105999962
 31
0.0
  0
LINE
  5
7BA3
  8
0
 10
120.5000020190999948
 20
73.5000000894000038
 30
0.0
 11
123.4226515144000018
 21
73.5000000894000038
 31
0.0
  0
LINE
  5
7BA4
  8
0
 10
124.2886772006000058
 20
73.99999924010001
 30
0.0
 11
127.7527780830999973
 21
80.0000002235000238
 31
0.0
  0
LINE
  5
7BA5
  8
0
 10
127.7527780830999973
 20
99.9999997765000046
 30
0.0
 11
124.2886772006000058
 21
106.000000760000006
 31
0.0
  0
ARC
  5
7BA6
  8
0
 10
145.500001668900012
 20
101.75
 30
0.0
 40
3.000000000000028
 50
0.0
 51
90.0
  0
ARC
  5
7BA7
  8
0
 10
145.500001668900012
 20
78.2500000000000142
 30
0.0
 40
3.000000000000028
 50
270.0
 51
0.0
  0
LINE
  5
7BA8
  8
0
 10
141.3971157372000107
 20
75.2499999105999962
 30
0.0
 11
145.5000014603000125
 21
75.2499999105999962
 31
0.0
  0
LINE
  5
7BA9
  8
0
 10
145.5000014603000125
 20
104.7500000894000038
 30
0.0
 11
141.3971157372000107
 21
104.7500000894000038
 31
0.0
  0
ARC
  5
7BAA
  8
0
 10
141.3971159859000011
 20
103.75
 30
0.0
 40
1.0000000000000071
 50
90.0
 51
150.0000000000001137
  0
ARC
  5
7BAB
  8
0
 10
141.3971159859000011
 20
76.2500000000000284
 30
0.0
 40
1.0000000000000071
 50
209.9999999999998863
 51
270.0
  0
LINE
  5
7BAC
  8
0
 10
140.5310900508999907
 20
104.2500000075000059
 30
0.0
 11
137.788676619499995
 21
99.4999996946000351
 31
0.0
  0
LINE
  5
7BAD
  8
0
 10
137.788676619499995
 20
80.5000003054999951
 30
0.0
 11
140.5310900508999907
 21
75.74999999260001
 31
0.0
  0
ARC
  5
7BAE
  8
0
 10
129.4848292261999916
 20
79.0000000000000284
 30
0.0
 40
2.0000000000000151
 50
90.0
 51
150.0000000000001137
  0
ARC
  5
7BAF
  8
0
 10
129.4848292261999916
 20
101.0
 30
0.0
 40
2.0000000000000151
 50
209.9999999999998863
 51
270.0
  0
LINE
  5
7BB0
  8
0
 10
69.5000001787999935
 20
99.9999997765000046
 30
0.0
 11
42.5000050664
 21
99.9999997765000046
 31
0.0
  0
LINE
  5
7BB1
  8
0
 10
42.5000050664
 20
80.0000002235000238
 30
0.0
 11
69.5000001787999935
 21
80.0000002235000238
 31
0.0
  0
LINE
  5
7BB2
  8
0
 10
42.5000050664
 20
99.9999997765000046
 30
0.0
 11
40.0
 21
97.4999998324000217
 31
0.0
  0
LINE
  5
7BB3
  8
0
 10
40.0
 20
82.5000001676999943
 30
0.0
 11
42.5000050664
 21
80.0000002235000238
 31
0.0
  0
ARC
  5
7BB4
  8
0
 10
136.922651399699987
 20
80.0000000000000284
 30
0.0
 40
1.0000000000000071
 50
30.0000000000008491
 51
90.0
  0
ARC
  5
7BB5
  8
0
 10
136.922651399699987
 20
100.0
 30
0.0
 40
1.0000000000000071
 50
270.0
 51
329.9999999999990905
  0
LINE
  5
7BB6
  8
0
 10
129.4848294555999928
 20
81.000000387500009
 30
0.0
 11
136.9226509332000035
 21
81.000000387500009
 31
0.0
  0
LINE
  5
7BB7
  8
0
 10
136.9226509332000035
 20
98.9999996126000212
 30
0.0
 11
129.4848294555999928
 21
98.9999996126000212
 31
0.0
  0
LINE
  5
7BB8
  8
0
 10
78.0000025034000259
 20
121.5000005067000046
 30
0.0
 11
78.0000025034000259
 21
58.4999994934000185
 31
0.0
  0
LINE
  5
7BBB
  8
0
 10
77.0000023395000142
 20
59.4999996573000018
 30
0.0
 11
77.0000023395000142
 21
120.500000342800007
 31
0.0
  0
LINE
  5
7BBC
  8
0
 10
107.0000016688999978
 20
120.500000342800007
 30
0.0
 11
107.0000016688999978
 21
59.4999996573000018
 31
0.0
  0
LINE
  5
7BBD
  8
0
 10
106.0000016214000027
 20
58.4999994934000185
 30
0.0
 11
106.0000016214000027
 21
121.5000005067000046
 31
0.0
  0
LINE
  5
7BBE
  8
0
 10
108.3949674712000046
 20
112.0999997108999935
 30
0.0
 11
108.3949674712000046
 21
67.9000002891000065
 31
0.0
  0
LINE
  5
7BBF
  8
0
 10
107.2000016638999966
 20
112.0999997108999935
 30
0.0
 11
107.2000016638999966
 21
67.9000002891000065
 31
0.0
  0
LINE
  5
7BC1
  8
0
 10
120.0000019370999951
 20
106.5116470307000043
 30
0.0
 11
120.0000019370999951
 21
73.4883529693000241
 31
0.0
  0
LINE
  5
7BC2
  8
0
 10
71.0000032185999999
 20
104.9999996648000007
 30
0.0
 11
71.0000032185999999
 21
75.0000003353000011
 31
0.0
  0
LINE
  5
7BC5
  8
0
 10
69.5000001787999935
 20
75.8660250901999973
 30
0.0
 11
69.5000001787999935
 21
104.1339749098000027
 31
0.0
  0
LINE
  5
7BC6
  8
0
 10
120.5000020190999948
 20
106.4999999105999962
 30
0.0
 11
120.5000020190999948
 21
73.5000000894000038
 31
0.0
  0
LINE
  5
7BC7
  8
0
 10
148.5000000894000038
 20
101.7530784732860951
 30
0.0
 11
148.5000000894000038
 21
78.2500004024000191
 31
0.0
  0
LINE
  5
7BC9
  8
0
 10
42.5000050664
 20
99.9999997765000046
 30
0.0
 11
42.5000050664
 21
80.0000002235000238
 31
0.0
  0
LINE
  5
7BCA
  8
0
 10
40.0
 20
82.5000001676999943
 30
0.0
 11
40.0
 21
97.4999998324000217
 31
0.0
  0
LINE
  5
7BCB
  8
0
 10
117.8269134461999954
 20
70.6045666337000171
 30
0.0
 11
117.8269134461999954
 21
109.3954333662999971
 31
0.0
  0
LINE
  5
7BCD
  8
0
 10
123.4226515144000018
 20
73.5000000894000038
 30
0.0
 11
123.4226515144000018
 21
106.5
 31
0.0
  0
LINE
  5
7BD2
  8
0
 10
145.5000014603000125
 20
75.2499999105999962
 30
0.0
 11
145.5000014603000125
 21
104.75
 31
0.0
  0
LINE
  5
7BD3
  8
0
 10
141.3971157372000107
 20
104.7500000894000038
 30
0.0
 11
141.3971157372000107
 21
75.2499999105999962
 31
0.0
  0
LINE
  5
7BD8
  8
0
 10
129.4848294555999928
 20
98.9999996126000212
 30
0.0
 11
129.4848294555999928
 21
81.000000387500009
 31
0.0
  0
LINE
  5
7BD9
  8
0
 10
136.9226509332000035
 20
81.000000387500009
 30
0.0
 11
136.9226509332000035
 21
98.9999996126000212
 31
0.0
  0
LINE
  5
7BDC
  8
1
 10
158.5000000894000038
 20
90.0
 30
0.0
 11
30.0
 21
90.0
 31
0.0
  0
CIRCLE
  5
7BDD
  8
0
 10
240.0000000894000891
 20
90.0
 30
0.0
 40
30.5000000000000604
  0
CIRCLE
  5
7BDE
  8
0
 10
240.0000000894000891
 20
90.0
 30
0.0
 40
31.5000000000000604
  0
CIRCLE
  5
7BE0
  8
0
 10
240.0000000894000891
 20
90.0
 30
0.0
 40
19.3954329226421613
  0
CIRCLE
  5
7BE1
  8
0
 10
240.0000000894000891
 20
90.0
 30
0.0
 40
22.1000000000000192
  0
LINE
  5
7BE3
  8
0
 10
244.0000002794000977
 20
92.3094010540000056
 30
0.0
 11
244.0000002794000977
 21
87.6905989460999962
 31
0.0
  0
LINE
  5
7BE6
  8
0
 10
235.9999998994001089
 20
87.6905989460999962
 30
0.0
 11
235.9999998994001089
 21
92.3094010540000056
 31
0.0
  0
CIRCLE
  5
7BE8
  8
0
 10
240.0000000894000891
 20
90.0
 30
0.0
 40
5.0
  0
CIRCLE
  5
7BE9
  8
0
 10
240.0000000894000891
 20
90.0
 30
0.0
 40
14.75
  0
CIRCLE
  5
7BEA
  8
0
 10
240.0000000894000891
 20
90.0
 30
0.0
 40
11.75
  0
CIRCLE
  5
7BF2
  8
0
 10
240.0000000894000891
 20
90.0
 30
0.0
 40
16.5
  0
LINE
  5
7C02
  8
3
 10
69.5000001787999935
 20
98.6469999999999629
 30
0.0
 11
41.147002517711492
 21
98.6469999999998777
 31
0.0
  0
LINE
  5
7C03
  8
3
 10
69.5000001787999935
 20
81.3530000000000371
 30
0.0
 11
41.1470025177657277
 21
81.3530000000000371
 31
0.0
  0
LINE
  5
7C08
  8
1
 10
198.5000000894000038
 20
90.0
 30
0.0
 11
281.5000000894002028
 21
90.0
 31
0.0
  0
LINE
  5
7C09
  8
1
 10
240.0000000894000891
 20
131.5
 30
0.0
 11
240.0000000894000891
 21
48.4999999999999432
 31
0.0
  0
LINE
  5
7C12
  8
0
 10
235.9999998994001089
 20
92.3094010540000056
 30
0.0
 11
240.0000000894000891
 21
94.6188021078999952
 31
0.0
  0
LINE
  5
7C13
  8
0
 10
240.0000000894000891
 20
94.6188021078999952
 30
0.0
 11
244.0000002794000977
 21
92.3094010540000056
 31
0.0
  0
LINE
  5
7C14
  8
0
 10
235.9999998994001089
 20
87.6905989460999962
 30
0.0
 11
240.0000000894000891
 21
85.381197892200035
 31
0.0
  0
LINE
  5
7C15
  8
0
 10
240.0000000894000891
 20
85.381197892200035
 30
0.0
 11
244.0000002794000977
 21
87.6905989460999962
 31
0.0
  0
ENDSEC
  0
EOF
