  0
SECTION
  2
HEADER
  9
$ACADVER
  1
AC1009
  9
$INSBASE
 10
0.0
 20
0.0
 30
0.0
  9
$EXTMIN
 10
0.0
 20
-1.4802182810368341
 30
0.0
  9
$EXTMAX
 10
108.00000034270001
 20
60.750000000000163
 30
0.0
  9
$LIMMIN
 10
0.0
 20
0.0
  9
$LIMMAX
 10
12.0
 20
9.0
  9
$ORTHOMODE
 70
     1
  9
$REGENMODE
 70
     1
  9
$FILLMODE
 70
     1
  9
$QTEXTMODE
 70
     0
  9
$MIRRTEXT
 70
     0
  9
$DRAGMODE
 70
     2
  9
$LTSCALE
 40
5.0
  9
$OSMODE
 70
    37
  9
$ATTMODE
 70
     1
  9
$TEXTSIZE
 40
0.2
  9
$TRACEWID
 40
0.05
  9
$TEXTSTYLE
  7
STANDARD
  9
$CLAYER
  8
0
  9
$CELTYPE
  6
BYLAYER
  9
$CECOLOR
 62
   256
  9
$DIMSCALE
 40
1.0
  9
$DIMASZ
 40
0.18
  9
$DIMEXO
 40
0.0625
  9
$DIMDLI
 40
0.38
  9
$DIMRND
 40
0.0
  9
$DIMDLE
 40
0.0
  9
$DIMEXE
 40
0.18
  9
$DIMTP
 40
0.0
  9
$DIMTM
 40
0.0
  9
$DIMTXT
 40
2.6000000000000001
  9
$DIMCEN
 40
0.09
  9
$DIMTSZ
 40
0.0
  9
$DIMTOL
 70
     0
  9
$DIMLIM
 70
     0
  9
$DIMTIH
 70
     0
  9
$DIMTOH
 70
     0
  9
$DIMSE1
 70
     0
  9
$DIMSE2
 70
     0
  9
$DIMTAD
 70
     1
  9
$DIMZIN
 70
     8
  9
$DIMBLK
  1

  9
$DIMASO
 70
     1
  9
$DIMSHO
 70
     1
  9
$DIMPOST
  1

  9
$DIMAPOST
  1

  9
$DIMALT
 70
     0
  9
$DIMALTD
 70
     2
  9
$DIMALTF
 40
25.399999999999999
  9
$DIMLFAC
 40
1.0
  9
$DIMTOFL
 70
     0
  9
$DIMTVP
 40
0.0
  9
$DIMTIX
 70
     0
  9
$DIMSOXD
 70
     0
  9
$DIMSAH
 70
     0
  9
$DIMBLK1
  1

  9
$DIMBLK2
  1

  9
$DIMSTYLE
  2
STANDARD
  9
$DIMCLRD
 70
     0
  9
$DIMCLRE
 70
     0
  9
$DIMCLRT
 70
     0
  9
$DIMTFAC
 40
1.0
  9
$DIMGAP
 40
0.09
  9
$LUNITS
 70
     2
  9
$LUPREC
 70
     4
  9
$SKETCHINC
 40
0.1
  9
$FILLETRAD
 40
0.0
  9
$AUNITS
 70
     0
  9
$AUPREC
 70
     0
  9
$MENU
  1
.
  9
$ELEVATION
 40
0.0
  9
$PELEVATION
 40
0.0
  9
$THICKNESS
 40
0.0
  9
$LIMCHECK
 70
     0
  9
$BLIPMODE
 70
     0
  9
$CHAMFERA
 40
0.0
  9
$CHAMFERB
 40
0.0
  9
$SKPOLY
 70
     0
  9
$TDCREATE
 40
2453083.4120647679
  9
$TDUPDATE
 40
2457298.685823692
  9
$TDINDWG
 40
0.7153068981
  9
$TDUSRTIMER
 40
0.7153067824
  9
$USRTIMER
 70
     1
  9
$ANGBASE
 50
0.0
  9
$ANGDIR
 70
     0
  9
$PDMODE
 70
     0
  9
$PDSIZE
 40
0.0
  9
$PLINEWID
 40
0.0
  9
$COORDS
 70
     1
  9
$SPLFRAME
 70
     0
  9
$SPLINETYPE
 70
     6
  9
$SPLINESEGS
 70
     8
  9
$ATTDIA
 70
     0
  9
$ATTREQ
 70
     1
  9
$HANDLING
 70
     1
  9
$HANDSEED
  5
798A
  9
$SURFTAB1
 70
     6
  9
$SURFTAB2
 70
     6
  9
$SURFTYPE
 70
     6
  9
$SURFU
 70
     6
  9
$SURFV
 70
     6
  9
$UCSNAME
  2

  9
$UCSORG
 10
0.0
 20
0.0
 30
0.0
  9
$UCSXDIR
 10
1.0
 20
0.0
 30
0.0
  9
$UCSYDIR
 10
0.0
 20
1.0
 30
0.0
  9
$PUCSNAME
  2

  9
$PUCSORG
 10
0.0
 20
0.0
 30
0.0
  9
$PUCSXDIR
 10
1.0
 20
0.0
 30
0.0
  9
$PUCSYDIR
 10
0.0
 20
1.0
 30
0.0
  9
$USERI1
 70
     0
  9
$USERI2
 70
     1
  9
$USERI3
 70
     0
  9
$USERI4
 70
     0
  9
$USERI5
 70
     0
  9
$USERR1
 40
0.0
  9
$USERR2
 40
0.0
  9
$USERR3
 40
0.0
  9
$USERR4
 40
0.0
  9
$USERR5
 40
0.0
  9
$WORLDVIEW
 70
     1
  9
$SHADEDGE
 70
     3
  9
$SHADEDIF
 70
    70
  9
$TILEMODE
 70
     1
  9
$MAXACTVP
 70
    64
  9
$PLIMCHECK
 70
     0
  9
$PEXTMIN
 10
0.0
 20
0.0
 30
0.0
  9
$PEXTMAX
 10
0.0
 20
0.0
 30
0.0
  9
$PLIMMIN
 10
0.0
 20
0.0
  9
$PLIMMAX
 10
12.0
 20
9.0
  9
$UNITMODE
 70
     0
  9
$VISRETAIN
 70
     1
  9
$PLINEGEN
 70
     0
  9
$PSLTSCALE
 70
     1
  0
ENDSEC
  0
SECTION
  2
TABLES
  0
TABLE
  2
VPORT
 70
     1
  0
VPORT
  2
*ACTIVE
 70
     0
 10
0.0
 20
0.0
 11
1.0
 21
1.0
 12
82.736027420047719
 22
29.636282067850729
 13
0.0
 23
0.0
 14
0.5
 24
0.5
 15
0.5
 25
0.5
 16
0.0
 26
0.0
 36
1.0
 17
0.0
 27
0.0
 37
0.0
 40
63.810536796562772
 41
2.6019575856443709
 42
50.0
 43
0.0
 44
0.0
 50
0.0
 51
0.0
 71
     0
 72
  1000
 73
     1
 74
     2
 75
     0
 76
     0
 77
     0
 78
     0
  0
ENDTAB
  0
TABLE
  2
LTYPE
 70
     3
  0
LTYPE
  2
CONTINUOUS
 70
     0
  3
Solid Line
 72
    65
 73
     0
 40
0.0
  0
LTYPE
  2
CENTER
 70
     0
  3
____ _ ____ _ ____ _ ____ _ ____ _ ____ _ ____
 72
    65
 73
     4
 40
2.0
 49
1.25
 49
-0.25
 49
0.25
 49
-0.25
  0
LTYPE
  2
PHANTOM2
 70
     0
  3
___ _ _ ___ _ _ ___ _ _ ___ _ _
 72
    65
 73
     6
 40
1.25
 49
0.625
 49
-0.125
 49
0.125
 49
-0.125
 49
0.125
 49
-0.125
  0
ENDTAB
  0
TABLE
  2
LAYER
 70
     4
  0
LAYER
  2
0
 70
     0
 62
     7
  6
CONTINUOUS
  0
LAYER
  2
1
 70
     0
 62
     1
  6
CENTER
  0
LAYER
  2
DEFPOINTS
 70
     0
 62
     7
  6
CONTINUOUS
  0
LAYER
  2
3
 70
     0
 62
     3
  6
CONTINUOUS
  0
ENDTAB
  0
TABLE
  2
STYLE
 70
     2
  0
STYLE
  2
STANDARD
 70
     0
 40
0.0
 41
1.0
 50
0.0
 71
     0
 42
0.2
  3
simplex.shx
  4
bigfont.shx
  0
STYLE
  2
STANDARD1
 70
     0
 40
0.0
 41
1.0
 50
0.0
 71
     0
 42
3.0
  3
txt
  4

  0
ENDTAB
  0
TABLE
  2
VIEW
 70
     0
  0
ENDTAB
  0
TABLE
  2
UCS
 70
     0
  0
ENDTAB
  0
TABLE
  2
APPID
 70
     5
  0
APPID
  2
ACAD
 70
     0
  0
APPID
  2
ACAD_MLEADERVER
 70
     0
  0
APPID
  2
ACAD_NAV_VCDISPLAY
 70
     0
  0
APPID
  2
ACAD_EXEMPT_FROM_CAD_STANDARDS
 70
     0
  0
APPID
  2
ACAD_DSTYLE_DIMRADIAL_EXTENSION
 70
     0
  0
ENDTAB
  0
TABLE
  2
DIMSTYLE
 70
     1
  0
DIMSTYLE
  2
STANDARD
 70
     0
  3

  4

  5

  6

  7

 40
1.0
 41
0.18
 42
0.0625
 43
0.38
 44
0.18
 45
0.0
 46
0.0
 47
0.0
 48
0.0
140
2.6000000000000001
141
0.09
142
0.0
143
25.399999999999999
144
1.0
145
0.0
146
1.0
147
0.09
 71
     0
 72
     0
 73
     0
 74
     0
 75
     0
 76
     0
 77
     1
 78
     8
170
     0
171
     2
172
     0
173
     0
174
     0
175
     0
176
     0
177
     0
178
     0
  0
ENDTAB
  0
ENDSEC
  0
SECTION
  2
BLOCKS
  0
BLOCK
  8
0
  2
$MODEL_SPACE
 70
     0
 10
0.0
 20
0.0
 30
0.0
  3
$MODEL_SPACE
  1

  0
ENDBLK
  5
21
  8
0
  0
BLOCK
 67
     1
  8
0
  2
$PAPER_SPACE
 70
     0
 10
0.0
 20
0.0
 30
0.0
  3
$PAPER_SPACE
  1

  0
ENDBLK
  5
5B
 67
     1
  8
0
  0
ENDSEC
  0
SECTION
  2
ENTITIES
  0
TEXT
  5
1F01
  8
0
 62
     3
 10
0.0
 20
0.0
 30
0.0
 40
5.0
  1
CP155-08061D
  7
STANDARD1
  0
LINE
  5
77A6
  8
0
 10
47.509058499250003
 20
57.749999873350021
 30
0.0
 11
47.20000042705
 21
57.749999873350021
 31
0.0
  0
LINE
  5
77A7
  8
0
 10
47.20000042705
 20
42.250000126650008
 30
0.0
 11
47.509058499250003
 21
42.250000126650008
 31
0.0
  0
LINE
  5
77A8
  8
0
 10
47.20000042705
 20
57.749999873350021
 30
0.0
 11
47.000000432100002
 21
57.55000021310002
 31
0.0
  0
LINE
  5
77A9
  8
0
 10
47.000000432100002
 20
42.449999786900023
 30
0.0
 11
47.20000042705
 21
42.250000126650008
 31
0.0
  0
ARC
  5
77AA
  8
0
 10
50.500000432100002
 20
55.435941996050019
 30
0.0
 40
1.5
 50
0.0
 51
52.960530218700832
  0
ARC
  5
77AB
  8
0
 10
50.500000432100002
 20
44.564058003950016
 30
0.0
 40
1.5
 50
307.03946978129932
 51
0.0
  0
LINE
  5
77AC
  8
0
 10
51.403547815949999
 20
56.633273325850013
 30
0.0
 11
47.509058499250003
 21
57.749999873350021
 31
0.0
  0
LINE
  5
77AD
  8
0
 10
47.509058499250003
 20
42.250000126650008
 30
0.0
 11
51.403547815949999
 21
43.366726674150009
 31
0.0
  0
POLYLINE
  5
77AE
  8
0
 66
     1
 10
0.0
 20
0.0
 30
0.0
 70
   128
  0
VERTEX
  5
7973
  8
0
 10
47.000000432100002
 20
54.712701775150023
 30
0.0
  0
VERTEX
  5
7974
  8
0
 10
46.978036560699991
 20
54.707685671750014
 30
0.0
  0
VERTEX
  5
7975
  8
0
 10
46.900000434649989
 20
54.699999932200008
 30
0.0
  0
SEQEND
  5
7976
  8
0
  0
POLYLINE
  5
77AF
  8
0
 66
     1
 10
0.0
 20
0.0
 30
0.0
 70
   128
  0
VERTEX
  5
7977
  8
0
 10
46.900000434649989
 20
45.300000067800021
 30
0.0
  0
VERTEX
  5
7978
  8
0
 10
46.978036560699991
 20
45.292314328250022
 30
0.0
  0
VERTEX
  5
7979
  8
0
 10
47.000000432100002
 20
45.287298224850019
 30
0.0
  0
SEQEND
  5
797A
  8
0
  0
LINE
  5
77B0
  8
0
 10
46.0000003846
 20
45.000000111750012
 30
0.0
 11
46.300000457099998
 21
45.300000067800021
 31
0.0
  0
LINE
  5
77B1
  8
0
 10
46.300000457099998
 20
54.699999932200008
 30
0.0
 11
46.0000003846
 21
54.999999888250031
 31
0.0
  0
LINE
  5
77B2
  8
0
 10
46.0000003846
 20
54.999999888250031
 30
0.0
 11
43.000000242150001
 21
54.999999888250031
 31
0.0
  0
LINE
  5
77B3
  8
0
 10
43.000000242150001
 20
45.000000111750012
 30
0.0
 11
46.0000003846
 21
45.000000111750012
 31
0.0
  0
LINE
  5
77B4
  8
0
 10
43.000000242150001
 20
54.999999888250031
 30
0.0
 11
42.000000543899993
 21
54.422649741200019
 31
0.0
  0
LINE
  5
77B5
  8
0
 10
42.000000543899993
 20
45.577350258850011
 30
0.0
 11
43.000000242150001
 21
45.000000111750012
 31
0.0
  0
LINE
  5
77B6
  8
0
 10
46.900000434649989
 20
54.699999932200008
 30
0.0
 11
46.300000457099998
 21
54.699999932200008
 31
0.0
  0
LINE
  5
77B7
  8
0
 10
46.300000457099998
 20
45.300000067800021
 30
0.0
 11
46.900000434649989
 21
45.300000067800021
 31
0.0
  0
ARC
  5
77B8
  8
0
 10
53.211325297499997
 20
55.500000000000007
 30
0.0
 40
0.500000000000004
 50
30.0
 51
90.0
  0
ARC
  5
77B9
  8
0
 10
53.211325297499997
 20
44.500000000000007
 30
0.0
 40
0.500000000000004
 50
270.0
 51
330.00000000000011
  0
LINE
  5
77BA
  8
0
 10
53.211325492699991
 20
56.000000052150007
 30
0.0
 11
52.200000446300002
 21
56.000000052150007
 31
0.0
  0
LINE
  5
77BB
  8
0
 10
52.200000446300002
 20
43.999999947850029
 30
0.0
 11
53.211325492699991
 21
43.999999947850029
 31
0.0
  0
LINE
  5
77BC
  8
0
 10
52.200000446300002
 20
56.000000052150007
 30
0.0
 11
52.00000032034999
 21
55.799999926250017
 31
0.0
  0
LINE
  5
77BD
  8
0
 10
52.00000032034999
 20
44.200000073750012
 30
0.0
 11
52.200000446300002
 21
43.999999947850029
 31
0.0
  0
LINE
  5
77BE
  8
0
 10
53.644337870149982
 20
44.249999988850007
 30
0.0
 11
54.914508193699987
 21
46.449999976900017
 31
0.0
  0
LINE
  5
77BF
  8
0
 10
54.914508193699987
 20
53.550000023100012
 30
0.0
 11
53.644337870149982
 21
55.750000011200022
 31
0.0
  0
ARC
  5
77C0
  8
0
 10
62.492893650950002
 20
55.000000000000007
 30
0.0
 40
0.5
 50
45.000000000000433
 51
90.0
  0
ARC
  5
77C1
  8
0
 10
62.492893650950002
 20
45.000000000000007
 30
0.0
 40
0.5
 50
270.0
 51
314.99999999999949
  0
LINE
  5
77C2
  8
0
 10
60.587713673700001
 20
44.50000002980002
 30
0.0
 11
62.492893256249992
 21
44.50000002980002
 31
0.0
  0
LINE
  5
77C3
  8
0
 10
62.492893256249992
 20
55.499999970200022
 30
0.0
 11
60.587713673700001
 21
55.499999970200022
 31
0.0
  0
ARC
  5
77C4
  8
0
 10
60.587713672399993
 20
55.000000000000007
 30
0.0
 40
0.500000000000004
 50
90.0
 51
150.0
  0
ARC
  5
77C5
  8
0
 10
60.587713672399993
 20
45.000000000000007
 30
0.0
 40
0.500000000000004
 50
210.0
 51
270.0
  0
LINE
  5
77C6
  8
0
 10
62.846446588599989
 20
44.646446779400023
 30
0.0
 11
63.207106843599988
 21
45.007106568650023
 31
0.0
  0
LINE
  5
77C7
  8
0
 10
63.207106843599988
 20
54.992893431350033
 30
0.0
 11
62.846446588599989
 21
55.353553220650028
 31
0.0
  0
LINE
  5
77C8
  8
0
 10
60.154700830549999
 20
55.249999929250023
 30
0.0
 11
59.173205114899993
 21
53.550000023100012
 31
0.0
  0
LINE
  5
77C9
  8
0
 10
59.173205114899993
 20
46.449999976900017
 30
0.0
 11
60.154700830549999
 21
44.75000007080002
 31
0.0
  0
ARC
  5
77CA
  8
0
 10
62.500000432100002
 20
54.285786437650017
 30
0.0
 40
1.0
 50
0.0
 51
45.000000000000433
  0
ARC
  5
77CB
  8
0
 10
62.500000432100002
 20
45.714213562400033
 30
0.0
 40
1.0000000000000131
 50
314.99999999999949
 51
0.0
  0
ARC
  5
77CC
  8
0
 10
58.653590270599999
 20
46.150000000000013
 30
0.0
 40
0.6000000000000121
 50
30.0
 51
90.0
  0
ARC
  5
77CD
  8
0
 10
58.653590270599999
 20
53.850000000000023
 30
0.0
 40
0.6000000000000086
 50
270.0
 51
330.00000000000011
  0
ARC
  5
77CE
  8
0
 10
55.434123833899989
 20
46.150000000000013
 30
0.0
 40
0.6000000000000206
 50
90.0
 51
150.0
  0
ARC
  5
77CF
  8
0
 10
55.434123833899989
 20
53.850000000000023
 30
0.0
 40
0.6000000000000156
 50
210.0
 51
270.0
  0
LINE
  5
77D0
  8
0
 10
55.434123791749997
 20
46.749999932950018
 30
0.0
 11
58.653590448199992
 21
46.749999932950018
 31
0.0
  0
LINE
  5
77D1
  8
0
 10
58.653590448199992
 20
53.250000067050017
 30
0.0
 11
55.434123791749997
 21
53.250000067050017
 31
0.0
  0
LINE
  5
77D2
  8
0
 10
42.000000543899993
 20
53.000000026100018
 30
0.0
 11
34.00000016389999
 21
53.000000026100018
 31
0.0
  0
LINE
  5
77D3
  8
0
 10
34.00000016389999
 20
46.999999973950032
 30
0.0
 11
42.000000543899993
 21
46.999999973950032
 31
0.0
  0
LINE
  5
77D4
  8
0
 10
34.00000016389999
 20
53.000000026100018
 30
0.0
 11
33.0
 21
52.000000095000011
 31
0.0
  0
LINE
  5
77D5
  8
0
 10
33.0
 20
47.999999905000003
 30
0.0
 11
34.00000016389999
 21
46.999999973950032
 31
0.0
  0
LINE
  5
77D6
  8
0
 10
47.509058499250003
 20
57.749999873350021
 30
0.0
 11
47.509058499250003
 21
53.874999936700021
 31
0.0
  0
ARC
  5
77D7
  8
0
 10
48.525442225999988
 20
53.959312763200018
 30
0.0
 40
1.01987476327451
 50
184.74204163739969
 51
230.1446635256996
  0
LINE
  5
77D8
  8
0
 10
47.871854043999988
 20
53.176390659050021
 30
0.0
 11
47.871854043999988
 21
46.823609340950007
 31
0.0
  0
ARC
  5
77D9
  8
0
 10
48.512484393999991
 20
46.047416382650027
 30
0.0
 40
1.006420763784698
 50
129.53453909199979
 51
175.57875574489981
  0
LINE
  5
77DA
  8
0
 10
47.509058499250003
 20
42.250000126650008
 30
0.0
 11
47.509058499250003
 21
46.125000063350008
 31
0.0
  0
LINE
  5
77DB
  8
0
 10
47.20000042705
 20
57.749999873350042
 30
0.0
 11
47.20000042705
 21
42.250000126650008
 31
0.0
  0
LINE
  5
77DE
  8
0
 10
47.000000432100002
 20
42.449999786900023
 30
0.0
 11
47.000000432099988
 21
57.550000213100027
 31
0.0
  0
LINE
  5
77DF
  8
0
 10
50.913456540550001
 20
52.754691988250009
 30
0.0
 11
47.871854043999988
 21
53.176390659050021
 31
0.0
  0
LINE
  5
77E0
  8
0
 10
47.871854043999988
 20
46.823609340950007
 30
0.0
 11
50.913456540550001
 21
47.24530801180002
 31
0.0
  0
POLYLINE
  5
77E1
  8
0
 66
     1
 10
0.0
 20
0.0
 30
0.0
 70
   128
  0
VERTEX
  5
797B
  8
0
 10
51.403547815949999
 20
53.316636662950017
 30
0.0
  0
VERTEX
  5
797C
  8
0
 10
51.394881859399987
 20
53.189620561900021
 30
0.0
  0
VERTEX
  5
797D
  8
0
 10
51.317442387349992
 20
52.952791284800007
 30
0.0
  0
VERTEX
  5
797E
  8
0
 10
51.211067654200001
 20
52.828896744200023
 30
0.0
  0
VERTEX
  5
797F
  8
0
 10
51.092351499949991
 20
52.767395693800012
 30
0.0
  0
VERTEX
  5
7980
  8
0
 10
50.970172222699993
 20
52.75039765985003
 30
0.0
  0
VERTEX
  5
7981
  8
0
 10
50.913456540550001
 20
52.754691988250009
 30
0.0
  0
SEQEND
  5
7982
  8
0
  0
POLYLINE
  5
77E2
  8
0
 66
     1
 10
0.0
 20
0.0
 30
0.0
 70
   128
  0
VERTEX
  5
7983
  8
0
 10
50.913456540550001
 20
47.24530801180002
 30
0.0
  0
VERTEX
  5
7984
  8
0
 10
51.057290464599987
 20
47.241504490400018
 30
0.0
  0
VERTEX
  5
7985
  8
0
 10
51.178442958749997
 20
47.193731833250027
 30
0.0
  0
VERTEX
  5
7986
  8
0
 10
51.294258043149981
 20
47.083373600600019
 30
0.0
  0
VERTEX
  5
7987
  8
0
 10
51.383713439099999
 20
46.872195042700007
 30
0.0
  0
VERTEX
  5
7988
  8
0
 10
51.403547815949999
 20
46.683363337100012
 30
0.0
  0
SEQEND
  5
7989
  8
0
  0
LINE
  5
77E3
  8
0
 10
51.403547815949999
 20
53.316636662950017
 30
0.0
 11
51.403547815949999
 21
56.633273325850013
 31
0.0
  0
LINE
  5
77E4
  8
0
 10
51.403547815949999
 20
46.683363337100012
 30
0.0
 11
51.403547815949999
 21
43.366726674150009
 31
0.0
  0
LINE
  5
77E5
  8
0
 10
46.0000003846
 20
54.999999888250031
 30
0.0
 11
46.0000003846
 21
45.000000111750012
 31
0.0
  0
LINE
  5
77E6
  8
0
 10
46.300000457099998
 20
54.699999932200008
 30
0.0
 11
46.300000457099998
 21
45.300000067800021
 31
0.0
  0
LINE
  5
77E7
  8
0
 10
43.000000242150001
 20
54.999999888250031
 30
0.0
 11
43.000000242150001
 21
45.000000111750012
 31
0.0
  0
LINE
  5
77EA
  8
0
 10
42.000000543899993
 20
45.577350258850011
 30
0.0
 11
42.000000543899979
 21
54.422649741200033
 31
0.0
  0
LINE
  5
77EB
  8
0
 10
52.200000446300002
 20
56.000000052150007
 30
0.0
 11
52.200000446300002
 21
43.999999947850029
 31
0.0
  0
LINE
  5
77EC
  8
0
 10
52.00000032034999
 20
44.200000073750012
 30
0.0
 11
52.00000032034999
 21
55.799999926250017
 31
0.0
  0
LINE
  5
77ED
  8
0
 10
63.500000342699998
 20
54.286209285124933
 30
0.0
 11
63.500000342699991
 21
45.714213699100029
 31
0.0
  0
LINE
  5
77EF
  8
0
 10
34.00000016389999
 20
53.000000026100018
 30
0.0
 11
34.00000016389999
 21
46.999999973950032
 31
0.0
  0
LINE
  5
77F0
  8
0
 10
33.0
 20
47.999999905000003
 30
0.0
 11
33.0
 21
52.000000095000011
 31
0.0
  0
LINE
  5
77F1
  8
0
 10
50.913456540550001
 20
47.24530801180002
 30
0.0
 11
50.913456540550001
 21
52.754691988250009
 31
0.0
  0
LINE
  5
77F2
  8
0
 10
47.509058499250003
 20
53.874999936700021
 30
0.0
 11
51.403547815949999
 21
53.316636662950017
 31
0.0
  0
LINE
  5
77F3
  8
0
 10
47.509058499250003
 20
46.125000063350008
 30
0.0
 11
51.403547815949999
 21
46.683363337100012
 31
0.0
  0
LINE
  5
77F6
  8
0
 10
53.211325492699991
 20
43.999999947850029
 30
0.0
 11
53.211325492699991
 21
55.999999999999979
 31
0.0
  0
LINE
  5
77FB
  8
0
 10
62.492893256249992
 20
44.50000002980002
 30
0.0
 11
62.492893256249992
 21
55.499999999999858
 31
0.0
  0
LINE
  5
77FE
  8
0
 10
60.587713673700001
 20
55.499999970200022
 30
0.0
 11
60.587713673700001
 21
44.50000002980002
 31
0.0
  0
LINE
  5
7805
  8
0
 10
58.653590448199992
 20
46.749999932950018
 30
0.0
 11
58.653590448199992
 21
53.250000067050017
 31
0.0
  0
LINE
  5
7806
  8
0
 10
55.434123791749997
 20
53.250000067050017
 30
0.0
 11
55.434123791749997
 21
46.749999932950018
 31
0.0
  0
ARC
  5
7809
  8
0
 10
90.580463998850007
 20
46.323241937100143
 30
0.0
 40
0.9925855933618633
 50
21.272956371899731
 51
68.272301339000336
  0
ARC
  5
780A
  8
0
 10
90.662094831500013
 20
53.595772556250139
 30
0.0
 40
0.8883184956262894
 50
288.76904910449929
 51
341.6856931845997
  0
ARC
  5
780B
  8
0
 10
97.250000342699991
 20
50.000000000000142
 30
0.0
 40
6.6332731115577701
 50
30.0
 51
150.0
  0
ARC
  5
780C
  8
0
 10
103.91953668655
 20
53.676758062900127
 30
0.0
 40
0.9925855933618633
 50
201.27295637189971
 51
248.27230133900039
  0
ARC
  5
780D
  8
0
 10
103.8379058539
 20
46.404227443750152
 30
0.0
 40
0.8883184956263184
 50
108.7690491044993
 51
161.68569318459959
  0
ARC
  5
780E
  8
0
 10
97.250000342699991
 20
50.000000000000142
 30
0.0
 40
6.6332731115577701
 50
210.0
 51
330.00000000000011
  0
LINE
  5
780F
  8
0
 10
103.55208558215
 20
47.245308011800148
 30
0.0
 11
104.31916197015001
 21
46.823609340950142
 31
0.0
  0
ARC
  5
7810
  8
0
 10
97.249938166850001
 20
50.000036174100153
 30
0.0
 40
7.7500717807735979
 50
329.99999811880002
 51
335.80410201659959
  0
LINE
  5
7811
  8
0
 10
90.947915103249997
 20
52.754691988250137
 30
0.0
 11
90.180838715250019
 21
53.176390659050142
 31
0.0
  0
ARC
  5
7812
  8
0
 10
97.25006251855001
 20
49.999963825900139
 30
0.0
 40
7.7500717807735588
 50
149.99999811879991
 51
155.8041020165999
  0
ARC
  5
7813
  8
0
 10
97.24995317740003
 20
49.99997150655016
 30
0.0
 40
7.7500549409440938
 50
24.19589167219986
 51
30.000008192300061
  0
LINE
  5
7814
  8
0
 10
104.31916197015001
 20
53.176390659050142
 30
0.0
 11
103.55208558215
 21
52.754691988250137
 31
0.0
  0
LINE
  5
7815
  8
0
 10
90.180838715250019
 20
46.823609340950142
 30
0.0
 11
90.947915103249997
 21
47.245308011800148
 31
0.0
  0
ARC
  5
7816
  8
0
 10
97.250047507999994
 20
50.000028493500153
 30
0.0
 40
7.7500549409495543
 50
204.19589167219979
 51
210.00000819229999
  0
ARC
  5
7817
  8
0
 10
97.250000342699991
 20
50.000000000000142
 30
0.0
 40
7.7500000000000142
 50
210.0
 51
330.00000000000011
  0
ARC
  5
7818
  8
0
 10
97.250000342699991
 20
50.000000000000142
 30
0.0
 40
7.7500000000000089
 50
30.0
 51
150.0
  0
ARC
  5
7819
  8
0
 10
97.250000342699991
 20
50.000000000000142
 30
0.0
 40
7.7500000000000044
 50
335.80415762790011
 51
24.19584237209985
  0
ARC
  5
781A
  8
0
 10
97.250000342699991
 20
50.000000000000142
 30
0.0
 40
7.7500000000000044
 50
155.80415762790011
 51
204.1958423720998
  0
LINE
  5
781B
  8
0
 10
98.750000355750018
 20
50.866025395250141
 30
0.0
 11
98.750000355750018
 21
49.133974604800137
 31
0.0
  0
LINE
  5
781E
  8
0
 10
95.750000329649978
 20
49.133974604800137
 30
0.0
 11
95.750000329649978
 21
50.866025395250141
 31
0.0
  0
CIRCLE
  5
7821
  8
0
 10
97.250000342699991
 20
50.000000000000142
 30
0.0
 40
2.0
  0
CIRCLE
  5
7822
  8
0
 10
97.250000342699991
 20
50.000000000000142
 30
0.0
 40
5.5
  0
CIRCLE
  5
7829
  8
0
 10
97.250000342699991
 20
50.000000000000142
 30
0.0
 40
6.0
  0
ARC
  5
782A
  8
0
 10
97.250000342699991
 20
50.000000000000142
 30
0.0
 40
6.8778345399593652
 50
156.3894766265997
 51
203.6105233734003
  0
ARC
  5
782B
  8
0
 10
97.250000342699991
 20
50.000000000000142
 30
0.0
 40
6.8778345399593652
 50
336.38947662659967
 51
23.610523373400301
  0
LINE
  5
782C
  8
0
 10
103.96169708295
 20
46.125000063350143
 30
0.0
 11
102.99458331610001
 21
46.683363337100147
 31
0.0
  0
LINE
  5
782D
  8
0
 10
90.538303602450014
 20
53.874999936700149
 30
0.0
 11
91.505417369300005
 21
53.316636662950138
 31
0.0
  0
LINE
  5
782E
  8
0
 10
103.96169708295
 20
53.874999936700149
 30
0.0
 11
102.99458331610001
 21
53.316636662950138
 31
0.0
  0
LINE
  5
782F
  8
0
 10
90.538303602450014
 20
46.125000063350143
 30
0.0
 11
91.505417369300005
 21
46.683363337100147
 31
0.0
  0
CIRCLE
  5
7831
  8
0
 10
97.250000342699991
 20
50.000000000000142
 30
0.0
 40
4.2857864376269097
  0
LINE
  5
7834
  8
0
 10
95.750000329649978
 20
50.866025395250141
 30
0.0
 11
97.250000342699991
 21
51.732050790450153
 31
0.0
  0
LINE
  5
7835
  8
0
 10
97.250000342699991
 20
51.732050790450153
 30
0.0
 11
98.750000355750018
 21
50.866025395250141
 31
0.0
  0
LINE
  5
7836
  8
0
 10
95.750000329649978
 20
49.133974604800137
 30
0.0
 11
97.250000342699991
 21
48.267949209550153
 31
0.0
  0
LINE
  5
7837
  8
0
 10
97.250000342699991
 20
48.267949209550153
 30
0.0
 11
98.750000355750018
 21
49.133974604800137
 31
0.0
  0
LINE
  5
7841
  8
3
 10
42.000000543899979
 20
52.458499973950111
 30
0.0
 11
33.458499985688867
 21
52.458499973950111
 31
0.0
  0
LINE
  5
7842
  8
3
 10
42.000000543899993
 20
47.541499973949939
 30
0.0
 11
33.458500037811788
 21
47.541499973949918
 31
0.0
  0
LINE
  5
7844
  8
1
 10
66.500000342699991
 20
50.000000000000142
 30
0.0
 11
30.0
 21
50.0
 31
0.0
  0
LINE
  5
784C
  8
1
 10
97.250000342699991
 20
60.750000000000163
 30
0.0
 11
97.250000342699991
 21
39.250000000000142
 31
0.0
  0
LINE
  5
784D
  8
1
 10
86.500000342699977
 20
50.000000000000142
 30
0.0
 11
108.00000034270001
 21
50.000000000000142
 31
0.0
  0
CIRCLE
  5
7899
  8
0
 10
97.250000342699991
 20
50.000000000000142
 30
0.0
 40
1.5
  0
ENDSEC
  0
EOF
