  0
SECTION
  2
HEADER
  9
$ACADVER
  1
AC1009
  9
$INSBASE
 10
0.0
 20
0.0
 30
0.0
  9
$EXTMIN
 10
0.0
 20
-2.960436562073669
 30
0.0
  9
$EXTMAX
 10
240.89136876029329
 20
271.1996388114506
 30
0.0
  9
$LIMMIN
 10
0.0
 20
0.0
  9
$LIMMAX
 10
375.0
 20
270.0
  9
$ORTHOMODE
 70
     1
  9
$REGENMODE
 70
     1
  9
$FILLMODE
 70
     1
  9
$QTEXTMODE
 70
     0
  9
$MIRRTEXT
 70
     0
  9
$DRAGMODE
 70
     2
  9
$LTSCALE
 40
10.0
  9
$OSMODE
 70
    37
  9
$ATTMODE
 70
     1
  9
$TEXTSIZE
 40
6.0
  9
$TRACEWID
 40
0.05
  9
$TEXTSTYLE
  7
STANDARD
  9
$CLAYER
  8
0
  9
$CELTYPE
  6
BYLAYER
  9
$CECOLOR
 62
   256
  9
$DIMSCALE
 40
1.0
  9
$DIMASZ
 40
3.0
  9
$DIMEXO
 40
2.0
  9
$DIMDLI
 40
0.3799999999999999
  9
$DIMRND
 40
0.0
  9
$DIMDLE
 40
0.0
  9
$DIMEXE
 40
2.0
  9
$DIMTP
 40
0.0
  9
$DIMTM
 40
0.0
  9
$DIMTXT
 40
3.2000000000000002
  9
$DIMCEN
 40
0.09
  9
$DIMTSZ
 40
0.0
  9
$DIMTOL
 70
     0
  9
$DIMLIM
 70
     0
  9
$DIMTIH
 70
     0
  9
$DIMTOH
 70
     0
  9
$DIMSE1
 70
     0
  9
$DIMSE2
 70
     0
  9
$DIMTAD
 70
     1
  9
$DIMZIN
 70
     9
  9
$DIMBLK
  1

  9
$DIMASO
 70
     0
  9
$DIMSHO
 70
     0
  9
$DIMPOST
  1

  9
$DIMAPOST
  1

  9
$DIMALT
 70
     0
  9
$DIMALTD
 70
     2
  9
$DIMALTF
 40
25.399999999999999
  9
$DIMLFAC
 40
1.0
  9
$DIMTOFL
 70
     0
  9
$DIMTVP
 40
0.0
  9
$DIMTIX
 70
     0
  9
$DIMSOXD
 70
     0
  9
$DIMSAH
 70
     0
  9
$DIMBLK1
  1

  9
$DIMBLK2
  1

  9
$DIMSTYLE
  2
STANDARD
  9
$DIMCLRD
 70
     0
  9
$DIMCLRE
 70
     0
  9
$DIMCLRT
 70
     0
  9
$DIMTFAC
 40
1.0
  9
$DIMGAP
 40
0.09
  9
$LUNITS
 70
     2
  9
$LUPREC
 70
     2
  9
$SKETCHINC
 40
0.1
  9
$FILLETRAD
 40
20.0
  9
$AUNITS
 70
     0
  9
$AUPREC
 70
     2
  9
$MENU
  1
E:\r13\win\SUPPORT\ACAD
  9
$ELEVATION
 40
0.0
  9
$PELEVATION
 40
0.0
  9
$THICKNESS
 40
0.0
  9
$LIMCHECK
 70
     0
  9
$BLIPMODE
 70
     0
  9
$CHAMFERA
 40
0.0
  9
$CHAMFERB
 40
0.0
  9
$SKPOLY
 70
     0
  9
$TDCREATE
 40
2449840.6320370371
  9
$TDUPDATE
 40
2456931.699588472
  9
$TDINDWG
 40
2.4299012383999998
  9
$TDUSRTIMER
 40
2.4299012383999998
  9
$USRTIMER
 70
     1
  9
$ANGBASE
 50
0.0
  9
$ANGDIR
 70
     0
  9
$PDMODE
 70
     0
  9
$PDSIZE
 40
0.0
  9
$PLINEWID
 40
0.0
  9
$COORDS
 70
     1
  9
$SPLFRAME
 70
     0
  9
$SPLINETYPE
 70
     6
  9
$SPLINESEGS
 70
     8
  9
$ATTDIA
 70
     0
  9
$ATTREQ
 70
     1
  9
$HANDLING
 70
     1
  9
$HANDSEED
  5
1F9E8
  9
$SURFTAB1
 70
     6
  9
$SURFTAB2
 70
     6
  9
$SURFTYPE
 70
     6
  9
$SURFU
 70
     6
  9
$SURFV
 70
     6
  9
$UCSNAME
  2

  9
$UCSORG
 10
0.0
 20
0.0
 30
0.0
  9
$UCSXDIR
 10
1.0
 20
0.0
 30
0.0
  9
$UCSYDIR
 10
0.0
 20
1.0
 30
0.0
  9
$PUCSNAME
  2

  9
$PUCSORG
 10
0.0
 20
0.0
 30
0.0
  9
$PUCSXDIR
 10
1.0
 20
0.0
 30
0.0
  9
$PUCSYDIR
 10
0.0
 20
1.0
 30
0.0
  9
$USERI1
 70
     0
  9
$USERI2
 70
     1
  9
$USERI3
 70
     0
  9
$USERI4
 70
     0
  9
$USERI5
 70
     0
  9
$USERR1
 40
0.0
  9
$USERR2
 40
0.0
  9
$USERR3
 40
0.0
  9
$USERR4
 40
0.0
  9
$USERR5
 40
0.0
  9
$WORLDVIEW
 70
     1
  9
$SHADEDGE
 70
     3
  9
$SHADEDIF
 70
    70
  9
$TILEMODE
 70
     1
  9
$MAXACTVP
 70
    16
  9
$PLIMCHECK
 70
     0
  9
$PEXTMIN
 10
1.0000000000000000E+020
 20
1.0000000000000000E+020
 30
1.0000000000000000E+020
  9
$PEXTMAX
 10
-1.0000000000000000E+020
 20
-1.0000000000000000E+020
 30
-1.0000000000000000E+020
  9
$PLIMMIN
 10
0.0
 20
0.0
  9
$PLIMMAX
 10
12.0
 20
9.0
  9
$UNITMODE
 70
     0
  9
$VISRETAIN
 70
     0
  9
$PLINEGEN
 70
     0
  9
$PSLTSCALE
 70
     0
  0
ENDSEC
  0
SECTION
  2
TABLES
  0
TABLE
  2
VPORT
 70
     1
  0
VPORT
  2
*ACTIVE
 70
     0
 10
0.0
 20
0.0
 11
1.0
 21
1.0
 12
471.27955493741302
 22
270.0
 13
0.0
 23
0.0
 14
10.0
 24
10.0
 15
10.0
 25
10.0
 16
0.0
 26
0.0
 36
1.0
 17
0.0
 27
0.0
 37
0.0
 40
540.0
 41
1.7454798331015291
 42
50.0
 43
0.0
 44
0.0
 50
0.0
 51
0.0
 71
     0
 72
   500
 73
     1
 74
     0
 75
     0
 76
     0
 77
     0
 78
     0
  0
ENDTAB
  0
TABLE
  2
LTYPE
 70
     5
  0
LTYPE
  2
CONTINUOUS
 70
     0
  3
Solid Line
 72
    65
 73
     0
 40
0.0
  0
LTYPE
  2
CENTER
 70
     0
  3
____ _ ____ _ ____ _ ____ _ ____ _ ____ _ ____
 72
    65
 73
     4
 40
2.0
 49
1.25
 49
-0.25
 49
0.25
 49
-0.25
  0
LTYPE
  2
PHANTOM
 70
     0
  3
_____ _ _ _____ _ _ _____ _ _ _____ _ _ ____
 72
    65
 73
     6
 40
2.5
 49
1.25
 49
-0.25
 49
0.25
 49
-0.25
 49
0.25
 49
-0.25
  0
LTYPE
  2
PHANTOM2
 70
     0
  3
___ _ _ ___ _ _ ___ _ _ ___ _ _
 72
    65
 73
     6
 40
1.25
 49
0.625
 49
-0.125
 49
0.125
 49
-0.125
 49
0.125
 49
-0.125
  0
LTYPE
  2
HIDDEN
 70
     0
  3
_ _ _ _ _ _ _ _ _ _ _ _ _ _ _ _ _ _ _ _ _ _ _
 72
    65
 73
     2
 40
0.375
 49
0.25
 49
-0.125
  0
ENDTAB
  0
TABLE
  2
LAYER
 70
     5
  0
LAYER
  2
0
 70
     0
 62
     7
  6
CONTINUOUS
  0
LAYER
  2
1
 70
     0
 62
     1
  6
CENTER
  0
LAYER
  2
DEFPOINTS
 70
     0
 62
     7
  6
CONTINUOUS
  0
LAYER
  2
5
 70
     0
 62
     3
  6
PHANTOM
  0
LAYER
  2
2
 70
     0
 62
     2
  6
HIDDEN
  0
ENDTAB
  0
TABLE
  2
STYLE
 70
     2
  0
STYLE
  2
STANDARD
 70
     0
 40
0.0
 41
1.0
 50
0.0
 71
     0
 42
6.0
  3
TXT
  4
BIGFONT
  0
STYLE
  2
STANDARD1
 70
     0
 40
0.0
 41
1.0
 50
0.0
 71
     0
 42
3.0
  3
txt
  4

  0
ENDTAB
  0
TABLE
  2
VIEW
 70
     2
  0
VIEW
  2
ALL
 70
     0
 40
270.0
 10
213.25689075630251
 20
135.0
 41
0.0
 11
0.0
 21
0.0
 31
1.0
 12
0.0
 22
0.0
 32
0.0
 42
0.0
 43
0.0
 44
0.0
 50
0.0
 71
     0
  0
VIEW
  2
OLE1
 70
     0
 40
15.6789342459856
 10
-163.26597565361169
 20
683.38318995238819
 41
19.906097890736621
 11
0.0
 21
0.0
 31
1.0
 12
0.0
 22
0.0
 32
0.0
 42
50.0
 43
0.0
 44
0.0
 50
0.0
 71
     0
  0
ENDTAB
  0
TABLE
  2
UCS
 70
     0
  0
ENDTAB
  0
TABLE
  2
APPID
 70
    13
  0
APPID
  2
ACAD
 70
     0
  0
APPID
  2
ACAD_EXEMPT_FROM_CAD_STANDARDS
 70
     0
  0
APPID
  2
ACAD_MLEADERVER
 70
     0
  0
APPID
  2
ACAD_DSTYLE_DIMJAG
 70
     0
  0
APPID
  2
ACAD_DSTYLE_DIMTALN
 70
     0
  0
APPID
  2
ACAD_PSEXT
 70
     0
  0
APPID
  2
ACAD_DSTYLE_DIMBREAK
 70
     0
  0
APPID
  2
ACAECLAYERSTANDARD
 70
     0
  0
APPID
  2
ACCMTRANSPARENCY
 70
     0
  0
APPID
  2
GRADIENTCOLOR1ACI
 70
     0
  0
APPID
  2
GRADIENTCOLOR2ACI
 70
     0
  0
APPID
  2
ACAD_DSTYLE_DIMRADIAL_EXTENSION
 70
     0
  0
APPID
  2
ACAD_NAV_VCDISPLAY
 70
     0
  0
ENDTAB
  0
TABLE
  2
DIMSTYLE
 70
     1
  0
DIMSTYLE
  2
STANDARD
 70
     0
  3

  4

  5

  6

  7

 40
1.0
 41
0.18
 42
0.0625
 43
0.38
 44
0.18
 45
0.0
 46
0.0
 47
0.0
 48
0.0
140
0.18
141
0.09
142
0.0
143
25.399999999999999
144
1.0
145
0.0
146
1.0
147
0.09
 71
     0
 72
     0
 73
     1
 74
     1
 75
     0
 76
     0
 77
     0
 78
     0
170
     0
171
     2
172
     0
173
     0
174
     0
175
     0
176
     0
177
     0
178
     0
  0
ENDTAB
  0
ENDSEC
  0
SECTION
  2
BLOCKS
  0
BLOCK
  8
0
  2
$MODEL_SPACE
 70
     0
 10
0.0
 20
0.0
 30
0.0
  3
$MODEL_SPACE
  1

  0
ENDBLK
  5
126
  8
0
  0
BLOCK
 67
     1
  8
0
  2
$PAPER_SPACE
 70
     0
 10
0.0
 20
0.0
 30
0.0
  3
$PAPER_SPACE
  1

  0
ENDBLK
  5
124
 67
     1
  8
0
  0
ENDSEC
  0
SECTION
  2
ENTITIES
  0
TEXT
  5
1B133
  8
0
 62
     3
 10
0.0
 20
0.0
 30
0.0
 40
10.0
  1
CP152-08050
  7
STANDARD1
  0
CIRCLE
  5
1E4F9
  8
0
 10
99.99999999863465
 20
143.5
 30
0.0
 40
3.9999999999999991
  0
ARC
  5
1E4FC
  8
0
 10
80.99999999863465
 20
149.0
 30
0.0
 40
1.0
 50
90.0
 51
180.0
  0
ARC
  5
1E4FD
  8
0
 10
118.99999999863461
 20
149.0
 30
0.0
 40
1.0
 50
0.0
 51
90.0
  0
LINE
  5
1E4FE
  8
0
 10
119.99999999863461
 20
115.58578643762699
 30
0.0
 11
119.99999999863461
 21
149.0
 31
0.0
  0
LINE
  5
1E4FF
  8
0
 10
79.99999999863465
 20
149.0
 30
0.0
 11
79.99999999863465
 21
115.58578643762699
 31
0.0
  0
ARC
  5
1E500
  8
0
 10
80.999999998634607
 20
115.58578643762699
 30
0.0
 40
1.0000000000000659
 50
180.0
 51
233.1301023541638
  0
ARC
  5
1E501
  8
0
 10
118.99999999863471
 20
115.58578643762699
 30
0.0
 40
1.000000000000062
 50
306.86989764583751
 51
0.0
  0
LINE
  5
1E502
  8
0
 10
119.99999999863461
 20
101.0
 30
0.0
 11
119.99999999863461
 21
104.41421356237289
 31
0.0
  0
LINE
  5
1E503
  8
0
 10
79.99999999863465
 20
104.41421356237289
 30
0.0
 11
79.99999999863465
 21
101.0
 31
0.0
  0
ARC
  5
1E504
  8
0
 10
118.99999999863461
 20
101.0
 30
0.0
 40
1.0
 50
270.0
 51
0.0
  0
ARC
  5
1E505
  8
0
 10
80.99999999863465
 20
101.0
 30
0.0
 40
1.0
 50
180.0
 51
270.0
  0
ARC
  5
1E506
  8
0
 10
80.999999998634607
 20
104.41421356237289
 30
0.0
 40
1.000000000000048
 50
126.8698976458375
 51
180.0
  0
ARC
  5
1E507
  8
0
 10
118.99999999863471
 20
104.41421356237289
 30
0.0
 40
1.000000000000048
 50
0.0
 51
53.130102354162503
  0
ARC
  5
1E508
  8
0
 10
120.49999999863461
 20
113.58578643762689
 30
0.0
 40
1.5
 50
126.86989764584069
 51
180.0
  0
ARC
  5
1E509
  8
0
 10
79.499999998634635
 20
113.58578643762689
 30
0.0
 40
1.5
 50
0.0
 51
53.130102354159227
  0
ARC
  5
1E50A
  8
0
 10
120.49999999863461
 20
106.41421356237311
 30
0.0
 40
1.5
 50
180.0
 51
233.13010235416121
  0
ARC
  5
1E50B
  8
0
 10
79.499999998634635
 20
106.41421356237311
 30
0.0
 40
1.5000000000000011
 50
306.86989764584069
 51
0.0
  0
LINE
  5
1E50C
  8
0
 10
118.99999999863461
 20
106.41421356237311
 30
0.0
 11
118.99999999863461
 21
113.58578643762689
 31
0.0
  0
LINE
  5
1E50D
  8
0
 10
80.99999999863465
 20
113.58578643762689
 30
0.0
 11
80.99999999863465
 21
106.41421356237311
 31
0.0
  0
LINE
  5
1E50E
  8
0
 10
101.15470053701389
 20
143.5
 30
0.0
 11
100.5773502678243
 21
144.5
 31
0.0
  0
LINE
  5
1E50F
  8
0
 10
100.5773502678243
 20
144.5
 30
0.0
 11
99.422649729445027
 21
144.5
 31
0.0
  0
LINE
  5
1E510
  8
0
 10
98.845299460255376
 20
143.5
 30
0.0
 11
99.422649729445027
 21
142.5
 31
0.0
  0
LINE
  5
1E511
  8
0
 10
100.5773502678243
 20
142.5
 30
0.0
 11
101.15470053701389
 21
143.5
 31
0.0
  0
CIRCLE
  5
1E512
  8
0
 10
99.99999999863465
 20
143.5
 30
0.0
 40
2.5499999999999972
  0
LINE
  5
1E513
  8
0
 10
99.422649729445027
 20
144.5
 30
0.0
 11
98.845299460255376
 21
143.5
 31
0.0
  0
LINE
  5
1E514
  8
0
 10
99.422649729445027
 20
142.5
 30
0.0
 11
100.5773502678243
 21
142.5
 31
0.0
  0
CIRCLE
  5
1E515
  8
0
 10
99.99999999863465
 20
143.5
 30
0.0
 40
2.75
  0
LINE
  5
1E516
  8
0
 10
97.999999998634664
 20
131.15470053837919
 30
0.0
 11
97.999999998634664
 21
128.8452994616207
 31
0.0
  0
LINE
  5
1E517
  8
0
 10
97.999999998634664
 20
128.8452994616207
 30
0.0
 11
99.99999999863465
 21
127.6905989232415
 31
0.0
  0
LINE
  5
1E518
  8
0
 10
99.99999999863465
 20
127.6905989232415
 30
0.0
 11
101.99999999863461
 21
128.8452994616199
 31
0.0
  0
LINE
  5
1E519
  8
0
 10
101.99999999863461
 20
128.8452994616199
 30
0.0
 11
101.99999999863461
 21
131.15470053837919
 31
0.0
  0
LINE
  5
1E51A
  8
0
 10
101.99999999863461
 20
131.15470053837919
 30
0.0
 11
99.99999999863465
 21
132.30940107675849
 31
0.0
  0
CIRCLE
  5
1E51B
  8
0
 10
99.99999999863465
 20
130.0
 30
0.0
 40
2.6000000000000081
  0
LINE
  5
1E51C
  8
0
 10
99.99999999863465
 20
132.30940107675849
 30
0.0
 11
97.999999998634664
 21
131.15470053837919
 31
0.0
  0
CIRCLE
  5
1E51D
  8
0
 10
99.99999999863465
 20
130.0
 30
0.0
 40
4.0
  0
CIRCLE
  5
1E51E
  8
0
 10
99.99999999863465
 20
130.0
 30
0.0
 40
3.499999999999992
  0
CIRCLE
  5
1E527
  8
0
 10
99.99999999863465
 20
143.5
 30
0.0
 40
3.0
  0
ARC
  5
1E52B
  8
0
 10
99.99999999863465
 20
130.00044379996999
 30
0.0
 40
10.99957076979908
 50
104.7222556374367
 51
75.277744362563297
  0
CIRCLE
  5
1E530
  8
0
 10
99.999986291852082
 20
129.99957212111801
 30
0.0
 40
4.4995721211388124
  0
LINE
  5
1E535
  8
0
 10
80.99999999863465
 20
150.0
 30
0.0
 11
118.99999999590391
 21
150.0
 31
0.0
  0
LINE
  5
1E538
  8
0
 10
118.99999999863461
 20
100.0
 30
0.0
 11
81.000000001365365
 21
100.0
 31
0.0
  0
LINE
  5
1E539
  8
0
 10
119.99999999863461
 20
149.0
 30
0.0
 11
79.99999999863465
 21
149.0
 31
0.0
  0
LINE
  5
1E53A
  8
0
 10
79.99999999863465
 20
115.58578643762699
 30
0.0
 11
119.99999999863461
 21
115.58578643762699
 31
0.0
  0
LINE
  5
1E53C
  8
0
 10
79.99999999863465
 20
101.0
 30
0.0
 11
119.99999999863461
 21
101.0
 31
0.0
  0
LINE
  5
1E53D
  8
0
 10
119.99999999863461
 20
104.41421356237289
 30
0.0
 11
79.99999999863465
 21
104.41421356237289
 31
0.0
  0
LINE
  5
1E53F
  8
0
 10
118.99999999863461
 20
113.58578643762689
 30
0.0
 11
80.99999999863465
 21
113.58578643762689
 31
0.0
  0
LINE
  5
1E540
  8
0
 10
118.99999999863461
 20
106.41421356237311
 30
0.0
 11
80.99999999863465
 21
106.41421356237311
 31
0.0
  0
LINE
  5
1E543
  8
0
 10
96.000013705417217
 20
262.81114427113067
 30
0.0
 11
96.000013705417217
 21
262.69573734799081
 31
0.0
  0
LINE
  5
1E544
  8
0
 10
104.0000137054172
 20
262.69573734799081
 30
0.0
 11
104.0000137054172
 21
262.81114427113067
 31
0.0
  0
LINE
  5
1E545
  8
0
 10
104.0000137054172
 20
262.81114427113067
 30
0.0
 11
103.5000137054172
 21
263.0998194057255
 31
0.0
  0
LINE
  5
1E546
  8
0
 10
96.500013705417231
 20
263.0998194057255
 30
0.0
 11
96.000013705417217
 21
262.81114427113067
 31
0.0
  0
LINE
  5
1E547
  8
0
 10
96.000013705417217
 20
223.50390146346001
 30
0.0
 11
96.000013705417217
 21
223.38849454032021
 31
0.0
  0
LINE
  5
1E548
  8
0
 10
104.0000137054172
 20
223.38849454032021
 30
0.0
 11
104.0000137054172
 21
223.50390146346001
 31
0.0
  0
LINE
  5
1E549
  8
0
 10
96.000013705417217
 20
223.38849454032021
 30
0.0
 11
96.500013705417231
 21
223.09981940572541
 31
0.0
  0
LINE
  5
1E54A
  8
0
 10
103.5000137054172
 20
223.09981940572541
 30
0.0
 11
104.0000137054172
 21
223.38849454032021
 31
0.0
  0
LINE
  5
1E54B
  8
0
 10
97.000013705417217
 20
245.32809163427709
 30
0.0
 11
97.000013705417217
 21
240.8715471771736
 31
0.0
  0
LINE
  5
1E54C
  8
0
 10
103.0000137054172
 20
240.87154717717371
 30
0.0
 11
103.0000137054172
 21
245.3280916342772
 31
0.0
  0
LINE
  5
1E54D
  8
0
 10
104.0000137054172
 20
262.81114427113067
 30
0.0
 11
103.3858181962966
 21
262.81114427113067
 31
0.0
  0
LINE
  5
1E54E
  8
0
 10
96.614209214537794
 20
262.81114427113067
 30
0.0
 11
96.000013705417217
 21
262.81114427113067
 31
0.0
  0
LINE
  5
1E54F
  8
0
 10
96.500013705417231
 20
263.0998194057255
 30
0.0
 11
103.5000137054172
 21
263.0998194057255
 31
0.0
  0
LINE
  5
1E550
  8
0
 10
96.000013705417217
 20
223.38849454032021
 30
0.0
 11
96.62508081952916
 21
223.38849454032021
 31
0.0
  0
LINE
  5
1E551
  8
0
 10
103.39555364400179
 20
223.38849454032021
 30
0.0
 11
104.0000137054172
 21
223.38849454032021
 31
0.0
  0
LINE
  5
1E552
  8
0
 10
103.5000137054172
 20
223.09981940572541
 30
0.0
 11
96.500013705417231
 21
223.09981940572541
 31
0.0
  0
ARC
  5
1E553
  8
0
 10
100.0000137054172
 20
243.10087257197421
 30
0.0
 40
3.7507021929771338
 50
221.8223063190604
 51
318.17769368093951
  0
LINE
  5
1E556
  8
0
 10
103.17215809052961
 20
241.09981940572541
 30
0.0
 11
106.1846721438437
 21
241.09981940572541
 31
0.0
  0
LINE
  5
1E557
  8
0
 10
102.7950986772918
 20
240.5998194057255
 30
0.0
 11
103.17215809052961
 21
241.09981940572541
 31
0.0
  0
LINE
  5
1E558
  8
0
 10
93.815355266990707
 20
241.09981940572541
 30
0.0
 11
96.827869320304842
 21
241.09981940572541
 31
0.0
  0
LINE
  5
1E559
  8
0
 10
96.827869320304842
 20
241.09981940572541
 30
0.0
 11
97.204928733542488
 21
240.5998194057255
 31
0.0
  0
ARC
  5
1E55A
  8
0
 10
100.0000137054172
 20
243.09876623947639
 30
0.0
 40
3.7507021929771658
 50
41.822306319060402
 51
138.17769368093951
  0
LINE
  5
1E55F
  8
0
 10
96.827869320304842
 20
245.09981940572541
 30
0.0
 11
93.823255631419215
 21
245.09981940572541
 31
0.0
  0
LINE
  5
1E560
  8
0
 10
97.204928733542602
 20
245.59981940572541
 30
0.0
 11
96.827869320304842
 21
245.09981940572541
 31
0.0
  0
LINE
  5
1E561
  8
0
 10
106.19000039067249
 20
245.0998194057253
 30
0.0
 11
103.17215809052961
 21
245.0998194057253
 31
0.0
  0
LINE
  5
1E562
  8
0
 10
103.17215809052961
 20
245.0998194057253
 30
0.0
 11
102.7950986772919
 21
245.59981940572541
 31
0.0
  0
CIRCLE
  5
1E563
  8
0
 10
100.0000137054172
 20
243.0998194057253
 30
0.0
 40
20.000000000000011
  0
CIRCLE
  5
1E564
  8
0
 10
100.0000137054172
 20
243.0998194057253
 30
0.0
 40
19.000000000000011
  0
CIRCLE
  5
1E565
  8
0
 10
100.0000137054172
 20
243.0998194057253
 30
0.0
 40
15.0
  0
CIRCLE
  5
1E567
  8
0
 10
100.0000137054172
 20
243.0998194057253
 30
0.0
 40
10.99999999999997
  0
CIRCLE
  5
1E568
  8
0
 10
100.0000137054172
 20
243.0998194057253
 30
0.0
 40
8.7564190501027923
  0
CIRCLE
  5
1E56A
  8
0
 10
100.0000137054172
 20
243.0998194057253
 30
0.0
 40
7.7951573541644734
  0
CIRCLE
  5
1E56B
  8
0
 10
100.0000137054172
 20
243.09981940572541
 30
0.0
 40
6.5
  0
ARC
  5
1E56C
  8
0
 10
100.0000137054172
 20
243.09981940572541
 30
0.0
 40
3.3999999999999981
 50
180.0
 51
208.0724869358545
  0
ARC
  5
1E56D
  8
0
 10
100.0000137054172
 20
243.09981940572541
 30
0.0
 40
3.3999999999999968
 50
331.9275130641455
 51
28.072486935854499
  0
ARC
  5
1E56E
  8
0
 10
100.0000137054172
 20
243.09981940572541
 30
0.0
 40
3.3999999999999981
 50
151.9275130641455
 51
180.0
  0
LINE
  5
1E579
  8
0
 10
193.3386790173922
 20
133.9134044039892
 30
0.0
 11
193.09999987346481
 21
133.49999999999989
 31
0.0
  0
LINE
  5
1E57A
  8
0
 10
193.09999987346481
 20
126.5
 30
0.0
 11
193.33907702353031
 21
126.0859062291578
 31
0.0
  0
ARC
  5
1E57B
  8
0
 10
193.544895722398
 20
119.5000640966413
 30
0.0
 40
0.4449293705560688
 50
179.29667292300459
 51
221.5056305362676
  0
LINE
  5
1E57C
  8
0
 10
193.09999987346481
 20
125.0
 30
0.0
 11
193.09999987346481
 21
119.5055256335537
 31
0.0
  0
LINE
  5
1E57D
  8
0
 10
193.09999987346481
 20
139.5113827054555
 30
0.0
 11
193.09999987346481
 21
134.98881131294809
 31
0.0
  0
POLYLINE
  5
1E57E
  8
0
 66
     1
 10
0.0
 20
0.0
 30
0.0
 70
   128
  0
VERTEX
  5
1F8BB
  8
0
 10
193.13025786348121
 20
134.8186228600174
 30
0.0
  0
VERTEX
  5
1F8BC
  8
0
 10
193.13025786348121
 20
134.8186228600174
 30
0.0
  0
VERTEX
  5
1F8BD
  8
0
 10
193.13025786348121
 20
134.8186228600174
 30
0.0
  0
VERTEX
  5
1F8BE
  8
0
 10
193.1465196958506
 20
134.75408994879129
 30
0.0
  0
VERTEX
  5
1F8BF
  8
0
 10
193.1861985847529
 20
134.59334490388869
 30
0.0
  0
VERTEX
  5
1F8C0
  8
0
 10
193.24063226235771
 20
134.36329491791659
 30
0.0
  0
VERTEX
  5
1F8C1
  8
0
 10
193.30580505320219
 20
134.071864250743
 30
0.0
  0
VERTEX
  5
1F8C2
  8
0
 10
193.3785658573872
 20
133.72114093017831
 30
0.0
  0
VERTEX
  5
1F8C3
  8
0
 10
193.45514087487689
 20
133.31411458023209
 30
0.0
  0
VERTEX
  5
1F8C4
  8
0
 10
193.5303337326736
 20
132.86013625161979
 30
0.0
  0
VERTEX
  5
1F8C5
  8
0
 10
193.6000097087335
 20
132.36514541781841
 30
0.0
  0
VERTEX
  5
1F8C6
  8
0
 10
193.66039923595611
 20
131.8349975512993
 30
0.0
  0
VERTEX
  5
1F8C7
  8
0
 10
193.7068090482133
 20
131.28474135336981
 30
0.0
  0
VERTEX
  5
1F8C8
  8
0
 10
193.73762733760611
 20
130.71878733766761
 30
0.0
  0
VERTEX
  5
1F8C9
  8
0
 10
193.7513704829239
 20
130.14237742565589
 30
0.0
  0
VERTEX
  5
1F8CA
  8
0
 10
193.74670423311281
 20
129.57156910831279
 30
0.0
  0
VERTEX
  5
1F8CB
  8
0
 10
193.72481492582699
 20
129.00524787395079
 30
0.0
  0
VERTEX
  5
1F8CC
  8
0
 10
193.6865012817475
 20
128.44928463760351
 30
0.0
  0
VERTEX
  5
1F8CD
  8
0
 10
193.6339145702438
 20
127.9168109819022
 30
0.0
  0
VERTEX
  5
1F8CE
  8
0
 10
193.5696955994735
 20
127.4077096123778
 30
0.0
  0
VERTEX
  5
1F8CF
  8
0
 10
193.49755573758199
 20
126.93375987878829
 30
0.0
  0
VERTEX
  5
1F8D0
  8
0
 10
193.4217694807821
 20
126.5030705650497
 30
0.0
  0
VERTEX
  5
1F8D1
  8
0
 10
193.34597568238149
 20
126.1180029653603
 30
0.0
  0
VERTEX
  5
1F8D2
  8
0
 10
193.27577090861141
 20
125.79136786824159
 30
0.0
  0
VERTEX
  5
1F8D3
  8
0
 10
193.21471653226359
 20
125.5257440593259
 30
0.0
  0
VERTEX
  5
1F8D4
  8
0
 10
193.1682168254757
 20
125.3333027296493
 30
0.0
  0
VERTEX
  5
1F8D5
  8
0
 10
193.16106962912821
 20
125.3043624034118
 30
0.0
  0
VERTEX
  5
1F8D6
  8
0
 10
193.1431359722506
 20
125.23227228219299
 30
0.0
  0
VERTEX
  5
1F8D7
  8
0
 10
193.12138399697039
 20
125.1460858361674
 30
0.0
  0
VERTEX
  5
1F8D8
  8
0
 10
193.11719314467959
 20
125.1298079253739
 30
0.0
  0
VERTEX
  5
1F8D9
  8
0
 10
193.11757350044209
 20
125.1312017340573
 30
0.0
  0
SEQEND
  5
1F8DA
  8
0
  0
ARC
  5
1E57F
  8
0
 10
193.81323938940551
 20
135.02783491474281
 30
0.0
 40
0.7143062708645014
 50
183.13171181054631
 51
197.0309625446082
  0
ARC
  5
1E581
  8
0
 10
193.5835549877543
 20
125.0019949383247
 30
0.0
 40
0.4835592293964068
 50
164.6736195713363
 51
180.23637615350171
  0
ARC
  5
1E582
  8
0
 10
232.6528650486666
 20
119.4998661124025
 30
0.0
 40
0.4471706405020321
 50
318.62104710841481
 51
0.7251713422293749
  0
LINE
  5
1E583
  8
0
 10
233.09999987346481
 20
119.5055256335536
 30
0.0
 11
233.09999987346481
 21
139.50259465400529
 31
0.0
  0
ARC
  5
1E585
  8
0
 10
194.09999987346481
 20
104.41421356237289
 30
0.0
 40
1.0000000000000311
 50
126.8698976458375
 51
180.0
  0
ARC
  5
1E586
  8
0
 10
232.0999998734649
 20
104.41421356237289
 30
0.0
 40
1.000000000000056
 50
0.0
 51
53.130102354161181
  0
ARC
  5
1E587
  8
0
 10
194.09999987346481
 20
149.0
 30
0.0
 40
1.0
 50
90.0
 51
180.0
  0
ARC
  5
1E588
  8
0
 10
232.09999987346481
 20
149.0
 30
0.0
 40
1.000000000000028
 50
0.0
 51
90.0
  0
LINE
  5
1E589
  8
0
 10
233.0999998734649
 20
147.48637086701569
 30
0.0
 11
233.0999998734649
 21
149.0
 31
0.0
  0
LINE
  5
1E58A
  8
0
 10
233.0999998734649
 20
115.58578643762699
 30
0.0
 11
233.0999998734649
 21
119.0099444657664
 31
0.0
  0
LINE
  5
1E58B
  8
0
 10
193.09999987346481
 20
119.0
 30
0.0
 11
193.09999987346481
 21
115.58578643762699
 31
0.0
  0
LINE
  5
1E58C
  8
0
 10
193.09999987346481
 20
149.0
 30
0.0
 11
193.09999987346481
 21
147.48637086701569
 31
0.0
  0
ARC
  5
1E58D
  8
0
 10
194.09999987346481
 20
115.58578643762699
 30
0.0
 40
1.0000000000000531
 50
180.0
 51
233.1301023541638
  0
ARC
  5
1E58E
  8
0
 10
232.0999998734649
 20
115.58578643762699
 30
0.0
 40
1.0000000000000731
 50
306.86989764583751
 51
0.0
  0
ARC
  5
1E58F
  8
0
 10
232.09999987346481
 20
101.0
 30
0.0
 40
1.000000000000028
 50
270.0
 51
0.0
  0
ARC
  5
1E590
  8
0
 10
194.09999987346481
 20
101.0
 30
0.0
 40
1.0
 50
180.0
 51
270.0
  0
LINE
  5
1E591
  8
0
 10
233.0999998734649
 20
101.0
 30
0.0
 11
233.0999998734649
 21
104.41421356237289
 31
0.0
  0
LINE
  5
1E592
  8
0
 10
193.09999987346481
 20
104.41421356237289
 30
0.0
 11
193.09999987346481
 21
101.0
 31
0.0
  0
ARC
  5
1E593
  8
0
 10
233.5999998734649
 20
113.58578643762689
 30
0.0
 40
1.500000000000028
 50
126.8698976458447
 51
180.0
  0
ARC
  5
1E594
  8
0
 10
192.59999987346481
 20
113.58578643762689
 30
0.0
 40
1.5
 50
0.0
 51
53.130102354159227
  0
ARC
  5
1E595
  8
0
 10
233.5999998734649
 20
106.41421356237311
 30
0.0
 40
1.500000000000028
 50
180.0
 51
233.13010235416121
  0
ARC
  5
1E596
  8
0
 10
192.59999987346481
 20
106.41421356237311
 30
0.0
 40
1.5
 50
306.86989764584069
 51
0.0
  0
LINE
  5
1E597
  8
0
 10
232.09999987346481
 20
106.41421356237311
 30
0.0
 11
232.09999987346481
 21
113.58578643762689
 31
0.0
  0
LINE
  5
1E598
  8
0
 10
194.09999987346481
 20
113.58578643762689
 30
0.0
 11
194.09999987346481
 21
106.41421356237311
 31
0.0
  0
LINE
  5
1E59D
  8
0
 10
193.38867500805961
 20
133.6688532472684
 30
0.0
 11
193.38867500805961
 21
126.334935315951
 31
0.0
  0
LINE
  5
1E59E
  8
0
 10
193.09999987346481
 20
126.5
 30
0.0
 11
193.09999987346481
 21
133.49999999999989
 31
0.0
  0
LINE
  5
1E5A2
  8
0
 10
193.1040192154949
 20
119.50672218481969
 30
0.0
 11
193.1011106161483
 21
119.5014067821792
 31
0.0
  0
POLYLINE
  5
1E5A3
  8
0
 66
     1
 10
0.0
 20
0.0
 30
0.0
 70
   128
  0
VERTEX
  5
1F8DB
  8
0
 10
193.23651581563121
 20
140.25069254827889
 30
0.0
  0
VERTEX
  5
1F8DC
  8
0
 10
193.2978226997385
 20
140.39985913517799
 30
0.0
  0
VERTEX
  5
1F8DD
  8
0
 10
193.3789749730214
 20
140.48347930423489
 30
0.0
  0
SEQEND
  5
1F8DE
  8
0
  0
ARC
  5
1E5A4
  8
0
 10
177.30265232938649
 20
142.8106727534207
 30
0.0
 40
16.138200155190759
 50
348.2032938746882
 51
350.87269538493882
  0
ARC
  5
1E5A5
  8
0
 10
232.6020526922091
 20
140.19712037599709
 30
0.0
 40
0.3653799641915969
 50
8.4311267439022952
 51
52.734881497470639
  0
POLYLINE
  5
1E5A7
  8
0
 66
     1
 10
0.0
 20
0.0
 30
0.0
 70
   128
  0
VERTEX
  5
1F8DF
  8
0
 10
233.09999987346481
 20
139.50259465400529
 30
0.0
  0
VERTEX
  5
1F8E0
  8
0
 10
233.09999987346481
 20
139.50259465400529
 30
0.0
  0
VERTEX
  5
1F8E1
  8
0
 10
233.08114323704709
 20
139.59537580348271
 30
0.0
  0
VERTEX
  5
1F8E2
  8
0
 10
233.04439503497889
 20
139.78800614781929
 30
0.0
  0
VERTEX
  5
1F8E3
  8
0
 10
232.9907322166967
 20
140.08807486159361
 30
0.0
  0
VERTEX
  5
1F8E4
  8
0
 10
232.96348393129841
 20
140.25069254827889
 30
0.0
  0
SEQEND
  5
1F8E5
  8
0
  0
LINE
  5
1E5A8
  8
0
 10
194.09999987346481
 20
150.0
 30
0.0
 11
232.09999987346481
 21
150.0
 31
0.0
  0
POLYLINE
  5
1E5A9
  8
0
 66
     1
 10
0.0
 20
0.0
 30
0.0
 70
   128
  0
VERTEX
  5
1F8E6
  8
0
 10
193.296314438927
 20
140.6388888888888
 30
0.0
  0
VERTEX
  5
1F8E7
  8
0
 10
193.3770081507742
 20
141.26473659419739
 30
0.0
  0
VERTEX
  5
1F8E8
  8
0
 10
193.43456977904501
 20
141.8479888624735
 30
0.0
  0
VERTEX
  5
1F8E9
  8
0
 10
193.47846432638951
 20
142.4976740923529
 30
0.0
  0
VERTEX
  5
1F8EA
  8
0
 10
193.50408193119941
 20
143.5
 30
0.0
  0
VERTEX
  5
1F8EB
  8
0
 10
193.4931559490376
 20
144.1544682397562
 30
0.0
  0
VERTEX
  5
1F8EC
  8
0
 10
193.4604144728664
 20
144.8089364795124
 30
0.0
  0
VERTEX
  5
1F8ED
  8
0
 10
193.4113993634459
 20
145.4081378469904
 30
0.0
  0
VERTEX
  5
1F8EE
  8
0
 10
193.34901987477019
 20
145.97006293620919
 30
0.0
  0
VERTEX
  5
1F8EF
  8
0
 10
193.28254403240629
 20
146.45492064399409
 30
0.0
  0
VERTEX
  5
1F8F0
  8
0
 10
193.21653781691629
 20
146.86928232034731
 30
0.0
  0
VERTEX
  5
1F8F1
  8
0
 10
193.16132924680551
 20
147.1811121089161
 30
0.0
  0
VERTEX
  5
1F8F2
  8
0
 10
193.12071438523529
 20
147.39510572644409
 30
0.0
  0
VERTEX
  5
1F8F3
  8
0
 10
193.09999987346481
 20
147.48637086701569
 30
0.0
  0
VERTEX
  5
1F8F4
  8
0
 10
193.09999987346481
 20
147.48637086701569
 30
0.0
  0
SEQEND
  5
1F8F5
  8
0
  0
POLYLINE
  5
1E5AA
  8
0
 66
     1
 10
0.0
 20
0.0
 30
0.0
 70
   128
  0
VERTEX
  5
1F8F6
  8
0
 10
193.296314438927
 20
140.6388888888888
 30
0.0
  0
VERTEX
  5
1F8F7
  8
0
 10
193.50525665772119
 20
140.24470408020309
 30
0.0
  0
VERTEX
  5
1F8F8
  8
0
 10
193.861947562089
 20
139.54477117249189
 30
0.0
  0
VERTEX
  5
1F8F9
  8
0
 10
194.30130694502239
 20
138.62501338073571
 30
0.0
  0
VERTEX
  5
1F8FA
  8
0
 10
194.82352296804621
 20
137.41819439448011
 30
0.0
  0
VERTEX
  5
1F8FB
  8
0
 10
195.3578708614138
 20
135.98190119278661
 30
0.0
  0
VERTEX
  5
1F8FC
  8
0
 10
195.6183600411193
 20
135.15817394099341
 30
0.0
  0
VERTEX
  5
1F8FD
  8
0
 10
195.85461871155761
 20
134.28989177246521
 30
0.0
  0
VERTEX
  5
1F8FE
  8
0
 10
196.064236494901
 20
133.3486799376852
 30
0.0
  0
VERTEX
  5
1F8FF
  8
0
 10
196.22916653272759
 20
132.37171195783361
 30
0.0
  0
VERTEX
  5
1F900
  8
0
 10
196.3294269432804
 20
131.4994730585652
 30
0.0
  0
VERTEX
  5
1F901
  8
0
 10
196.38543612343551
 20
130.61371113220599
 30
0.0
  0
VERTEX
  5
1F902
  8
0
 10
196.39363144674181
 20
129.68727126602471
 30
0.0
  0
VERTEX
  5
1F903
  8
0
 10
196.3510360416989
 20
128.76396220211399
 30
0.0
  0
VERTEX
  5
1F904
  8
0
 10
196.17208642068391
 20
127.25149970623271
 30
0.0
  0
VERTEX
  5
1F905
  8
0
 10
195.87006080057009
 20
125.7726130463767
 30
0.0
  0
VERTEX
  5
1F906
  8
0
 10
195.4659043071064
 20
124.34656507568511
 30
0.0
  0
VERTEX
  5
1F907
  8
0
 10
194.9985451951963
 20
123.02413722401241
 30
0.0
  0
VERTEX
  5
1F908
  8
0
 10
194.45497810183119
 20
121.7152648283308
 30
0.0
  0
VERTEX
  5
1F909
  8
0
 10
194.1865853979449
 20
121.12770093560469
 30
0.0
  0
VERTEX
  5
1F90A
  8
0
 10
193.9346040305183
 20
120.60253237213161
 30
0.0
  0
VERTEX
  5
1F90B
  8
0
 10
193.70524354999
 20
120.1431627414055
 30
0.0
  0
VERTEX
  5
1F90C
  8
0
 10
193.5052160919864
 20
119.7552183311264
 30
0.0
  0
VERTEX
  5
1F90D
  8
0
 10
193.33517044548989
 20
119.4335613482103
 30
0.0
  0
VERTEX
  5
1F90E
  8
0
 10
193.208223824237
 20
119.198020811322
 30
0.0
  0
VERTEX
  5
1F90F
  8
0
 10
193.127635522567
 20
119.0503270475774
 30
0.0
  0
VERTEX
  5
1F910
  8
0
 10
193.09999987346481
 20
119.0
 30
0.0
  0
VERTEX
  5
1F911
  8
0
 10
193.09999987346481
 20
119.0
 30
0.0
  0
SEQEND
  5
1F912
  8
0
  0
ARC
  5
1E5AB
  8
0
 10
252.79906675913489
 20
143.502877472432
 30
0.0
 40
20.100463519350111
 50
168.5694973569544
 51
188.19159334528541
  0
POLYLINE
  5
1E5AC
  8
0
 66
     1
 10
0.0
 20
0.0
 30
0.0
 70
   128
  0
VERTEX
  5
1F913
  8
0
 10
233.0999998734649
 20
119.0099444657664
 30
0.0
  0
VERTEX
  5
1F914
  8
0
 10
233.09306704570881
 20
119.0126101846772
 30
0.0
  0
VERTEX
  5
1F915
  8
0
 10
232.98544821454979
 20
119.209677682017
 30
0.0
  0
VERTEX
  5
1F916
  8
0
 10
232.74848081302611
 20
119.652884303715
 30
0.0
  0
VERTEX
  5
1F917
  8
0
 10
232.41042540896319
 20
120.31018398719419
 30
0.0
  0
VERTEX
  5
1F918
  8
0
 10
231.9853143644458
 20
121.1877866898686
 30
0.0
  0
VERTEX
  5
1F919
  8
0
 10
231.47350521149161
 20
122.3458704997564
 30
0.0
  0
VERTEX
  5
1F91A
  8
0
 10
230.94069911791561
 20
123.73178258745391
 30
0.0
  0
VERTEX
  5
1F91B
  8
0
 10
230.67371550695989
 20
124.5378794104162
 30
0.0
  0
VERTEX
  5
1F91C
  8
0
 10
230.42778813999641
 20
125.3899841421368
 30
0.0
  0
VERTEX
  5
1F91D
  8
0
 10
230.204988533712
 20
126.31521821295971
 30
0.0
  0
VERTEX
  5
1F91E
  8
0
 10
230.0235199454344
 20
127.2786893550425
 30
0.0
  0
VERTEX
  5
1F91F
  8
0
 10
229.90469683150619
 20
128.15767077671109
 30
0.0
  0
VERTEX
  5
1F920
  8
0
 10
229.83008515064139
 20
129.0535575127881
 30
0.0
  0
VERTEX
  5
1F921
  8
0
 10
229.80345323576171
 20
129.99480118958479
 30
0.0
  0
VERTEX
  5
1F922
  8
0
 10
229.82950318027201
 20
130.93609876213651
 30
0.0
  0
VERTEX
  5
1F923
  8
0
 10
229.98438077949999
 20
132.46623571056901
 30
0.0
  0
VERTEX
  5
1F924
  8
0
 10
230.26865518734959
 20
133.9702298783551
 30
0.0
  0
VERTEX
  5
1F925
  8
0
 10
230.6543867487789
 20
135.3996757836189
 30
0.0
  0
VERTEX
  5
1F926
  8
0
 10
231.10896688493139
 20
136.732227923956
 30
0.0
  0
VERTEX
  5
1F927
  8
0
 10
231.6475838557005
 20
138.0630559701695
 30
0.0
  0
VERTEX
  5
1F928
  8
0
 10
231.91708616739251
 20
138.6650522035859
 30
0.0
  0
VERTEX
  5
1F929
  8
0
 10
232.17297461105619
 20
139.2075167847145
 30
0.0
  0
VERTEX
  5
1F92A
  8
0
 10
232.587685946107
 20
140.03842161227811
 30
0.0
  0
VERTEX
  5
1F92B
  8
0
 10
232.76191357360901
 20
140.37263355284441
 30
0.0
  0
VERTEX
  5
1F92C
  8
0
 10
232.90368530800259
 20
140.6388888888888
 30
0.0
  0
SEQEND
  5
1F92D
  8
0
  0
LINE
  5
1E5AE
  8
0
 10
232.09999987346481
 20
100.0
 30
0.0
 11
194.09999987346481
 21
100.0
 31
0.0
  0
POLYLINE
  5
1E5AF
  8
0
 66
     1
 10
0.0
 20
0.0
 30
0.0
 70
   128
  0
VERTEX
  5
1F92E
  8
0
 10
193.1040192154949
 20
119.50672218481969
 30
0.0
  0
VERTEX
  5
1F92F
  8
0
 10
193.17885072700139
 20
119.6434751598604
 30
0.0
  0
VERTEX
  5
1F930
  8
0
 10
193.33029908765201
 20
119.922563257055
 30
0.0
  0
VERTEX
  5
1F931
  8
0
 10
193.5515332983131
 20
120.34157566281429
 30
0.0
  0
VERTEX
  5
1F932
  8
0
 10
193.82949703988541
 20
120.8886466065296
 30
0.0
  0
VERTEX
  5
1F933
  8
0
 10
194.14321682501591
 20
121.53704475134241
 30
0.0
  0
VERTEX
  5
1F934
  8
0
 10
194.48550980402771
 20
122.2931457843072
 30
0.0
  0
VERTEX
  5
1F935
  8
0
 10
194.83914249200211
 20
123.1447554010813
 30
0.0
  0
VERTEX
  5
1F936
  8
0
 10
195.30743114206851
 20
124.4376014131466
 30
0.0
  0
VERTEX
  5
1F937
  8
0
 10
195.72460416502611
 20
125.87715541663221
 30
0.0
  0
VERTEX
  5
1F938
  8
0
 10
195.95017111217439
 20
126.90723429308559
 30
0.0
  0
VERTEX
  5
1F939
  8
0
 10
196.119907402244
 20
127.9857712887255
 30
0.0
  0
VERTEX
  5
1F93A
  8
0
 10
196.22126011378609
 20
129.0915284863394
 30
0.0
  0
VERTEX
  5
1F93B
  8
0
 10
196.23682364324901
 20
130.5710570357729
 30
0.0
  0
VERTEX
  5
1F93C
  8
0
 10
196.15346279012039
 20
131.72252139371511
 30
0.0
  0
VERTEX
  5
1F93D
  8
0
 10
195.99431298174451
 20
132.84957518373099
 30
0.0
  0
VERTEX
  5
1F93E
  8
0
 10
195.77229711255811
 20
133.92740049188691
 30
0.0
  0
VERTEX
  5
1F93F
  8
0
 10
195.71471797032001
 20
134.1622746817101
 30
0.0
  0
VERTEX
  5
1F940
  8
0
 10
195.40905261034291
 20
135.24520599564241
 30
0.0
  0
VERTEX
  5
1F941
  8
0
 10
195.0681205010234
 20
136.25228143172021
 30
0.0
  0
VERTEX
  5
1F942
  8
0
 10
194.7127584905264
 20
137.1691994005096
 30
0.0
  0
VERTEX
  5
1F943
  8
0
 10
194.23637110714211
 20
138.26267268875219
 30
0.0
  0
VERTEX
  5
1F944
  8
0
 10
193.80365272668351
 20
139.1632025341523
 30
0.0
  0
VERTEX
  5
1F945
  8
0
 10
193.473045468816
 20
139.8083387870644
 30
0.0
  0
VERTEX
  5
1F946
  8
0
 10
193.23651581563109
 20
140.25069254827861
 30
0.0
  0
SEQEND
  5
1F947
  8
0
  0
POLYLINE
  5
1E5B1
  8
0
 66
     1
 10
0.0
 20
0.0
 30
0.0
 70
   128
  0
VERTEX
  5
1F948
  8
0
 10
232.96348393129841
 20
140.25069254827889
 30
0.0
  0
VERTEX
  5
1F949
  8
0
 10
232.7879208633357
 20
139.92362092805129
 30
0.0
  0
VERTEX
  5
1F94A
  8
0
 10
232.55179036954149
 20
139.47048195310219
 30
0.0
  0
VERTEX
  5
1F94B
  8
0
 10
232.25674083224101
 20
138.88075466410251
 30
0.0
  0
VERTEX
  5
1F94C
  8
0
 10
231.9225598172907
 20
138.1732409382719
 30
0.0
  0
VERTEX
  5
1F94D
  8
0
 10
231.56684872348961
 20
137.36114267241931
 30
0.0
  0
VERTEX
  5
1F94E
  8
0
 10
231.0928303489832
 20
136.1446054521318
 30
0.0
  0
VERTEX
  5
1F94F
  8
0
 10
230.65010277001281
 20
134.77475757659539
 30
0.0
  0
VERTEX
  5
1F950
  8
0
 10
230.31592344538959
 20
133.42595683789429
 30
0.0
  0
VERTEX
  5
1F951
  8
0
 10
230.0762152337231
 20
131.9905811940113
 30
0.0
  0
VERTEX
  5
1F952
  8
0
 10
229.98451905675611
 20
131.00184158898509
 30
0.0
  0
VERTEX
  5
1F953
  8
0
 10
229.9530016428545
 20
130.0
 30
0.0
  0
VERTEX
  5
1F954
  8
0
 10
230.0055565038316
 20
128.7013174419703
 30
0.0
  0
VERTEX
  5
1F955
  8
0
 10
230.13462518393879
 20
127.5869144200171
 30
0.0
  0
VERTEX
  5
1F956
  8
0
 10
230.3305503793375
 20
126.5062824170471
 30
0.0
  0
VERTEX
  5
1F957
  8
0
 10
230.57901082774521
 20
125.4799358264703
 30
0.0
  0
VERTEX
  5
1F958
  8
0
 10
230.67384536126889
 20
125.1429362783652
 30
0.0
  0
VERTEX
  5
1F959
  8
0
 10
230.99748033378609
 20
124.1260452996997
 30
0.0
  0
VERTEX
  5
1F95A
  8
0
 10
231.3439343692491
 20
123.1877092729605
 30
0.0
  0
VERTEX
  5
1F95B
  8
0
 10
231.694113081148
 20
122.3403602020153
 30
0.0
  0
VERTEX
  5
1F95C
  8
0
 10
232.14776938002089
 20
121.3450394014037
 30
0.0
  0
VERTEX
  5
1F95D
  8
0
 10
232.5447468182947
 20
120.5432782675025
 30
0.0
  0
VERTEX
  5
1F95E
  8
0
 10
232.8399133159989
 20
119.9784389293773
 30
0.0
  0
VERTEX
  5
1F95F
  8
0
 10
233.03083661541791
 20
119.6257716199738
 30
0.0
  0
VERTEX
  5
1F960
  8
0
 10
233.0999998734568
 20
119.5055257981938
 30
0.0
  0
SEQEND
  5
1F961
  8
0
  0
LINE
  5
1E5B2
  8
0
 10
233.0999998734649
 20
104.41421356237289
 30
0.0
 11
193.09999987346481
 21
104.41421356237289
 31
0.0
  0
LINE
  5
1E5B4
  8
0
 10
233.0999998734649
 20
149.0
 30
0.0
 11
193.09999987346481
 21
149.0
 31
0.0
  0
LINE
  5
1E5B5
  8
0
 10
193.09999987346481
 20
115.58578643762699
 30
0.0
 11
233.0999998734649
 21
115.58578643762699
 31
0.0
  0
LINE
  5
1E5B8
  8
0
 10
193.09999987346481
 20
101.0
 30
0.0
 11
233.0999998734649
 21
101.0
 31
0.0
  0
LINE
  5
1E5BB
  8
0
 10
232.09999987346481
 20
113.58578643762689
 30
0.0
 11
194.09999987346481
 21
113.58578643762689
 31
0.0
  0
LINE
  5
1E5BD
  8
0
 10
232.09999987346481
 20
106.41421356237311
 30
0.0
 11
194.09999987346481
 21
106.41421356237311
 31
0.0
  0
LINE
  5
1E626
  8
5
 10
89.000013765021876
 20
226.39652667825499
 30
0.0
 11
89.000013765021876
 21
223.5681428599863
 31
0.0
  0
ARC
  5
1E628
  8
5
 10
89.486793710292517
 20
223.56065143037171
 30
0.0
 40
0.4868375875333181
 50
179.11830094552681
 51
239.32894912034419
  0
LINE
  5
1E638
  8
5
 10
97.204652722999157
 20
220.6832407999544
 30
0.0
 11
97.204652722999157
 21
223.2961333382635
 31
0.0
  0
LINE
  5
1E63A
  8
5
 10
102.79537468783531
 20
223.2961333382635
 30
0.0
 11
102.79537468783531
 21
220.6832407999544
 31
0.0
  0
ARC
  5
1E63B
  8
5
 10
97.732188272134266
 20
220.66035248706609
 30
0.0
 40
0.5280318460738604
 50
177.51565221760339
 51
262.93076203979791
  0
ARC
  5
1E63C
  8
5
 10
100.00120028705049
 20
240.00314736095029
 30
0.0
 40
20.00344433526217
 50
237.4493702795412
 51
263.29948203332452
  0
ARC
  5
1E63E
  8
5
 10
102.25987365270051
 20
220.6670893769207
 30
0.0
 40
0.5357445539587579
 50
277.82599261230661
 51
1.727593130315036
  0
ARC
  5
1E63F
  8
5
 10
100.0000137054172
 20
240.02641137957161
 30
0.0
 40
20.02641137957157
 50
263.31061970781201
 51
276.6893802921897
  0
ARC
  5
1E651
  8
5
 10
99.917240377067884
 20
241.5072345636118
 30
0.0
 40
20.999924953433741
 50
238.676482209337
 51
262.57829231887263
  0
ARC
  5
1E66F
  8
5
 10
190.4976140909875
 20
119.49764184701429
 30
0.0
 40
0.4976765306228975
 50
179.0924009737933
 51
270.67045487680019
  0
LINE
  5
1E670
  8
5
 10
189.99999999863459
 20
125.000000372529
 30
0.0
 11
189.99999999863459
 21
119.5055250078439
 31
0.0
  0
LINE
  5
1E671
  8
5
 10
189.99999999863459
 20
139.51138257980341
 30
0.0
 11
189.99999999863459
 21
134.9888131022453
 31
0.0
  0
LINE
  5
1E672
  8
5
 10
190.50343759221391
 20
118.99999938905241
 30
0.0
 11
193.1000003204997
 21
118.99999938905241
 31
0.0
  0
ARC
  5
1E676
  8
5
 10
235.71586287484749
 20
119.4865934805928
 30
0.0
 40
0.4775919260396008
 50
267.82925832497
 51
2.428102517429203
  0
LINE
  5
1E677
  8
5
 10
236.19999974829511
 20
133.4882251918315
 30
0.0
 11
236.19999974829511
 21
139.51138257980341
 31
0.0
  0
LINE
  5
1E678
  8
5
 10
236.19999974829511
 20
119.5055250078439
 30
0.0
 11
236.19999974829511
 21
126.5035051852464
 31
0.0
  0
LINE
  5
1E679
  8
5
 10
233.09999942643
 20
118.99999938905241
 30
0.0
 11
235.69656215471579
 21
118.99999938905241
 31
0.0
  0
ARC
  5
1E699
  8
5
 10
190.66010982546271
 20
140.09238317846561
 30
0.0
 40
0.547003891804941
 50
87.557509371245331
 51
163.1772600584361
  0
ARC
  5
1E69A
  8
5
 10
168.81828909484511
 20
143.7398320210053
 30
0.0
 40
21.601871574541018
 50
348.71177640155253
 51
350.7048525326104
  0
LINE
  5
1E69D
  8
5
 10
193.2963138060029
 20
140.63889011740679
 30
0.0
 11
190.6834212676938
 21
140.63889011740679
 31
0.0
  0
ARC
  5
1E69E
  8
5
 10
235.5515758252993
 20
140.1088466820612
 30
0.0
 40
0.5311975692568707
 50
15.487627213215889
 51
93.777603357103217
  0
POLYLINE
  5
1E69F
  8
5
 66
     1
 10
0.0
 20
0.0
 30
0.0
 70
   128
  0
VERTEX
  5
1F962
  8
5
 10
236.1966358111556
 20
119.5055250078439
 30
0.0
  0
VERTEX
  5
1F963
  8
5
 10
236.1988896117862
 20
119.50140669941899
 30
0.0
  0
VERTEX
  5
1F964
  8
5
 10
236.19592800599889
 20
119.5068195462227
 30
0.0
  0
SEQEND
  5
1F965
  8
5
  0
POLYLINE
  5
1E6A0
  8
5
 66
     1
 10
0.0
 20
0.0
 30
0.0
 70
   128
  0
VERTEX
  5
1F966
  8
5
 10
235.89136876029329
 20
129.99999932944769
 30
0.0
  0
VERTEX
  5
1F967
  8
5
 10
235.89973948759391
 20
130.57421371340749
 30
0.0
  0
VERTEX
  5
1F968
  8
5
 10
235.9248293177541
 20
131.14842623472211
 30
0.0
  0
VERTEX
  5
1F969
  8
5
 10
235.96241377157531
 20
131.67422115802759
 30
0.0
  0
VERTEX
  5
1F96A
  8
5
 10
236.0102725760396
 20
132.16722607612601
 30
0.0
  0
VERTEX
  5
1F96B
  8
5
 10
236.06110043687181
 20
132.5910076498985
 30
0.0
  0
VERTEX
  5
1F96C
  8
5
 10
236.1115315542873
 20
132.95280411839479
 30
0.0
  0
VERTEX
  5
1F96D
  8
5
 10
236.15356027943449
 20
133.2240611314773
 30
0.0
  0
VERTEX
  5
1F96E
  8
5
 10
236.1844038204606
 20
133.4097482264041
 30
0.0
  0
VERTEX
  5
1F96F
  8
5
 10
236.1988262818511
 20
133.49328786134711
 30
0.0
  0
VERTEX
  5
1F970
  8
5
 10
236.19794338805039
 20
133.4882251918315
 30
0.0
  0
SEQEND
  5
1F971
  8
5
  0
ARC
  5
1E6A2
  8
5
 10
256.25953719656849
 20
130.03249766547381
 30
0.0
 40
20.368194362542781
 50
180.09141793584479
 51
189.9774142405345
  0
POLYLINE
  5
1E6A3
  8
5
 66
     1
 10
0.0
 20
0.0
 30
0.0
 70
   128
  0
VERTEX
  5
1F972
  8
5
 10
236.1977291838582
 20
139.51138257980341
 30
0.0
  0
VERTEX
  5
1F973
  8
5
 10
236.1990218595918
 20
139.50489684939379
 30
0.0
  0
VERTEX
  5
1F974
  8
5
 10
236.1811423288043
 20
139.5953767001628
 30
0.0
  0
VERTEX
  5
1F975
  8
5
 10
236.14439420265509
 20
139.788007736206
 30
0.0
  0
VERTEX
  5
1F976
  8
5
 10
236.09073139590581
 20
140.08807614445681
 30
0.0
  0
VERTEX
  5
1F977
  8
5
 10
236.0634846226628
 20
140.25069251656529
 30
0.0
  0
SEQEND
  5
1F978
  8
5
  0
LINE
  5
1E6A4
  8
5
 10
235.5165784792359
 20
140.63889011740679
 30
0.0
 11
232.90368594092681
 21
140.63889011740679
 31
0.0
  0
POLYLINE
  5
1E6AE
  8
5
 66
     1
 10
0.0
 20
0.0
 30
0.0
 70
   128
  0
VERTEX
  5
1F979
  8
5
 10
190.6834212676938
 20
140.63889011740679
 30
0.0
  0
VERTEX
  5
1F97A
  8
5
 10
190.89874118429981
 20
140.20329937338821
 30
0.0
  0
VERTEX
  5
1F97B
  8
5
 10
191.1860616491492
 20
139.59954530000681
 30
0.0
  0
VERTEX
  5
1F97C
  8
5
 10
191.60310231012659
 20
138.6671610176563
 30
0.0
  0
VERTEX
  5
1F97D
  8
5
 10
192.07243859631379
 20
137.51058876514429
 30
0.0
  0
VERTEX
  5
1F97E
  8
5
 10
192.58209369940121
 20
136.05297580361361
 30
0.0
  0
VERTEX
  5
1F97F
  8
5
 10
193.04934941095661
 20
134.3604795634746
 30
0.0
  0
VERTEX
  5
1F980
  8
5
 10
193.38679179412671
 20
132.5658507645129
 30
0.0
  0
VERTEX
  5
1F981
  8
5
 10
193.49816679817991
 20
131.59066662192339
 30
0.0
  0
VERTEX
  5
1F982
  8
5
 10
193.5584028796608
 20
130.59825114905831
 30
0.0
  0
VERTEX
  5
1F983
  8
5
 10
193.5432279096301
 20
129.04826775193209
 30
0.0
  0
VERTEX
  5
1F984
  8
5
 10
193.37456911665751
 20
127.3486897349357
 30
0.0
  0
VERTEX
  5
1F985
  8
5
 10
193.05898859960399
 20
125.6808288395405
 30
0.0
  0
VERTEX
  5
1F986
  8
5
 10
192.65832245213349
 20
124.1922065615654
 30
0.0
  0
VERTEX
  5
1F987
  8
5
 10
192.19566374880631
 20
122.8183157742023
 30
0.0
  0
VERTEX
  5
1F988
  8
5
 10
191.68890505892591
 20
121.5346049517393
 30
0.0
  0
VERTEX
  5
1F989
  8
5
 10
191.21125951272799
 20
120.4547718167305
 30
0.0
  0
VERTEX
  5
1F98A
  8
5
 10
190.8297264562305
 20
119.6556244045496
 30
0.0
  0
VERTEX
  5
1F98B
  8
5
 10
190.68286619943939
 20
119.3599462509155
 30
0.0
  0
VERTEX
  5
1F98C
  8
5
 10
190.576879827803
 20
119.1503074020147
 30
0.0
  0
VERTEX
  5
1F98D
  8
5
 10
190.50343759221391
 20
118.99999938905241
 30
0.0
  0
VERTEX
  5
1F98E
  8
5
 10
190.50343759221391
 20
118.99999938905241
 30
0.0
  0
SEQEND
  5
1F98F
  8
5
  0
POLYLINE
  5
1E6AF
  8
5
 66
     1
 10
0.0
 20
0.0
 30
0.0
 70
   128
  0
VERTEX
  5
1F990
  8
5
 10
189.99999999863459
 20
119.5055250078439
 30
0.0
  0
VERTEX
  5
1F991
  8
5
 10
190.07885135573699
 20
119.64347437024109
 30
0.0
  0
VERTEX
  5
1F992
  8
5
 10
190.33300928634961
 20
120.11531963944429
 30
0.0
  0
VERTEX
  5
1F993
  8
5
 10
190.7294975207503
 20
120.8886470645666
 30
0.0
  0
VERTEX
  5
1F994
  8
5
 10
191.21186859769179
 20
121.9023954123258
 30
0.0
  0
VERTEX
  5
1F995
  8
5
 10
191.73914246124579
 20
123.1447555124759
 30
0.0
  0
VERTEX
  5
1F996
  8
5
 10
192.2074319408591
 20
124.4376007467508
 30
0.0
  0
VERTEX
  5
1F997
  8
5
 10
192.62460484964211
 20
125.87715536355969
 30
0.0
  0
VERTEX
  5
1F998
  8
5
 10
192.9428023831303
 20
127.4417735636234
 30
0.0
  0
VERTEX
  5
1F999
  8
5
 10
193.121260552233
 20
129.091527685523
 30
0.0
  0
VERTEX
  5
1F99A
  8
5
 10
193.13682295245479
 20
130.57105652987951
 30
0.0
  0
VERTEX
  5
1F99B
  8
5
 10
192.98255309326001
 20
132.29065239429471
 30
0.0
  0
VERTEX
  5
1F99C
  8
5
 10
192.67229787868811
 20
133.92739966511721
 30
0.0
  0
VERTEX
  5
1F99D
  8
5
 10
192.61471792918991
 20
134.1622754931449
 30
0.0
  0
VERTEX
  5
1F99E
  8
5
 10
192.14169174296219
 20
135.7591211795806
 30
0.0
  0
VERTEX
  5
1F99F
  8
5
 10
191.6127582625802
 20
137.16919943690289
 30
0.0
  0
VERTEX
  5
1F9A0
  8
5
 10
191.13637186450319
 20
138.2626727223396
 30
0.0
  0
VERTEX
  5
1F9A1
  8
5
 10
190.70365331930481
 20
139.16320204734799
 30
0.0
  0
VERTEX
  5
1F9A2
  8
5
 10
190.37304498118721
 20
139.808340370655
 30
0.0
  0
VERTEX
  5
1F9A3
  8
5
 10
190.13651512426691
 20
140.25069251656529
 30
0.0
  0
SEQEND
  5
1F9A4
  8
5
  0
POLYLINE
  5
1E6B0
  8
5
 66
     1
 10
0.0
 20
0.0
 30
0.0
 70
   128
  0
VERTEX
  5
1F9A5
  8
5
 10
189.99999999863459
 20
134.9888131022453
 30
0.0
  0
VERTEX
  5
1F9A6
  8
5
 10
189.99999999863459
 20
134.9888131022453
 30
0.0
  0
VERTEX
  5
1F9A7
  8
5
 10
190.0264737741407
 20
134.89836677908889
 30
0.0
  0
VERTEX
  5
1F9A8
  8
5
 10
190.08331239086939
 20
134.67318415641779
 30
0.0
  0
VERTEX
  5
1F9A9
  8
5
 10
190.16847997767289
 20
134.31515395641321
 30
0.0
  0
VERTEX
  5
1F9AA
  8
5
 10
190.26985071462951
 20
133.8481403887271
 30
0.0
  0
VERTEX
  5
1F9AB
  8
5
 10
190.3815349177774
 20
133.26044604182241
 30
0.0
  0
VERTEX
  5
1F9AC
  8
5
 10
190.48762187225179
 20
132.58538246154779
 30
0.0
  0
VERTEX
  5
1F9AD
  8
5
 10
190.57968310875259
 20
131.8102538585662
 30
0.0
  0
VERTEX
  5
1F9AE
  8
5
 10
190.64076110584099
 20
131.01259469985959
 30
0.0
  0
VERTEX
  5
1F9AF
  8
5
 10
190.66797062618099
 20
130.156685039401
 30
0.0
  0
VERTEX
  5
1F9B0
  8
5
 10
190.65705738825159
 20
129.34748306870461
 30
0.0
  0
VERTEX
  5
1F9B1
  8
5
 10
190.61021000010331
 20
128.53346057236189
 30
0.0
  0
VERTEX
  5
1F9B2
  8
5
 10
190.5357116447147
 20
127.785874903202
 30
0.0
  0
VERTEX
  5
1F9B3
  8
5
 10
190.43817795676549
 20
127.0809568464756
 30
0.0
  0
VERTEX
  5
1F9B4
  8
5
 10
190.3294702605661
 20
126.45386569201941
 30
0.0
  0
VERTEX
  5
1F9B5
  8
5
 10
190.21909735960321
 20
125.91166831552979
 30
0.0
  0
VERTEX
  5
1F9B6
  8
5
 10
190.12234411997159
 20
125.4875663667917
 30
0.0
  0
VERTEX
  5
1F9B7
  8
5
 10
190.04760920864899
 20
125.1842122524976
 30
0.0
  0
VERTEX
  5
1F9B8
  8
5
 10
189.99999999863459
 20
125.000000372529
 30
0.0
  0
SEQEND
  5
1F9B9
  8
5
  0
POLYLINE
  5
1E6B1
  8
5
 66
     1
 10
0.0
 20
0.0
 30
0.0
 70
   128
  0
VERTEX
  5
1F9BA
  8
5
 10
235.6983800963815
 20
119.00316402316091
 30
0.0
  0
VERTEX
  5
1F9BB
  8
5
 10
235.6325653926786
 20
119.1317610442638
 30
0.0
  0
VERTEX
  5
1F9BC
  8
5
 10
235.4498678432162
 20
119.4946527481079
 30
0.0
  0
VERTEX
  5
1F9BD
  8
5
 10
235.1586283729728
 20
120.09295858442781
 30
0.0
  0
VERTEX
  5
1F9BE
  8
5
 10
234.7761975215133
 20
120.92281170189381
 30
0.0
  0
VERTEX
  5
1F9BF
  8
5
 10
234.3292595432456
 20
121.9756159931421
 30
0.0
  0
VERTEX
  5
1F9C0
  8
5
 10
233.82319189471559
 20
123.3266688883304
 30
0.0
  0
VERTEX
  5
1F9C1
  8
5
 10
233.33449900013761
 20
124.91164766252039
 30
0.0
  0
VERTEX
  5
1F9C2
  8
5
 10
232.93514229220699
 20
126.6763884574175
 30
0.0
  0
VERTEX
  5
1F9C3
  8
5
 10
232.7848361418898
 20
127.64522843062871
 30
0.0
  0
VERTEX
  5
1F9C4
  8
5
 10
232.68291778725941
 20
128.63947488367549
 30
0.0
  0
VERTEX
  5
1F9C5
  8
5
 10
232.63167641920401
 20
129.99999932944769
 30
0.0
  0
VERTEX
  5
1F9C6
  8
5
 10
232.66179166597681
 20
131.04268573224539
 30
0.0
  0
VERTEX
  5
1F9C7
  8
5
 10
232.75180958074881
 20
132.08537027239791
 30
0.0
  0
VERTEX
  5
1F9C8
  8
5
 10
232.98130981487591
 20
133.56996551156041
 30
0.0
  0
VERTEX
  5
1F9C9
  8
5
 10
233.31135004622291
 20
135.00212728977201
 30
0.0
  0
VERTEX
  5
1F9CA
  8
5
 10
233.73712465030499
 20
136.41967102885241
 30
0.0
  0
VERTEX
  5
1F9CB
  8
5
 10
234.2051775739844
 20
137.7116724848747
 30
0.0
  0
VERTEX
  5
1F9CC
  8
5
 10
234.71112228793459
 20
138.93009200692171
 30
0.0
  0
VERTEX
  5
1F9CD
  8
5
 10
235.16549594563801
 20
139.9214588105678
 30
0.0
  0
VERTEX
  5
1F9CE
  8
5
 10
235.36004550618489
 20
140.32355919480321
 30
0.0
  0
VERTEX
  5
1F9CF
  8
5
 10
235.5165784792359
 20
140.63889011740679
 30
0.0
  0
SEQEND
  5
1F9D0
  8
5
  0
POLYLINE
  5
1E6B2
  8
5
 66
     1
 10
0.0
 20
0.0
 30
0.0
 70
   128
  0
VERTEX
  5
1F9D1
  8
5
 10
236.0634846226628
 20
140.25069251656529
 30
0.0
  0
VERTEX
  5
1F9D2
  8
5
 10
235.88792100412209
 20
139.92361947894091
 30
0.0
  0
VERTEX
  5
1F9D3
  8
5
 10
235.65178975326381
 20
139.4704826176166
 30
0.0
  0
VERTEX
  5
1F9D4
  8
5
 10
235.1934412108119
 20
138.5408960282802
 30
0.0
  0
VERTEX
  5
1F9D5
  8
5
 10
234.66684907538249
 20
137.36114129424089
 30
0.0
  0
VERTEX
  5
1F9D6
  8
5
 10
234.19283009929009
 20
136.1446067690849
 30
0.0
  0
VERTEX
  5
1F9D7
  8
5
 10
233.75010356170489
 20
134.7747579216956
 30
0.0
  0
VERTEX
  5
1F9D8
  8
5
 10
233.41592267019109
 20
133.42595696449271
 30
0.0
  0
VERTEX
  5
1F9D9
  8
5
 10
233.17621514064621
 20
131.9905802607536
 30
0.0
  0
VERTEX
  5
1F9DA
  8
5
 10
233.08451898259469
 20
131.00184164941311
 30
0.0
  0
VERTEX
  5
1F9DB
  8
5
 10
233.05300116402461
 20
129.99999932944769
 30
0.0
  0
VERTEX
  5
1F9DC
  8
5
 10
233.10555569691019
 20
128.70131656527519
 30
0.0
  0
VERTEX
  5
1F9DD
  8
5
 10
233.3251261697466
 20
127.0410943776369
 30
0.0
  0
VERTEX
  5
1F9DE
  8
5
 10
233.67901012164899
 20
125.4799351096153
 30
0.0
  0
VERTEX
  5
1F9DF
  8
5
 10
233.77384483677699
 20
125.1429360359907
 30
0.0
  0
VERTEX
  5
1F9E0
  8
5
 10
234.2690476761515
 20
123.646280169487
 30
0.0
  0
VERTEX
  5
1F9E1
  8
5
 10
234.7941124425586
 20
122.3403610289097
 30
0.0
  0
VERTEX
  5
1F9E2
  8
5
 10
235.24776898187949
 20
121.34503982961181
 30
0.0
  0
VERTEX
  5
1F9E3
  8
5
 10
235.64474709195451
 20
120.54327912628651
 30
0.0
  0
VERTEX
  5
1F9E4
  8
5
 10
235.9399130181726
 20
119.9784394353628
 30
0.0
  0
VERTEX
  5
1F9E5
  8
5
 10
236.1308360086139
 20
119.6257717907428
 30
0.0
  0
VERTEX
  5
1F9E6
  8
5
 10
236.1966358111556
 20
119.5055250078439
 30
0.0
  0
SEQEND
  5
1F9E7
  8
5
  0
LINE
  5
1EF50
  8
1
 10
100.0000137054172
 20
271.1996388114506
 30
0.0
 11
100.0000137054172
 21
215.00000000000011
 31
0.0
  0
LINE
  5
1EF51
  8
1
 10
125.0000137054172
 20
243.0998194057253
 30
0.0
 11
75.000013705417203
 21
243.0998194057253
 31
0.0
  0
LINE
  5
1EF5D
  8
5
 10
111.0000136458132
 20
226.39652667825499
 30
0.0
 11
111.0000136458132
 21
223.5681428599863
 31
0.0
  0
ARC
  5
1EF5E
  8
5
 10
110.5132337005425
 20
223.56065143037171
 30
0.0
 40
0.4868375875333181
 50
300.67105087965422
 51
0.8816990544731408
  0
ARC
  5
1EF5F
  8
5
 10
99.998827123784451
 20
240.00314736095029
 30
0.0
 40
20.00344433526217
 50
276.70051796667548
 51
302.5506297204588
  0
ARC
  5
1EF60
  8
5
 10
100.0827870337671
 20
241.5072345636118
 30
0.0
 40
20.999924953433741
 50
277.42170768112737
 51
301.323517790663
  0
LINE
  5
1EF61
  8
5
 10
89.000013765024974
 20
259.80311213319771
 30
0.0
 11
89.000013765025514
 21
262.63149595146638
 31
0.0
  0
ARC
  5
1EF62
  8
5
 10
89.486793710296169
 20
262.63898738108088
 30
0.0
 40
0.4868375875333181
 50
120.671050879641
 51
180.88169905446659
  0
LINE
  5
1EF63
  8
5
 10
97.204652723003335
 20
265.51639801149668
 30
0.0
 11
97.204652723002866
 21
262.90350547318758
 31
0.0
  0
LINE
  5
1EF64
  8
5
 10
102.7953746878389
 20
262.90350547318661
 30
0.0
 11
102.7953746878394
 21
265.51639801149571
 31
0.0
  0
ARC
  5
1EF65
  8
5
 10
97.732188272138444
 20
265.5392863243851
 30
0.0
 40
0.5280318460738604
 50
97.069237960192396
 51
182.4843477823901
  0
ARC
  5
1EF66
  8
5
 10
100.00120028705111
 20
246.1964914505003
 30
0.0
 40
20.00344433526217
 50
96.700517966665373
 51
122.55062972044701
  0
ARC
  5
1EF67
  8
5
 10
102.2598736527047
 20
265.53254943452953
 30
0.0
 40
0.5357445539587579
 50
358.27240686967838
 51
82.174007387682096
  0
ARC
  5
1EF68
  8
5
 10
100.0000137054178
 20
246.1732274318791
 30
0.0
 40
20.02641137957157
 50
83.310619707800655
 51
96.689380292176324
  0
ARC
  5
1EF69
  8
5
 10
99.917240377068183
 20
244.69240424783879
 30
0.0
 40
20.999924953433741
 50
97.421707681115663
 51
121.32351779065129
  0
LINE
  5
1EF6A
  8
5
 10
111.0000136458163
 20
259.80311213319362
 30
0.0
 11
111.00001364581679
 21
262.6314959514624
 31
0.0
  0
ARC
  5
1EF6B
  8
5
 10
110.5132337005461
 20
262.63898738107702
 30
0.0
 40
0.4868375875333181
 50
359.11830094552028
 51
59.32894912033553
  0
ARC
  5
1EF6C
  8
5
 10
99.99882712378502
 20
246.1964914505003
 30
0.0
 40
20.00344433526217
 50
57.44937027952944
 51
83.299482033313225
  0
ARC
  5
1EF6D
  8
5
 10
100.0827870337674
 20
244.69240424783879
 30
0.0
 40
20.999924953433741
 50
58.676482209325229
 51
82.578292318861315
  0
CIRCLE
  5
1F0E0
  8
0
 10
99.99999999863465
 20
130.0
 30
0.0
 40
2.0
  0
LINE
  5
1F130
  8
1
 10
99.999986291852082
 20
155.0
 30
0.0
 11
99.999986291852082
 21
95.0
 31
0.0
  0
LINE
  5
1F131
  8
1
 10
113.9995707613993
 20
130.0
 30
0.0
 11
86.000429235870001
 21
130.0
 31
0.0
  0
ARC
  5
1F573
  8
0
 10
253.15953650520439
 20
130.03249769718559
 30
0.0
 40
20.368194362542781
 50
180.09141793584479
 51
189.9774142405345
  0
ARC
  5
1F574
  8
0
 10
253.1595365052043
 20
129.96750230281259
 30
0.0
 40
20.368194362542781
 50
170.0225857594655
 51
179.9085820641551
  0
LINE
  5
1F575
  8
1
 10
213.09999987346481
 20
156.0
 30
0.0
 11
213.09999987346481
 21
96.0
 31
0.0
  0
LINE
  5
1F576
  8
1
 10
240.89136876029329
 20
130.0
 30
0.0
 11
185.66540281771529
 21
130.0
 31
0.0
  0
LINE
  5
1F80E
  8
2
 10
106.50000013411039
 20
117.9999992251396
 30
0.0
 11
93.499999865889563
 21
117.9999992251396
 31
0.0
  0
LINE
  5
1F80F
  8
2
 10
106.00000005215411
 20
107.49999983236189
 30
0.0
 11
93.99999994784595
 21
107.49999983236189
 31
0.0
  0
LINE
  5
1F810
  8
2
 10
103.400000045076
 20
108.70000012218949
 30
0.0
 11
96.599999954924002
 21
108.70000012218949
 31
0.0
  0
LINE
  5
1F813
  8
2
 10
106.50000013411039
 20
117.9999992251396
 30
0.0
 11
106.50000013411039
 21
121.1268562865326
 31
0.0
  0
LINE
  5
1F814
  8
2
 10
93.499999865889563
 20
121.12685628453229
 30
0.0
 11
93.499999865889563
 21
117.9999992251396
 31
0.0
  0
LINE
  5
1F815
  8
2
 10
106.00000005215399
 20
100.0
 30
0.0
 11
106.00000005215411
 21
107.49999983236189
 31
0.0
  0
LINE
  5
1F816
  8
2
 10
93.99999994784595
 20
107.49999983236189
 30
0.0
 11
93.999999947845936
 21
100.0
 31
0.0
  0
LINE
  5
1F817
  8
2
 10
104.6000001020729
 20
107.49999983236189
 30
0.0
 11
103.400000045076
 21
108.70000012218949
 31
0.0
  0
LINE
  5
1F818
  8
2
 10
96.599999954924002
 20
108.70000012218949
 30
0.0
 11
95.39999989792706
 21
107.49999983236189
 31
0.0
  0
LINE
  5
1F819
  8
2
 10
103.400000045076
 20
108.70000012218949
 30
0.0
 11
103.400000045076
 21
117.9999992251396
 31
0.0
  0
LINE
  5
1F81A
  8
2
 10
96.599999954924002
 20
117.9999992251396
 30
0.0
 11
96.599999954924002
 21
108.70000012218949
 31
0.0
  0
LINE
  5
1F824
  8
2
 10
104.0
 20
108.1000000508502
 30
0.0
 11
104.0
 21
117.9999992251396
 31
0.0
  0
LINE
  5
1F827
  8
2
 10
96.000000000000028
 20
108.1000000508502
 30
0.0
 11
96.000000000000014
 21
117.9999992251396
 31
0.0
  0
ENDSEC
  0
EOF
