  0
SECTION
  2
HEADER
  9
$ACADVER
  1
AC1009
  9
$INSBASE
 10
0.0
 20
0.0
 30
0.0
  9
$EXTMIN
 10
0.0
 20
-1.4802182810368341
 30
0.0
  9
$EXTMAX
 10
82.000000588595853
 20
72.000000695697949
 30
0.0
  9
$LIMMIN
 10
0.0
 20
0.0
  9
$LIMMAX
 10
12.0
 20
9.0
  9
$ORTHOMODE
 70
     1
  9
$REGENMODE
 70
     1
  9
$FILLMODE
 70
     1
  9
$QTEXTMODE
 70
     0
  9
$MIRRTEXT
 70
     0
  9
$DRAGMODE
 70
     2
  9
$LTSCALE
 40
1.0
  9
$OSMODE
 70
    37
  9
$ATTMODE
 70
     1
  9
$TEXTSIZE
 40
0.2
  9
$TRACEWID
 40
0.05
  9
$TEXTSTYLE
  7
STANDARD
  9
$CLAYER
  8
0
  9
$CELTYPE
  6
BYLAYER
  9
$CECOLOR
 62
   256
  9
$DIMSCALE
 40
1.0
  9
$DIMASZ
 40
1.0
  9
$DIMEXO
 40
2.54
  9
$DIMDLI
 40
0.38
  9
$DIMRND
 40
0.0
  9
$DIMDLE
 40
0.0
  9
$DIMEXE
 40
2.54
  9
$DIMTP
 40
0.0
  9
$DIMTM
 40
0.0
  9
$DIMTXT
 40
3.2000000000000002
  9
$DIMCEN
 40
0.09
  9
$DIMTSZ
 40
0.0
  9
$DIMTOL
 70
     0
  9
$DIMLIM
 70
     0
  9
$DIMTIH
 70
     0
  9
$DIMTOH
 70
     0
  9
$DIMSE1
 70
     0
  9
$DIMSE2
 70
     0
  9
$DIMTAD
 70
     1
  9
$DIMZIN
 70
     0
  9
$DIMBLK
  1

  9
$DIMASO
 70
     1
  9
$DIMSHO
 70
     0
  9
$DIMPOST
  1

  9
$DIMAPOST
  1

  9
$DIMALT
 70
     0
  9
$DIMALTD
 70
     2
  9
$DIMALTF
 40
25.399999999999999
  9
$DIMLFAC
 40
1.0
  9
$DIMTOFL
 70
     0
  9
$DIMTVP
 40
1.0
  9
$DIMTIX
 70
     0
  9
$DIMSOXD
 70
     0
  9
$DIMSAH
 70
     1
  9
$DIMBLK1
  1

  9
$DIMBLK2
  1

  9
$DIMSTYLE
  2
STANDARD
  9
$DIMCLRD
 70
     0
  9
$DIMCLRE
 70
     0
  9
$DIMCLRT
 70
     0
  9
$DIMTFAC
 40
1.0
  9
$DIMGAP
 40
1.6000000000000001
  9
$LUNITS
 70
     2
  9
$LUPREC
 70
     4
  9
$SKETCHINC
 40
0.1
  9
$FILLETRAD
 40
0.0
  9
$AUNITS
 70
     0
  9
$AUPREC
 70
     0
  9
$MENU
  1
.
  9
$ELEVATION
 40
0.0
  9
$PELEVATION
 40
0.0
  9
$THICKNESS
 40
0.0
  9
$LIMCHECK
 70
     0
  9
$BLIPMODE
 70
     0
  9
$CHAMFERA
 40
0.0
  9
$CHAMFERB
 40
0.0
  9
$SKPOLY
 70
     0
  9
$TDCREATE
 40
2453173.4709223039
  9
$TDUPDATE
 40
2456923.496932813
  9
$TDINDWG
 40
0.5742085301
  9
$TDUSRTIMER
 40
0.5742085301
  9
$USRTIMER
 70
     1
  9
$ANGBASE
 50
0.0
  9
$ANGDIR
 70
     0
  9
$PDMODE
 70
     0
  9
$PDSIZE
 40
0.0
  9
$PLINEWID
 40
0.0
  9
$COORDS
 70
     1
  9
$SPLFRAME
 70
     0
  9
$SPLINETYPE
 70
     6
  9
$SPLINESEGS
 70
     8
  9
$ATTDIA
 70
     0
  9
$ATTREQ
 70
     1
  9
$HANDLING
 70
     1
  9
$HANDSEED
  5
20D8
  9
$SURFTAB1
 70
     6
  9
$SURFTAB2
 70
     6
  9
$SURFTYPE
 70
     6
  9
$SURFU
 70
     6
  9
$SURFV
 70
     6
  9
$UCSNAME
  2

  9
$UCSORG
 10
0.0
 20
0.0
 30
0.0
  9
$UCSXDIR
 10
1.0
 20
0.0
 30
0.0
  9
$UCSYDIR
 10
0.0
 20
1.0
 30
0.0
  9
$PUCSNAME
  2

  9
$PUCSORG
 10
0.0
 20
0.0
 30
0.0
  9
$PUCSXDIR
 10
1.0
 20
0.0
 30
0.0
  9
$PUCSYDIR
 10
0.0
 20
1.0
 30
0.0
  9
$USERI1
 70
     0
  9
$USERI2
 70
     0
  9
$USERI3
 70
     0
  9
$USERI4
 70
     0
  9
$USERI5
 70
     0
  9
$USERR1
 40
0.0
  9
$USERR2
 40
0.0
  9
$USERR3
 40
0.0
  9
$USERR4
 40
0.0
  9
$USERR5
 40
0.0
  9
$WORLDVIEW
 70
     1
  9
$SHADEDGE
 70
     3
  9
$SHADEDIF
 70
    70
  9
$TILEMODE
 70
     1
  9
$MAXACTVP
 70
    64
  9
$PLIMCHECK
 70
     0
  9
$PEXTMIN
 10
1.0000000000000000E+020
 20
1.0000000000000000E+020
 30
1.0000000000000000E+020
  9
$PEXTMAX
 10
-1.0000000000000000E+020
 20
-1.0000000000000000E+020
 30
-1.0000000000000000E+020
  9
$PLIMMIN
 10
0.0
 20
0.0
  9
$PLIMMAX
 10
12.0
 20
9.0
  9
$UNITMODE
 70
     0
  9
$VISRETAIN
 70
     1
  9
$PLINEGEN
 70
     0
  9
$PSLTSCALE
 70
     1
  0
ENDSEC
  0
SECTION
  2
TABLES
  0
TABLE
  2
VPORT
 70
     1
  0
VPORT
  2
*ACTIVE
 70
     0
 10
0.0
 20
0.0
 11
1.0
 21
1.0
 12
82.910292072322676
 22
47.5
 13
0.0
 23
0.0
 14
1.0
 24
1.0
 15
0.0
 25
0.0
 16
0.0
 26
0.0
 36
1.0
 17
0.0
 27
0.0
 37
0.0
 40
95.0
 41
1.7454798331015291
 42
50.0
 43
0.0
 44
0.0
 50
0.0
 51
0.0
 71
     0
 72
   100
 73
     1
 74
     1
 75
     0
 76
     0
 77
     0
 78
     0
  0
ENDTAB
  0
TABLE
  2
LTYPE
 70
     4
  0
LTYPE
  2
CONTINUOUS
 70
     0
  3
Solid line
 72
    65
 73
     0
 40
0.0
  0
LTYPE
  2
CENTER
 70
     0
  3
Center ____ _ ____ _ ____ _ ____ _ ____ _ ____
 72
    65
 73
     4
 40
12.0
 49
7.5
 49
-1.5
 49
1.5
 49
-1.5
  0
LTYPE
  2
PHANTOM2
 70
     0
  3
___ _ _ ___ _ _ ___ _ _ ___ _ _
 72
    65
 73
     6
 40
1.25
 49
0.625
 49
-0.125
 49
0.125
 49
-0.125
 49
0.125
 49
-0.125
  0
LTYPE
  2
HIDDEN
 70
     0
  3
Hidden __ __ __ __ __ __ __ __ __ __ __ __ __ __
 72
    65
 73
     2
 40
1.905
 49
1.27
 49
-0.635
  0
ENDTAB
  0
TABLE
  2
LAYER
 70
     4
  0
LAYER
  2
0
 70
     0
 62
     7
  6
CONTINUOUS
  0
LAYER
  2
1
 70
     0
 62
     1
  6
CENTER
  0
LAYER
  2
DEFPOINTS
 70
     0
 62
     7
  6
CONTINUOUS
  0
LAYER
  2
2
 70
     0
 62
     2
  6
HIDDEN
  0
ENDTAB
  0
TABLE
  2
STYLE
 70
     2
  0
STYLE
  2
STANDARD
 70
     0
 40
0.0
 41
1.0
 50
0.0
 71
     0
 42
0.2
  3
simplex.shx
  4
bigfont.shx
  0
STYLE
  2
STANDARD1
 70
     0
 40
0.0
 41
1.0
 50
0.0
 71
     0
 42
3.0
  3
txt
  4

  0
ENDTAB
  0
TABLE
  2
VIEW
 70
     1
  0
VIEW
  2
OLE1
 70
     0
 40
197.4252932059577
 10
17.193614989164999
 20
148.5468683296229
 41
248.21917932205361
 11
0.0
 21
0.0
 31
1.0
 12
0.0
 22
0.0
 32
0.0
 42
50.0
 43
0.0
 44
0.0
 50
0.0
 71
     0
  0
ENDTAB
  0
TABLE
  2
UCS
 70
     0
  0
ENDTAB
  0
TABLE
  2
APPID
 70
     4
  0
APPID
  2
ACAD
 70
     0
  0
APPID
  2
ACAD_MLEADERVER
 70
     0
  0
APPID
  2
ACAD_NAV_VCDISPLAY
 70
     0
  0
APPID
  2
ACAD_EXEMPT_FROM_CAD_STANDARDS
 70
     0
  0
ENDTAB
  0
TABLE
  2
DIMSTYLE
 70
     1
  0
DIMSTYLE
  2
STANDARD
 70
     0
  3

  4

  5

  6

  7

 40
1.0
 41
0.18
 42
0.0625
 43
0.38
 44
0.18
 45
0.0
 46
0.0
 47
0.0
 48
0.0
140
0.18
141
0.09
142
0.0
143
25.399999999999999
144
1.0
145
0.0
146
1.0
147
0.09
 71
     0
 72
     0
 73
     1
 74
     1
 75
     0
 76
     0
 77
     0
 78
     0
170
     0
171
     2
172
     0
173
     0
174
     0
175
     0
176
     0
177
     0
178
     0
  0
ENDTAB
  0
ENDSEC
  0
SECTION
  2
BLOCKS
  0
BLOCK
  8
0
  2
$MODEL_SPACE
 70
     0
 10
0.0
 20
0.0
 30
0.0
  3
$MODEL_SPACE
  1

  0
ENDBLK
  5
9
  8
0
  0
BLOCK
 67
     1
  8
0
  2
$PAPER_SPACE
 70
     0
 10
0.0
 20
0.0
 30
0.0
  3
$PAPER_SPACE
  1

  0
ENDBLK
  5
E
 67
     1
  8
0
  0
ENDSEC
  0
SECTION
  2
ENTITIES
  0
TEXT
  5
141
  8
0
 62
     3
 10
0.0
 20
0.0
 30
0.0
 40
5.0
  1
CP135-10001P
  7
STANDARD1
  0
LINE
  5
170A
  8
0
 10
30.0
 20
38.000000263564289
 30
0.0
 11
31.00000016391277
 21
38.000000263564289
 31
0.0
  0
LINE
  5
170D
  8
0
 10
48.000000156462193
 20
31.000000047497451
 30
0.0
 11
48.000000156462193
 21
30.0
 31
0.0
  0
LINE
  5
1710
  8
0
 10
48.000000156462193
 20
31.000000047497451
 30
0.0
 11
31.300000585615631
 21
31.000000047497451
 31
0.0
  0
ARC
  5
1711
  8
0
 10
31.300000379979618
 20
31.300000047497448
 30
0.0
 40
0.3000000000000043
 50
180.0
 51
270.0
  0
LINE
  5
1712
  8
0
 10
48.000000156462193
 20
30.0
 30
0.0
 11
31.300000585615631
 21
30.0
 31
0.0
  0
ARC
  5
1713
  8
0
 10
31.300000379979618
 20
31.300000047497448
 30
0.0
 40
1.300000000000004
 50
180.0
 51
270.0
  0
LINE
  5
1714
  8
0
 10
30.0
 20
31.30000006174669
 30
0.0
 11
30.0
 21
38.000000263564303
 31
0.0
  0
LINE
  5
1715
  8
0
 10
31.00000016391277
 20
31.30000006174669
 30
0.0
 11
31.00000016391277
 21
38.000000263564303
 31
0.0
  0
LINE
  5
1716
  8
2
 10
32.90000019595027
 20
31.000000047497451
 30
0.0
 11
32.90000019595027
 21
30.0
 31
0.0
  0
LINE
  5
1717
  8
2
 10
45.700000338256352
 20
30.0
 30
0.0
 11
45.700000338256352
 21
31.000000047497451
 31
0.0
  0
LINE
  5
171F
  8
0
 10
30.0
 20
58.000000263564267
 30
0.0
 11
30.0
 21
72.000000695697949
 31
0.0
  0
LINE
  5
1720
  8
0
 10
31.00000016391277
 20
72.000000695697949
 30
0.0
 11
31.00000016391277
 21
58.000000263564267
 31
0.0
  0
ARC
  5
1728
  8
0
 10
47.00000037997961
 20
59.000000479631112
 30
0.0
 40
1.0000000000000071
 50
270.0
 51
0.0
  0
ARC
  5
1729
  8
0
 10
47.00000037997961
 20
71.000000479631112
 30
0.0
 40
1.0
 50
0.0
 51
90.0
  0
LINE
  5
172A
  8
0
 10
48.000000156462193
 20
59.000000427477048
 30
0.0
 11
48.000000156462193
 21
71.000000531785176
 31
0.0
  0
ARC
  5
172B
  8
0
 10
40.600000379979633
 20
65.000000479631112
 30
0.0
 40
5.1000000000000076
 50
270.0
 51
90.0
  0
LINE
  5
172C
  8
0
 10
40.600000387057662
 20
70.100000663660452
 30
0.0
 11
38.00000037997961
 21
70.100000663660452
 31
0.0
  0
ARC
  5
172D
  8
0
 10
38.00000037997961
 20
65.000000479631112
 30
0.0
 40
5.1000000000000076
 50
90.0
 51
270.0
  0
LINE
  5
172E
  8
0
 10
38.00000037997961
 20
59.900000295601771
 30
0.0
 11
40.600000387057662
 21
59.900000295601771
 31
0.0
  0
LINE
  5
172F
  8
0
 10
46.999999992549412
 20
58.000000263564267
 30
0.0
 11
30.0
 21
58.000000263564303
 31
0.0
  0
LINE
  5
1730
  8
0
 10
46.999999992549412
 20
72.000000695697949
 30
0.0
 11
30.0
 21
72.000000695697949
 31
0.0
  0
LINE
  5
1739
  8
0
 10
68.000000156462136
 20
31.000000047497451
 30
0.0
 11
82.00000058859581
 21
31.000000047497451
 31
0.0
  0
LINE
  5
173A
  8
0
 10
82.00000058859581
 20
30.0
 30
0.0
 11
68.000000156462136
 21
30.000000000000021
 31
0.0
  0
ARC
  5
1742
  8
0
 10
69.00000037252903
 20
37.000000047497451
 30
0.0
 40
1.0
 50
90.0
 51
180.0
  0
LINE
  5
1743
  8
0
 10
69.000000320374966
 20
38.000000263564289
 30
0.0
 11
81.000000424683094
 21
38.000000263564289
 31
0.0
  0
ARC
  5
1744
  8
0
 10
81.000000372529016
 20
37.000000047497451
 30
0.0
 40
1.0
 50
0.0
 51
89.999999999996746
  0
LINE
  5
1745
  8
0
 10
68.000000156462193
 20
30.000000000000021
 30
0.0
 11
68.000000156462193
 21
37.000000099651508
 31
0.0
  0
LINE
  5
1746
  8
0
 10
82.000000588595853
 20
30.000000000000021
 30
0.0
 11
82.000000588595853
 21
37.000000099651508
 31
0.0
  0
LINE
  5
1747
  8
2
 10
69.900000188499632
 20
30.0
 30
0.0
 11
69.900000188499632
 21
31.000000047497451
 31
0.0
  0
LINE
  5
1748
  8
2
 10
80.100000556558314
 20
30.0
 30
0.0
 11
80.100000556558314
 21
31.000000047497451
 31
0.0
  0
LINE
  5
1E97
  8
1
 10
40.600000379979633
 20
71.600000479631134
 30
0.0
 11
40.600000379979633
 21
58.400000479631082
 31
0.0
  0
LINE
  5
1E98
  8
1
 10
38.00000037997961
 20
71.600000479631134
 30
0.0
 11
38.00000037997961
 21
58.400000479631082
 31
0.0
  0
LINE
  5
1E99
  8
1
 10
51.000000156462193
 20
65.000000479631112
 30
0.0
 11
27.0
 21
65.000000479631112
 31
0.0
  0
LINE
  5
1E9A
  8
1
 10
75.000000372528973
 20
41.000000263564267
 30
0.0
 11
75.000000372528973
 21
27.0
 31
0.0
  0
LINE
  5
1EA3
  8
1
 10
40.600000379979633
 20
32.500000047497451
 30
0.0
 11
40.600000379979633
 21
28.5
 31
0.0
  0
LINE
  5
1EA4
  8
1
 10
38.00000037997961
 20
32.500000047497451
 30
0.0
 11
38.00000037997961
 21
28.5
 31
0.0
  0
ENDSEC
  0
EOF
