  0
SECTION
  2
HEADER
  9
$ACADVER
  1
AC1009
  9
$INSBASE
 10
0.0
 20
0.0
 30
0.0
  9
$EXTMIN
 10
0.0
 20
-1.4802182810368341
 30
0.0
  9
$EXTMAX
 10
135.49999970942741
 20
90.000000394305076
 30
0.0
  9
$LIMMIN
 10
0.0
 20
0.0
  9
$LIMMAX
 10
375.0
 20
270.0
  9
$ORTHOMODE
 70
     1
  9
$REGENMODE
 70
     1
  9
$FILLMODE
 70
     1
  9
$QTEXTMODE
 70
     0
  9
$MIRRTEXT
 70
     0
  9
$DRAGMODE
 70
     2
  9
$LTSCALE
 40
5.0
  9
$OSMODE
 70
    37
  9
$ATTMODE
 70
     1
  9
$TEXTSIZE
 40
0.2
  9
$TRACEWID
 40
0.05
  9
$TEXTSTYLE
  7
STANDARD
  9
$CLAYER
  8
0
  9
$CELTYPE
  6
BYLAYER
  9
$CECOLOR
 62
   256
  9
$DIMSCALE
 40
1.0
  9
$DIMASZ
 40
3.0
  9
$DIMEXO
 40
2.0
  9
$DIMDLI
 40
0.38
  9
$DIMRND
 40
0.0
  9
$DIMDLE
 40
0.0
  9
$DIMEXE
 40
2.0
  9
$DIMTP
 40
0.0
  9
$DIMTM
 40
0.0
  9
$DIMTXT
 40
3.2000000000000002
  9
$DIMCEN
 40
0.0
  9
$DIMTSZ
 40
0.0
  9
$DIMTOL
 70
     0
  9
$DIMLIM
 70
     0
  9
$DIMTIH
 70
     0
  9
$DIMTOH
 70
     0
  9
$DIMSE1
 70
     0
  9
$DIMSE2
 70
     0
  9
$DIMTAD
 70
     1
  9
$DIMZIN
 70
     0
  9
$DIMBLK
  1

  9
$DIMASO
 70
     0
  9
$DIMSHO
 70
     0
  9
$DIMPOST
  1

  9
$DIMAPOST
  1

  9
$DIMALT
 70
     0
  9
$DIMALTD
 70
     2
  9
$DIMALTF
 40
25.399999999999999
  9
$DIMLFAC
 40
1.0
  9
$DIMTOFL
 70
     1
  9
$DIMTVP
 40
1.6000000000000001
  9
$DIMTIX
 70
     1
  9
$DIMSOXD
 70
     0
  9
$DIMSAH
 70
     0
  9
$DIMBLK1
  1

  9
$DIMBLK2
  1

  9
$DIMSTYLE
  2
STANDARD
  9
$DIMCLRD
 70
     0
  9
$DIMCLRE
 70
     0
  9
$DIMCLRT
 70
     0
  9
$DIMTFAC
 40
1.0
  9
$DIMGAP
 40
0.09
  9
$LUNITS
 70
     2
  9
$LUPREC
 70
     4
  9
$SKETCHINC
 40
0.1
  9
$FILLETRAD
 40
0.0
  9
$AUNITS
 70
     0
  9
$AUPREC
 70
     4
  9
$MENU
  1
E:\r13\win\SUPPORT\ACAD
  9
$ELEVATION
 40
0.0
  9
$PELEVATION
 40
0.0
  9
$THICKNESS
 40
0.0
  9
$LIMCHECK
 70
     0
  9
$BLIPMODE
 70
     0
  9
$CHAMFERA
 40
0.0
  9
$CHAMFERB
 40
0.0
  9
$SKPOLY
 70
     0
  9
$TDCREATE
 40
2449840.6513888892
  9
$TDUPDATE
 40
2456923.4968676278
  9
$TDINDWG
 40
0.4729078704
  9
$TDUSRTIMER
 40
0.4729078704
  9
$USRTIMER
 70
     1
  9
$ANGBASE
 50
0.0
  9
$ANGDIR
 70
     0
  9
$PDMODE
 70
     0
  9
$PDSIZE
 40
0.0
  9
$PLINEWID
 40
0.0
  9
$COORDS
 70
     1
  9
$SPLFRAME
 70
     0
  9
$SPLINETYPE
 70
     6
  9
$SPLINESEGS
 70
     8
  9
$ATTDIA
 70
     0
  9
$ATTREQ
 70
     1
  9
$HANDLING
 70
     1
  9
$HANDSEED
  5
231B
  9
$SURFTAB1
 70
     6
  9
$SURFTAB2
 70
     6
  9
$SURFTYPE
 70
     6
  9
$SURFU
 70
     6
  9
$SURFV
 70
     6
  9
$UCSNAME
  2

  9
$UCSORG
 10
0.0
 20
0.0
 30
0.0
  9
$UCSXDIR
 10
1.0
 20
0.0
 30
0.0
  9
$UCSYDIR
 10
0.0
 20
1.0
 30
0.0
  9
$PUCSNAME
  2

  9
$PUCSORG
 10
0.0
 20
0.0
 30
0.0
  9
$PUCSXDIR
 10
1.0
 20
0.0
 30
0.0
  9
$PUCSYDIR
 10
0.0
 20
1.0
 30
0.0
  9
$USERI1
 70
     0
  9
$USERI2
 70
     1
  9
$USERI3
 70
     0
  9
$USERI4
 70
     0
  9
$USERI5
 70
     0
  9
$USERR1
 40
0.0
  9
$USERR2
 40
0.0
  9
$USERR3
 40
0.0
  9
$USERR4
 40
0.0
  9
$USERR5
 40
0.0
  9
$WORLDVIEW
 70
     1
  9
$SHADEDGE
 70
     3
  9
$SHADEDIF
 70
    70
  9
$TILEMODE
 70
     1
  9
$MAXACTVP
 70
    16
  9
$PLIMCHECK
 70
     0
  9
$PEXTMIN
 10
1.0000000000000000E+020
 20
1.0000000000000000E+020
 30
1.0000000000000000E+020
  9
$PEXTMAX
 10
-1.0000000000000000E+020
 20
-1.0000000000000000E+020
 30
-1.0000000000000000E+020
  9
$PLIMMIN
 10
0.0
 20
0.0
  9
$PLIMMAX
 10
12.0
 20
9.0
  9
$UNITMODE
 70
     0
  9
$VISRETAIN
 70
     0
  9
$PLINEGEN
 70
     0
  9
$PSLTSCALE
 70
     0
  0
ENDSEC
  0
SECTION
  2
TABLES
  0
TABLE
  2
VPORT
 70
     1
  0
VPORT
  2
*ACTIVE
 70
     0
 10
0.0
 20
0.0
 11
1.0
 21
1.0
 12
157.0931849791377
 22
90.0
 13
0.0
 23
0.0
 14
5.0
 24
5.0
 15
10.0
 25
10.0
 16
0.0
 26
0.0
 36
1.0
 17
0.0
 27
0.0
 37
0.0
 40
180.0
 41
1.7454798331015291
 42
50.0
 43
0.0
 44
0.0
 50
0.0
 51
0.0
 71
     0
 72
   500
 73
     1
 74
     0
 75
     0
 76
     0
 77
     0
 78
     2
  0
ENDTAB
  0
TABLE
  2
LTYPE
 70
     3
  0
LTYPE
  2
CONTINUOUS
 70
     0
  3
Solid Line
 72
    65
 73
     0
 40
0.0
  0
LTYPE
  2
CENTER
 70
     0
  3
____ _ ____ _ ____ _ ____ _ ____ _ ____ _ ____
 72
    65
 73
     4
 40
2.0
 49
1.25
 49
-0.25
 49
0.25
 49
-0.25
  0
LTYPE
  2
PHANTOM2
 70
     0
  3
Phantom (.5x) ___ _ _ ___ _ _ ___ _ _ ___ _ _
 72
    65
 73
     6
 40
1.25
 49
0.625
 49
-0.125
 49
0.125
 49
-0.125
 49
0.125
 49
-0.125
  0
ENDTAB
  0
TABLE
  2
LAYER
 70
     3
  0
LAYER
  2
0
 70
     0
 62
     7
  6
CONTINUOUS
  0
LAYER
  2
1
 70
     0
 62
     1
  6
CENTER
  0
LAYER
  2
5
 70
     0
 62
     3
  6
PHANTOM2
  0
ENDTAB
  0
TABLE
  2
STYLE
 70
     2
  0
STYLE
  2
STANDARD
 70
     0
 40
0.0
 41
1.0
 50
0.0
 71
     0
 42
0.2
  3
TXT
  4
BIGFONT
  0
STYLE
  2
STANDARD1
 70
     0
 40
0.0
 41
1.0
 50
0.0
 71
     0
 42
3.0
  3
txt
  4

  0
ENDTAB
  0
TABLE
  2
VIEW
 70
     1
  0
VIEW
  2
ALL
 70
     0
 40
270.0
 10
220.99159663865549
 20
135.0
 41
0.0
 11
0.0
 21
0.0
 31
1.0
 12
0.0
 22
0.0
 32
0.0
 42
0.0
 43
0.0
 44
0.0
 50
0.0
 71
     0
  0
ENDTAB
  0
TABLE
  2
UCS
 70
     0
  0
ENDTAB
  0
TABLE
  2
APPID
 70
     4
  0
APPID
  2
ACAD
 70
     0
  0
APPID
  2
ACAD_MLEADERVER
 70
     0
  0
APPID
  2
ACAD_NAV_VCDISPLAY
 70
     0
  0
APPID
  2
ACAD_EXEMPT_FROM_CAD_STANDARDS
 70
     0
  0
ENDTAB
  0
TABLE
  2
DIMSTYLE
 70
     1
  0
DIMSTYLE
  2
STANDARD
 70
     0
  3

  4

  5

  6

  7

 40
1.0
 41
0.18
 42
0.0625
 43
0.38
 44
0.18
 45
0.0
 46
0.0
 47
0.0
 48
0.0
140
0.18
141
0.09
142
0.0
143
25.399999999999999
144
1.0
145
0.0
146
1.0
147
0.09
 71
     0
 72
     0
 73
     1
 74
     1
 75
     0
 76
     0
 77
     0
 78
     0
170
     0
171
     2
172
     0
173
     0
174
     0
175
     0
176
     0
177
     0
178
     0
  0
ENDTAB
  0
ENDSEC
  0
SECTION
  2
BLOCKS
  0
BLOCK
  8
0
  2
$MODEL_SPACE
 70
     0
 10
0.0
 20
0.0
 30
0.0
  3
$MODEL_SPACE
  1

  0
ENDBLK
  5
9
  8
0
  0
BLOCK
 67
     1
  8
0
  2
$PAPER_SPACE
 70
     0
 10
0.0
 20
0.0
 30
0.0
  3
$PAPER_SPACE
  1

  0
ENDBLK
  5
F
 67
     1
  8
0
  0
ENDSEC
  0
SECTION
  2
ENTITIES
  0
TEXT
  5
1B0
  8
0
 62
     3
 10
0.0
 20
0.0
 30
0.0
 40
5.0
  1
CP133-04007
  7
STANDARD1
  0
ARC
  5
7D6
  8
0
 10
88.499999877065434
 20
42.000000379979639
 30
0.0
 40
1.7500000000000191
 50
281.30993247402091
 51
101.30993247401921
  0
LINE
  5
7D7
  8
0
 10
78.841280136257438
 20
38.283599629066877
 30
0.0
 11
88.843203093856602
 21
40.283984243869781
 31
0.0
  0
LINE
  5
7D8
  8
0
 10
87.666506357491045
 20
41.068448657169931
 30
0.0
 11
79.109061453491478
 21
39.356959722936153
 31
0.0
  0
LINE
  5
7D9
  8
0
 10
78.425735179334907
 20
40.750000365078442
 30
0.0
 11
87.372332056984334
 21
42.539319694042199
 31
0.0
  0
LINE
  5
7DA
  8
0
 10
88.156796703115134
 20
43.716016430407763
 30
0.0
 11
78.154873978346615
 21
41.71563193202018
 31
0.0
  0
POLYLINE
  5
7DB
  8
0
 66
     1
 10
0.0
 20
0.0
 30
0.0
 70
   128
  0
VERTEX
  5
21FF
  8
0
 10
78.522091675549774
 20
39.250000352039933
 30
0.0
  0
VERTEX
  5
2200
  8
0
 10
78.489044625312118
 20
39.249670198187232
 30
0.0
  0
VERTEX
  5
2201
  8
0
 10
78.474062439054279
 20
39.250000352039933
 30
0.0
  0
SEQEND
  5
2202
  8
0
  0
ARC
  5
7DC
  8
0
 10
78.498076985018031
 20
39.999615801570123
 30
0.0
 40
1.750000000000008
 50
101.30993247401921
 51
281.30993247402091
  0
ARC
  5
7E1
  8
0
 10
82.006974894007996
 20
38.50000037997961
 30
0.0
 40
0.5000000000000059
 50
136.49542767162481
 51
270.0
  0
ARC
  5
7E2
  8
0
 10
87.006974894007996
 20
43.500000379979639
 30
0.0
 40
0.5
 50
90.0
 51
134.9999999999994
  0
LINE
  5
7E3
  8
0
 10
86.653421577066212
 20
43.853553682565682
 30
0.0
 11
86.105656288564234
 21
43.305788394063711
 31
0.0
  0
LINE
  5
7E4
  8
0
 10
84.830901529639988
 20
42.031033635139458
 30
0.0
 11
82.918769158422975
 21
40.118901263922453
 31
0.0
  0
ARC
  5
7E5
  8
0
 10
84.999999877065434
 20
37.50000037997961
 30
0.0
 40
0.5
 50
0.0
 51
90.0
  0
ARC
  5
7E6
  8
0
 10
89.999999877065434
 20
37.50000037997961
 30
0.0
 40
0.5
 50
90.0
 51
180.0
  0
LINE
  5
7E7
  8
0
 10
85.499999988824158
 20
33.500000573694713
 30
0.0
 11
86.000000070780544
 21
33.000000491738319
 31
0.0
  0
LINE
  5
7E8
  8
0
 10
88.999999864026933
 20
33.000000491738319
 30
0.0
 11
89.499999829567997
 21
33.500000573694713
 31
0.0
  0
LINE
  5
7E9
  8
0
 10
85.499999988824158
 20
37.500000356230878
 30
0.0
 11
85.499999988824158
 21
33.500000573694713
 31
0.0
  0
LINE
  5
7EA
  8
0
 10
89.499999829567997
 20
33.500000573694713
 30
0.0
 11
89.499999829567997
 21
37.500000356230878
 31
0.0
  0
CIRCLE
  5
7EE
  8
0
 10
88.499999877065434
 20
42.000000379979639
 30
0.0
 40
1.250000000000014
  0
ARC
  5
7EF
  8
0
 10
89.999999877065434
 20
38.50000037997961
 30
0.0
 40
0.5
 50
270.0
 51
0.0
  0
ARC
  5
7F2
  8
0
 10
89.999999877065434
 20
43.500000379979639
 30
0.0
 40
0.5
 50
0.0
 51
90.0
  0
LINE
  5
7F6
  8
0
 10
89.999999853316723
 20
38.00000037997961
 30
0.0
 11
67.999999877065449
 21
38.00000037997961
 31
0.0
  0
LINE
  5
7F9
  8
0
 10
90.499999877065449
 20
43.500000350177281
 30
0.0
 11
90.499999877065449
 21
38.500000403728329
 31
0.0
  0
LINE
  5
7FA
  8
0
 10
88.999999864026933
 20
33.000000491738319
 30
0.0
 11
86.000000070780544
 21
33.000000491738319
 31
0.0
  0
LINE
  5
7FB
  8
0
 10
85.499999988824158
 20
33.500000573694713
 30
0.0
 11
89.499999829567997
 21
33.500000573694713
 31
0.0
  0
LINE
  5
7FF
  8
0
 10
72.707106303423672
 20
45.000000596046441
 30
0.0
 11
89.999999877065434
 21
45.000000379979632
 31
0.0
  0
ARC
  5
805
  8
0
 10
67.999999877065449
 20
40.50000037997961
 30
0.0
 40
0.5
 50
90.0
 51
180.0
  0
LINE
  5
808
  8
0
 10
67.999998982995777
 20
41.000000406056643
 30
0.0
 11
68.292892482131748
 21
41.000000406056643
 31
0.0
  0
LINE
  5
80B
  8
0
 10
74.499999117106228
 20
41.000000406056643
 30
0.0
 11
74.499999117106228
 21
38.500000403728329
 31
0.0
  0
ARC
  5
810
  8
0
 10
72.707106658251959
 20
44.500000379979639
 30
0.0
 40
0.5
 50
90.0
 51
135.0
  0
ARC
  5
811
  8
0
 10
67.999999877065449
 20
38.50000037997961
 30
0.0
 40
0.5
 50
180.0
 51
270.0
  0
LINE
  5
814
  8
0
 10
67.499999832361965
 20
38.500000403728329
 30
0.0
 11
67.499999832361965
 21
40.500000324100249
 31
0.0
  0
ARC
  5
815
  8
0
 10
68.29289309587891
 20
41.500000379979639
 30
0.0
 40
0.5000000000000142
 50
270.0
 51
315.0
  0
LINE
  5
818
  8
0
 10
68.646446745842724
 20
41.146446922793977
 30
0.0
 11
72.353553902357845
 21
44.853553846478462
 31
0.0
  0
ARC
  5
81A
  8
0
 10
77.499999877065463
 20
41.000000379979603
 30
0.0
 40
3.0000000000000142
 50
90.0
 51
180.0
  0
LINE
  5
81C
  8
0
 10
90.000228249617734
 20
44.000000432133668
 30
0.0
 11
77.499999608844547
 21
44.000000432133668
 31
0.0
  0
ARC
  5
81E
  8
0
 10
73.999999877065449
 20
38.50000037997961
 30
0.0
 40
0.5
 50
270.0
 51
0.0
  0
LINE
  5
821
  8
0
 10
77.299999948591022
 20
40.750000365078442
 30
0.0
 11
78.800000194460182
 21
40.750000365078442
 31
0.0
  0
ARC
  5
823
  8
0
 10
78.799999877065446
 20
39.75000037997961
 30
0.0
 40
0.5000000000000142
 50
270.0
 51
0.0
  0
LINE
  5
82C
  8
0
 10
78.800000194460182
 20
39.250000352039933
 30
0.0
 11
77.800000030547409
 21
39.250000352039933
 31
0.0
  0
ARC
  5
82E
  8
0
 10
78.799999877065446
 20
40.25000037997961
 30
0.0
 40
0.5000000000000142
 50
0.0
 51
90.0
  0
LINE
  5
830
  8
0
 10
79.300000276416569
 20
40.250000283122063
 30
0.0
 11
79.300000276416569
 21
39.75000043399632
 31
0.0
  0
ARC
  5
831
  8
0
 10
77.799999877065446
 20
39.75000037997961
 30
0.0
 40
0.5
 50
180.0
 51
270.0
  0
LINE
  5
833
  8
0
 10
77.299999948591022
 20
39.75000043399632
 30
0.0
 11
77.299999948591022
 21
40.750000365078442
 31
0.0
  0
ARC
  5
836
  8
0
 10
89.999999877065434
 20
44.500000379979639
 30
0.0
 40
0.5
 50
0.0
 51
90.0
  0
ARC
  5
838
  8
0
 10
89.999999877065434
 20
44.500000379979639
 30
0.0
 40
0.5
 50
270.0
 51
0.0
  0
ARC
  5
849
  8
0
 10
79.942447523527093
 20
39.10506927899965
 30
0.0
 40
1.1051129059875491
 50
269.48867565904362
 51
321.91813850475211
  0
LINE
  5
863
  8
0
 10
84.317148141562967
 20
41.928283143788569
 30
0.0
 11
82.405015770345955
 21
40.01615053974092
 31
0.0
  0
LINE
  5
864
  8
0
 10
81.130260545760422
 20
38.741395722609013
 30
0.0
 11
80.812315400689869
 21
38.423450315603979
 31
0.0
  0
LINE
  5
871
  8
0
 10
89.5499998610467
 20
75.000000561943125
 30
0.0
 11
89.499999829567997
 21
75.000000561943125
 31
0.0
  0
LINE
  5
877
  8
0
 10
89.499999829567997
 20
75.000000561943125
 30
0.0
 11
67.999590440828371
 21
75.000000561943125
 31
0.0
  0
LINE
  5
879
  8
0
 10
72.707106303423672
 20
75.000000561943125
 30
0.0
 11
72.707106303423672
 21
90.000000226667026
 31
0.0
  0
LINE
  5
87C
  8
0
 10
90.499999877065449
 20
89.000000528415526
 30
0.0
 11
90.499999877065449
 21
76.000000260194611
 31
0.0
  0
LINE
  5
881
  8
0
 10
79.499999936670093
 20
86.800000540336455
 30
0.0
 11
79.499999936670093
 21
86.500000584294895
 31
0.0
  0
LINE
  5
882
  8
0
 10
79.499999936670093
 20
86.500000584294895
 30
0.0
 11
77.499999608844547
 21
86.500000584294895
 31
0.0
  0
LINE
  5
883
  8
0
 10
77.499999608844547
 20
86.500000584294895
 30
0.0
 11
77.499999608844547
 21
86.800000540336455
 31
0.0
  0
LINE
  5
885
  8
0
 10
79.499999936670093
 20
78.200000248273682
 30
0.0
 11
79.499999936670093
 21
78.500000204315256
 31
0.0
  0
ARC
  5
886
  8
0
 10
79.499999877065463
 20
82.500000394305076
 30
0.0
 40
4.0
 50
270.0
 51
90.0
  0
ARC
  5
887
  8
0
 10
77.499999877065463
 20
82.500000394305076
 30
0.0
 40
4.0000000000000284
 50
90.0
 51
270.0
  0
LINE
  5
888
  8
0
 10
77.499999608844547
 20
78.500000204315256
 30
0.0
 11
77.499999608844547
 21
78.200000248273682
 31
0.0
  0
LINE
  5
88B
  8
0
 10
77.499999608844547
 20
78.500000204315256
 30
0.0
 11
79.499999936670093
 21
78.500000204315256
 31
0.0
  0
ARC
  5
88F
  8
0
 10
89.499999877065449
 20
76.000000394305061
 30
0.0
 40
1.0
 50
270.0
 51
0.0
  0
LINE
  5
894
  8
0
 10
89.499999829567997
 20
90.000000226667026
 30
0.0
 11
67.999590440828371
 21
90.000000226667026
 31
0.0
  0
ARC
  5
896
  8
0
 10
89.499999877065449
 20
89.000000394305076
 30
0.0
 40
1.0
 50
0.0
 51
90.0
  0
POLYLINE
  5
898
  8
0
 10
68.707106658251988
 20
90.00000039430509
 30
0.0
 66
     1
 70
     8
  0
VERTEX
  8
0
  5
2217
 10
68.7071
 20
90.0000
 30
0.000000
  70
    32
  0
VERTEX
  8
0
  5
2218
 10
68.7064
 20
90.0000
 30
0.000000
  70
    32
  0
VERTEX
  8
0
  5
2219
 10
68.7056
 20
89.9998
 30
0.000000
  70
    32
  0
VERTEX
  8
0
  5
221A
 10
68.7049
 20
89.9997
 30
0.000000
  70
    32
  0
VERTEX
  8
0
  5
221B
 10
68.7041
 20
89.9994
 30
0.000000
  70
    32
  0
VERTEX
  8
0
  5
221C
 10
68.7034
 20
89.9991
 30
0.000000
  70
    32
  0
VERTEX
  8
0
  5
221D
 10
68.7026
 20
89.9986
 30
0.000000
  70
    32
  0
VERTEX
  8
0
  5
221E
 10
68.7019
 20
89.9982
 30
0.000000
  70
    32
  0
VERTEX
  8
0
  5
221F
 10
68.7012
 20
89.9976
 30
0.000000
  70
    32
  0
VERTEX
  8
0
  5
2220
 10
68.7004
 20
89.9970
 30
0.000000
  70
    32
  0
VERTEX
  8
0
  5
2221
 10
68.6997
 20
89.9962
 30
0.000000
  70
    32
  0
VERTEX
  8
0
  5
2222
 10
68.6989
 20
89.9955
 30
0.000000
  70
    32
  0
VERTEX
  8
0
  5
2223
 10
68.6982
 20
89.9946
 30
0.000000
  70
    32
  0
VERTEX
  8
0
  5
2224
 10
68.6975
 20
89.9937
 30
0.000000
  70
    32
  0
VERTEX
  8
0
  5
2225
 10
68.6967
 20
89.9926
 30
0.000000
  70
    32
  0
VERTEX
  8
0
  5
2226
 10
68.6960
 20
89.9916
 30
0.000000
  70
    32
  0
VERTEX
  8
0
  5
2227
 10
68.6953
 20
89.9904
 30
0.000000
  70
    32
  0
VERTEX
  8
0
  5
2228
 10
68.6945
 20
89.9892
 30
0.000000
  70
    32
  0
VERTEX
  8
0
  5
2229
 10
68.6938
 20
89.9879
 30
0.000000
  70
    32
  0
VERTEX
  8
0
  5
222A
 10
68.6931
 20
89.9865
 30
0.000000
  70
    32
  0
VERTEX
  8
0
  5
222B
 10
68.6924
 20
89.9850
 30
0.000000
  70
    32
  0
VERTEX
  8
0
  5
222C
 10
68.6916
 20
89.9835
 30
0.000000
  70
    32
  0
VERTEX
  8
0
  5
222D
 10
68.6909
 20
89.9819
 30
0.000000
  70
    32
  0
VERTEX
  8
0
  5
222E
 10
68.6902
 20
89.9802
 30
0.000000
  70
    32
  0
VERTEX
  8
0
  5
222F
 10
68.6895
 20
89.9785
 30
0.000000
  70
    32
  0
VERTEX
  8
0
  5
2230
 10
68.6888
 20
89.9767
 30
0.000000
  70
    32
  0
VERTEX
  8
0
  5
2231
 10
68.6881
 20
89.9748
 30
0.000000
  70
    32
  0
VERTEX
  8
0
  5
2232
 10
68.6874
 20
89.9728
 30
0.000000
  70
    32
  0
VERTEX
  8
0
  5
2233
 10
68.6867
 20
89.9708
 30
0.000000
  70
    32
  0
VERTEX
  8
0
  5
2234
 10
68.6860
 20
89.9687
 30
0.000000
  70
    32
  0
VERTEX
  8
0
  5
2235
 10
68.6853
 20
89.9665
 30
0.000000
  70
    32
  0
VERTEX
  8
0
  5
2236
 10
68.6846
 20
89.9643
 30
0.000000
  70
    32
  0
VERTEX
  8
0
  5
2237
 10
68.6839
 20
89.9619
 30
0.000000
  70
    32
  0
VERTEX
  8
0
  5
2238
 10
68.6832
 20
89.9596
 30
0.000000
  70
    32
  0
VERTEX
  8
0
  5
2239
 10
68.6825
 20
89.9571
 30
0.000000
  70
    32
  0
VERTEX
  8
0
  5
223A
 10
68.6818
 20
89.9546
 30
0.000000
  70
    32
  0
VERTEX
  8
0
  5
223B
 10
68.6812
 20
89.9520
 30
0.000000
  70
    32
  0
VERTEX
  8
0
  5
223C
 10
68.6805
 20
89.9493
 30
0.000000
  70
    32
  0
VERTEX
  8
0
  5
223D
 10
68.6798
 20
89.9466
 30
0.000000
  70
    32
  0
VERTEX
  8
0
  5
223E
 10
68.6792
 20
89.9438
 30
0.000000
  70
    32
  0
VERTEX
  8
0
  5
223F
 10
68.6785
 20
89.9410
 30
0.000000
  70
    32
  0
VERTEX
  8
0
  5
2240
 10
68.6779
 20
89.9380
 30
0.000000
  70
    32
  0
VERTEX
  8
0
  5
2241
 10
68.6772
 20
89.9350
 30
0.000000
  70
    32
  0
VERTEX
  8
0
  5
2242
 10
68.6766
 20
89.9320
 30
0.000000
  70
    32
  0
VERTEX
  8
0
  5
2243
 10
68.6759
 20
89.9289
 30
0.000000
  70
    32
  0
VERTEX
  8
0
  5
2244
 10
68.6753
 20
89.9257
 30
0.000000
  70
    32
  0
VERTEX
  8
0
  5
2245
 10
68.6747
 20
89.9224
 30
0.000000
  70
    32
  0
VERTEX
  8
0
  5
2246
 10
68.6740
 20
89.9191
 30
0.000000
  70
    32
  0
VERTEX
  8
0
  5
2247
 10
68.6734
 20
89.9157
 30
0.000000
  70
    32
  0
VERTEX
  8
0
  5
2248
 10
68.6728
 20
89.9123
 30
0.000000
  70
    32
  0
VERTEX
  8
0
  5
2249
 10
68.6722
 20
89.9088
 30
0.000000
  70
    32
  0
VERTEX
  8
0
  5
224A
 10
68.6716
 20
89.9052
 30
0.000000
  70
    32
  0
VERTEX
  8
0
  5
224B
 10
68.6710
 20
89.9016
 30
0.000000
  70
    32
  0
VERTEX
  8
0
  5
224C
 10
68.6704
 20
89.8979
 30
0.000000
  70
    32
  0
VERTEX
  8
0
  5
224D
 10
68.6698
 20
89.8942
 30
0.000000
  70
    32
  0
VERTEX
  8
0
  5
224E
 10
68.6692
 20
89.8904
 30
0.000000
  70
    32
  0
VERTEX
  8
0
  5
224F
 10
68.6686
 20
89.8865
 30
0.000000
  70
    32
  0
VERTEX
  8
0
  5
2250
 10
68.6681
 20
89.8826
 30
0.000000
  70
    32
  0
VERTEX
  8
0
  5
2251
 10
68.6675
 20
89.8786
 30
0.000000
  70
    32
  0
VERTEX
  8
0
  5
2252
 10
68.6669
 20
89.8746
 30
0.000000
  70
    32
  0
VERTEX
  8
0
  5
2253
 10
68.6664
 20
89.8705
 30
0.000000
  70
    32
  0
VERTEX
  8
0
  5
2254
 10
68.6658
 20
89.8663
 30
0.000000
  70
    32
  0
VERTEX
  8
0
  5
2255
 10
68.6653
 20
89.8621
 30
0.000000
  70
    32
  0
VERTEX
  8
0
  5
2256
 10
68.6647
 20
89.8579
 30
0.000000
  70
    32
  0
VERTEX
  8
0
  5
2257
 10
68.6642
 20
89.8536
 30
0.000000
  70
    32
  0
VERTEX
  8
0
  5
2258
 10
68.6637
 20
89.8492
 30
0.000000
  70
    32
  0
VERTEX
  8
0
  5
2259
 10
68.6632
 20
89.8448
 30
0.000000
  70
    32
  0
VERTEX
  8
0
  5
225A
 10
68.6627
 20
89.8403
 30
0.000000
  70
    32
  0
VERTEX
  8
0
  5
225B
 10
68.6622
 20
89.8358
 30
0.000000
  70
    32
  0
VERTEX
  8
0
  5
225C
 10
68.6617
 20
89.8312
 30
0.000000
  70
    32
  0
VERTEX
  8
0
  5
225D
 10
68.6612
 20
89.8266
 30
0.000000
  70
    32
  0
VERTEX
  8
0
  5
225E
 10
68.6607
 20
89.8219
 30
0.000000
  70
    32
  0
VERTEX
  8
0
  5
225F
 10
68.6602
 20
89.8172
 30
0.000000
  70
    32
  0
VERTEX
  8
0
  5
2260
 10
68.6597
 20
89.8124
 30
0.000000
  70
    32
  0
VERTEX
  8
0
  5
2261
 10
68.6593
 20
89.8076
 30
0.000000
  70
    32
  0
VERTEX
  8
0
  5
2262
 10
68.6588
 20
89.8028
 30
0.000000
  70
    32
  0
VERTEX
  8
0
  5
2263
 10
68.6584
 20
89.7979
 30
0.000000
  70
    32
  0
VERTEX
  8
0
  5
2264
 10
68.6579
 20
89.7929
 30
0.000000
  70
    32
  0
VERTEX
  8
0
  5
2265
 10
68.6575
 20
89.7879
 30
0.000000
  70
    32
  0
VERTEX
  8
0
  5
2266
 10
68.6571
 20
89.7829
 30
0.000000
  70
    32
  0
VERTEX
  8
0
  5
2267
 10
68.6567
 20
89.7778
 30
0.000000
  70
    32
  0
VERTEX
  8
0
  5
2268
 10
68.6563
 20
89.7727
 30
0.000000
  70
    32
  0
VERTEX
  8
0
  5
2269
 10
68.6559
 20
89.7675
 30
0.000000
  70
    32
  0
VERTEX
  8
0
  5
226A
 10
68.6555
 20
89.7623
 30
0.000000
  70
    32
  0
VERTEX
  8
0
  5
226B
 10
68.6551
 20
89.7571
 30
0.000000
  70
    32
  0
VERTEX
  8
0
  5
226C
 10
68.6547
 20
89.7518
 30
0.000000
  70
    32
  0
VERTEX
  8
0
  5
226D
 10
68.6543
 20
89.7464
 30
0.000000
  70
    32
  0
VERTEX
  8
0
  5
226E
 10
68.6540
 20
89.7411
 30
0.000000
  70
    32
  0
VERTEX
  8
0
  5
226F
 10
68.6536
 20
89.7357
 30
0.000000
  70
    32
  0
VERTEX
  8
0
  5
2270
 10
68.6533
 20
89.7303
 30
0.000000
  70
    32
  0
VERTEX
  8
0
  5
2271
 10
68.6529
 20
89.7248
 30
0.000000
  70
    32
  0
VERTEX
  8
0
  5
2272
 10
68.6526
 20
89.7193
 30
0.000000
  70
    32
  0
VERTEX
  8
0
  5
2273
 10
68.6523
 20
89.7138
 30
0.000000
  70
    32
  0
VERTEX
  8
0
  5
2274
 10
68.6520
 20
89.7082
 30
0.000000
  70
    32
  0
VERTEX
  8
0
  5
2275
 10
68.6517
 20
89.7026
 30
0.000000
  70
    32
  0
VERTEX
  8
0
  5
2276
 10
68.6514
 20
89.6970
 30
0.000000
  70
    32
  0
VERTEX
  8
0
  5
2277
 10
68.6511
 20
89.6913
 30
0.000000
  70
    32
  0
VERTEX
  8
0
  5
2278
 10
68.6508
 20
89.6857
 30
0.000000
  70
    32
  0
VERTEX
  8
0
  5
2279
 10
68.6505
 20
89.6799
 30
0.000000
  70
    32
  0
VERTEX
  8
0
  5
227A
 10
68.6502
 20
89.6742
 30
0.000000
  70
    32
  0
VERTEX
  8
0
  5
227B
 10
68.6500
 20
89.6684
 30
0.000000
  70
    32
  0
VERTEX
  8
0
  5
227C
 10
68.6497
 20
89.6627
 30
0.000000
  70
    32
  0
VERTEX
  8
0
  5
227D
 10
68.6495
 20
89.6568
 30
0.000000
  70
    32
  0
VERTEX
  8
0
  5
227E
 10
68.6493
 20
89.6510
 30
0.000000
  70
    32
  0
VERTEX
  8
0
  5
227F
 10
68.6491
 20
89.6451
 30
0.000000
  70
    32
  0
VERTEX
  8
0
  5
2280
 10
68.6488
 20
89.6393
 30
0.000000
  70
    32
  0
VERTEX
  8
0
  5
2281
 10
68.6486
 20
89.6334
 30
0.000000
  70
    32
  0
VERTEX
  8
0
  5
2282
 10
68.6484
 20
89.6274
 30
0.000000
  70
    32
  0
VERTEX
  8
0
  5
2283
 10
68.6483
 20
89.6215
 30
0.000000
  70
    32
  0
VERTEX
  8
0
  5
2284
 10
68.6481
 20
89.6155
 30
0.000000
  70
    32
  0
VERTEX
  8
0
  5
2285
 10
68.6479
 20
89.6096
 30
0.000000
  70
    32
  0
VERTEX
  8
0
  5
2286
 10
68.6478
 20
89.6036
 30
0.000000
  70
    32
  0
VERTEX
  8
0
  5
2287
 10
68.6476
 20
89.5975
 30
0.000000
  70
    32
  0
VERTEX
  8
0
  5
2288
 10
68.6475
 20
89.5915
 30
0.000000
  70
    32
  0
VERTEX
  8
0
  5
2289
 10
68.6473
 20
89.5855
 30
0.000000
  70
    32
  0
VERTEX
  8
0
  5
228A
 10
68.6472
 20
89.5794
 30
0.000000
  70
    32
  0
VERTEX
  8
0
  5
228B
 10
68.6471
 20
89.5734
 30
0.000000
  70
    32
  0
VERTEX
  8
0
  5
228C
 10
68.6470
 20
89.5673
 30
0.000000
  70
    32
  0
VERTEX
  8
0
  5
228D
 10
68.6469
 20
89.5612
 30
0.000000
  70
    32
  0
VERTEX
  8
0
  5
228E
 10
68.6468
 20
89.5551
 30
0.000000
  70
    32
  0
VERTEX
  8
0
  5
228F
 10
68.6467
 20
89.5490
 30
0.000000
  70
    32
  0
VERTEX
  8
0
  5
2290
 10
68.6467
 20
89.5429
 30
0.000000
  70
    32
  0
VERTEX
  8
0
  5
2291
 10
68.6466
 20
89.5368
 30
0.000000
  70
    32
  0
VERTEX
  8
0
  5
2292
 10
68.6466
 20
89.5307
 30
0.000000
  70
    32
  0
VERTEX
  8
0
  5
2293
 10
68.6465
 20
89.5245
 30
0.000000
  70
    32
  0
VERTEX
  8
0
  5
2294
 10
68.6465
 20
89.5184
 30
0.000000
  70
    32
  0
VERTEX
  8
0
  5
2295
 10
68.6465
 20
89.5123
 30
0.000000
  70
    32
  0
VERTEX
  8
0
  5
2296
 10
68.6465
 20
89.5061
 30
0.000000
  70
    32
  0
VERTEX
  8
0
  5
2297
 10
68.6464
 20
89.5000
 30
0.000000
  70
    32
  0
SEQEND
  8
0
  5
2298
  0
POLYLINE
  5
89B
  8
0
 10
68.646446486472186
 20
75.500000394305061
 30
0.0
 66
     1
 70
     8
  0
VERTEX
  8
0
  5
2299
 10
68.6464
 20
75.5000
 30
0.000000
  70
    32
  0
VERTEX
  8
0
  5
229A
 10
68.6465
 20
75.4939
 30
0.000000
  70
    32
  0
VERTEX
  8
0
  5
229B
 10
68.6465
 20
75.4877
 30
0.000000
  70
    32
  0
VERTEX
  8
0
  5
229C
 10
68.6465
 20
75.4816
 30
0.000000
  70
    32
  0
VERTEX
  8
0
  5
229D
 10
68.6465
 20
75.4755
 30
0.000000
  70
    32
  0
VERTEX
  8
0
  5
229E
 10
68.6466
 20
75.4693
 30
0.000000
  70
    32
  0
VERTEX
  8
0
  5
229F
 10
68.6466
 20
75.4632
 30
0.000000
  70
    32
  0
VERTEX
  8
0
  5
22A0
 10
68.6467
 20
75.4571
 30
0.000000
  70
    32
  0
VERTEX
  8
0
  5
22A1
 10
68.6467
 20
75.4510
 30
0.000000
  70
    32
  0
VERTEX
  8
0
  5
22A2
 10
68.6468
 20
75.4449
 30
0.000000
  70
    32
  0
VERTEX
  8
0
  5
22A3
 10
68.6469
 20
75.4388
 30
0.000000
  70
    32
  0
VERTEX
  8
0
  5
22A4
 10
68.6470
 20
75.4327
 30
0.000000
  70
    32
  0
VERTEX
  8
0
  5
22A5
 10
68.6471
 20
75.4266
 30
0.000000
  70
    32
  0
VERTEX
  8
0
  5
22A6
 10
68.6472
 20
75.4206
 30
0.000000
  70
    32
  0
VERTEX
  8
0
  5
22A7
 10
68.6473
 20
75.4145
 30
0.000000
  70
    32
  0
VERTEX
  8
0
  5
22A8
 10
68.6475
 20
75.4085
 30
0.000000
  70
    32
  0
VERTEX
  8
0
  5
22A9
 10
68.6476
 20
75.4025
 30
0.000000
  70
    32
  0
VERTEX
  8
0
  5
22AA
 10
68.6478
 20
75.3964
 30
0.000000
  70
    32
  0
VERTEX
  8
0
  5
22AB
 10
68.6479
 20
75.3904
 30
0.000000
  70
    32
  0
VERTEX
  8
0
  5
22AC
 10
68.6481
 20
75.3845
 30
0.000000
  70
    32
  0
VERTEX
  8
0
  5
22AD
 10
68.6483
 20
75.3785
 30
0.000000
  70
    32
  0
VERTEX
  8
0
  5
22AE
 10
68.6484
 20
75.3726
 30
0.000000
  70
    32
  0
VERTEX
  8
0
  5
22AF
 10
68.6486
 20
75.3666
 30
0.000000
  70
    32
  0
VERTEX
  8
0
  5
22B0
 10
68.6488
 20
75.3607
 30
0.000000
  70
    32
  0
VERTEX
  8
0
  5
22B1
 10
68.6491
 20
75.3549
 30
0.000000
  70
    32
  0
VERTEX
  8
0
  5
22B2
 10
68.6493
 20
75.3490
 30
0.000000
  70
    32
  0
VERTEX
  8
0
  5
22B3
 10
68.6495
 20
75.3432
 30
0.000000
  70
    32
  0
VERTEX
  8
0
  5
22B4
 10
68.6497
 20
75.3373
 30
0.000000
  70
    32
  0
VERTEX
  8
0
  5
22B5
 10
68.6500
 20
75.3316
 30
0.000000
  70
    32
  0
VERTEX
  8
0
  5
22B6
 10
68.6502
 20
75.3258
 30
0.000000
  70
    32
  0
VERTEX
  8
0
  5
22B7
 10
68.6505
 20
75.3201
 30
0.000000
  70
    32
  0
VERTEX
  8
0
  5
22B8
 10
68.6508
 20
75.3143
 30
0.000000
  70
    32
  0
VERTEX
  8
0
  5
22B9
 10
68.6511
 20
75.3087
 30
0.000000
  70
    32
  0
VERTEX
  8
0
  5
22BA
 10
68.6514
 20
75.3030
 30
0.000000
  70
    32
  0
VERTEX
  8
0
  5
22BB
 10
68.6517
 20
75.2974
 30
0.000000
  70
    32
  0
VERTEX
  8
0
  5
22BC
 10
68.6520
 20
75.2918
 30
0.000000
  70
    32
  0
VERTEX
  8
0
  5
22BD
 10
68.6523
 20
75.2862
 30
0.000000
  70
    32
  0
VERTEX
  8
0
  5
22BE
 10
68.6526
 20
75.2807
 30
0.000000
  70
    32
  0
VERTEX
  8
0
  5
22BF
 10
68.6529
 20
75.2752
 30
0.000000
  70
    32
  0
VERTEX
  8
0
  5
22C0
 10
68.6533
 20
75.2697
 30
0.000000
  70
    32
  0
VERTEX
  8
0
  5
22C1
 10
68.6536
 20
75.2643
 30
0.000000
  70
    32
  0
VERTEX
  8
0
  5
22C2
 10
68.6540
 20
75.2589
 30
0.000000
  70
    32
  0
VERTEX
  8
0
  5
22C3
 10
68.6543
 20
75.2536
 30
0.000000
  70
    32
  0
VERTEX
  8
0
  5
22C4
 10
68.6547
 20
75.2482
 30
0.000000
  70
    32
  0
VERTEX
  8
0
  5
22C5
 10
68.6551
 20
75.2429
 30
0.000000
  70
    32
  0
VERTEX
  8
0
  5
22C6
 10
68.6555
 20
75.2377
 30
0.000000
  70
    32
  0
VERTEX
  8
0
  5
22C7
 10
68.6559
 20
75.2325
 30
0.000000
  70
    32
  0
VERTEX
  8
0
  5
22C8
 10
68.6563
 20
75.2273
 30
0.000000
  70
    32
  0
VERTEX
  8
0
  5
22C9
 10
68.6567
 20
75.2222
 30
0.000000
  70
    32
  0
VERTEX
  8
0
  5
22CA
 10
68.6571
 20
75.2171
 30
0.000000
  70
    32
  0
VERTEX
  8
0
  5
22CB
 10
68.6575
 20
75.2121
 30
0.000000
  70
    32
  0
VERTEX
  8
0
  5
22CC
 10
68.6579
 20
75.2071
 30
0.000000
  70
    32
  0
VERTEX
  8
0
  5
22CD
 10
68.6584
 20
75.2022
 30
0.000000
  70
    32
  0
VERTEX
  8
0
  5
22CE
 10
68.6588
 20
75.1972
 30
0.000000
  70
    32
  0
VERTEX
  8
0
  5
22CF
 10
68.6593
 20
75.1924
 30
0.000000
  70
    32
  0
VERTEX
  8
0
  5
22D0
 10
68.6597
 20
75.1876
 30
0.000000
  70
    32
  0
VERTEX
  8
0
  5
22D1
 10
68.6602
 20
75.1828
 30
0.000000
  70
    32
  0
VERTEX
  8
0
  5
22D2
 10
68.6607
 20
75.1781
 30
0.000000
  70
    32
  0
VERTEX
  8
0
  5
22D3
 10
68.6612
 20
75.1734
 30
0.000000
  70
    32
  0
VERTEX
  8
0
  5
22D4
 10
68.6617
 20
75.1688
 30
0.000000
  70
    32
  0
VERTEX
  8
0
  5
22D5
 10
68.6622
 20
75.1642
 30
0.000000
  70
    32
  0
VERTEX
  8
0
  5
22D6
 10
68.6627
 20
75.1597
 30
0.000000
  70
    32
  0
VERTEX
  8
0
  5
22D7
 10
68.6632
 20
75.1552
 30
0.000000
  70
    32
  0
VERTEX
  8
0
  5
22D8
 10
68.6637
 20
75.1508
 30
0.000000
  70
    32
  0
VERTEX
  8
0
  5
22D9
 10
68.6642
 20
75.1464
 30
0.000000
  70
    32
  0
VERTEX
  8
0
  5
22DA
 10
68.6647
 20
75.1421
 30
0.000000
  70
    32
  0
VERTEX
  8
0
  5
22DB
 10
68.6653
 20
75.1379
 30
0.000000
  70
    32
  0
VERTEX
  8
0
  5
22DC
 10
68.6658
 20
75.1337
 30
0.000000
  70
    32
  0
VERTEX
  8
0
  5
22DD
 10
68.6664
 20
75.1295
 30
0.000000
  70
    32
  0
VERTEX
  8
0
  5
22DE
 10
68.6669
 20
75.1254
 30
0.000000
  70
    32
  0
VERTEX
  8
0
  5
22DF
 10
68.6675
 20
75.1214
 30
0.000000
  70
    32
  0
VERTEX
  8
0
  5
22E0
 10
68.6681
 20
75.1174
 30
0.000000
  70
    32
  0
VERTEX
  8
0
  5
22E1
 10
68.6686
 20
75.1135
 30
0.000000
  70
    32
  0
VERTEX
  8
0
  5
22E2
 10
68.6692
 20
75.1096
 30
0.000000
  70
    32
  0
VERTEX
  8
0
  5
22E3
 10
68.6698
 20
75.1058
 30
0.000000
  70
    32
  0
VERTEX
  8
0
  5
22E4
 10
68.6704
 20
75.1021
 30
0.000000
  70
    32
  0
VERTEX
  8
0
  5
22E5
 10
68.6710
 20
75.0984
 30
0.000000
  70
    32
  0
VERTEX
  8
0
  5
22E6
 10
68.6716
 20
75.0948
 30
0.000000
  70
    32
  0
VERTEX
  8
0
  5
22E7
 10
68.6722
 20
75.0912
 30
0.000000
  70
    32
  0
VERTEX
  8
0
  5
22E8
 10
68.6728
 20
75.0877
 30
0.000000
  70
    32
  0
VERTEX
  8
0
  5
22E9
 10
68.6734
 20
75.0843
 30
0.000000
  70
    32
  0
VERTEX
  8
0
  5
22EA
 10
68.6740
 20
75.0809
 30
0.000000
  70
    32
  0
VERTEX
  8
0
  5
22EB
 10
68.6747
 20
75.0776
 30
0.000000
  70
    32
  0
VERTEX
  8
0
  5
22EC
 10
68.6753
 20
75.0743
 30
0.000000
  70
    32
  0
VERTEX
  8
0
  5
22ED
 10
68.6759
 20
75.0711
 30
0.000000
  70
    32
  0
VERTEX
  8
0
  5
22EE
 10
68.6766
 20
75.0680
 30
0.000000
  70
    32
  0
VERTEX
  8
0
  5
22EF
 10
68.6772
 20
75.0650
 30
0.000000
  70
    32
  0
VERTEX
  8
0
  5
22F0
 10
68.6779
 20
75.0620
 30
0.000000
  70
    32
  0
VERTEX
  8
0
  5
22F1
 10
68.6785
 20
75.0590
 30
0.000000
  70
    32
  0
VERTEX
  8
0
  5
22F2
 10
68.6792
 20
75.0562
 30
0.000000
  70
    32
  0
VERTEX
  8
0
  5
22F3
 10
68.6798
 20
75.0534
 30
0.000000
  70
    32
  0
VERTEX
  8
0
  5
22F4
 10
68.6805
 20
75.0507
 30
0.000000
  70
    32
  0
VERTEX
  8
0
  5
22F5
 10
68.6812
 20
75.0480
 30
0.000000
  70
    32
  0
VERTEX
  8
0
  5
22F6
 10
68.6818
 20
75.0454
 30
0.000000
  70
    32
  0
VERTEX
  8
0
  5
22F7
 10
68.6825
 20
75.0429
 30
0.000000
  70
    32
  0
VERTEX
  8
0
  5
22F8
 10
68.6832
 20
75.0404
 30
0.000000
  70
    32
  0
VERTEX
  8
0
  5
22F9
 10
68.6839
 20
75.0381
 30
0.000000
  70
    32
  0
VERTEX
  8
0
  5
22FA
 10
68.6846
 20
75.0357
 30
0.000000
  70
    32
  0
VERTEX
  8
0
  5
22FB
 10
68.6853
 20
75.0335
 30
0.000000
  70
    32
  0
VERTEX
  8
0
  5
22FC
 10
68.6860
 20
75.0313
 30
0.000000
  70
    32
  0
VERTEX
  8
0
  5
22FD
 10
68.6867
 20
75.0292
 30
0.000000
  70
    32
  0
VERTEX
  8
0
  5
22FE
 10
68.6874
 20
75.0272
 30
0.000000
  70
    32
  0
VERTEX
  8
0
  5
22FF
 10
68.6881
 20
75.0252
 30
0.000000
  70
    32
  0
VERTEX
  8
0
  5
2300
 10
68.6888
 20
75.0233
 30
0.000000
  70
    32
  0
VERTEX
  8
0
  5
2301
 10
68.6895
 20
75.0215
 30
0.000000
  70
    32
  0
VERTEX
  8
0
  5
2302
 10
68.6902
 20
75.0198
 30
0.000000
  70
    32
  0
VERTEX
  8
0
  5
2303
 10
68.6909
 20
75.0181
 30
0.000000
  70
    32
  0
VERTEX
  8
0
  5
2304
 10
68.6916
 20
75.0165
 30
0.000000
  70
    32
  0
VERTEX
  8
0
  5
2305
 10
68.6924
 20
75.0150
 30
0.000000
  70
    32
  0
VERTEX
  8
0
  5
2306
 10
68.6931
 20
75.0135
 30
0.000000
  70
    32
  0
VERTEX
  8
0
  5
2307
 10
68.6938
 20
75.0121
 30
0.000000
  70
    32
  0
VERTEX
  8
0
  5
2308
 10
68.6945
 20
75.0108
 30
0.000000
  70
    32
  0
VERTEX
  8
0
  5
2309
 10
68.6953
 20
75.0096
 30
0.000000
  70
    32
  0
VERTEX
  8
0
  5
230A
 10
68.6960
 20
75.0084
 30
0.000000
  70
    32
  0
VERTEX
  8
0
  5
230B
 10
68.6967
 20
75.0074
 30
0.000000
  70
    32
  0
VERTEX
  8
0
  5
230C
 10
68.6975
 20
75.0063
 30
0.000000
  70
    32
  0
VERTEX
  8
0
  5
230D
 10
68.6982
 20
75.0054
 30
0.000000
  70
    32
  0
VERTEX
  8
0
  5
230E
 10
68.6989
 20
75.0045
 30
0.000000
  70
    32
  0
VERTEX
  8
0
  5
230F
 10
68.6997
 20
75.0038
 30
0.000000
  70
    32
  0
VERTEX
  8
0
  5
2310
 10
68.7004
 20
75.0030
 30
0.000000
  70
    32
  0
VERTEX
  8
0
  5
2311
 10
68.7012
 20
75.0024
 30
0.000000
  70
    32
  0
VERTEX
  8
0
  5
2312
 10
68.7019
 20
75.0018
 30
0.000000
  70
    32
  0
VERTEX
  8
0
  5
2313
 10
68.7026
 20
75.0014
 30
0.000000
  70
    32
  0
VERTEX
  8
0
  5
2314
 10
68.7034
 20
75.0009
 30
0.000000
  70
    32
  0
VERTEX
  8
0
  5
2315
 10
68.7041
 20
75.0006
 30
0.000000
  70
    32
  0
VERTEX
  8
0
  5
2316
 10
68.7049
 20
75.0003
 30
0.000000
  70
    32
  0
VERTEX
  8
0
  5
2317
 10
68.7056
 20
75.0002
 30
0.000000
  70
    32
  0
VERTEX
  8
0
  5
2318
 10
68.7064
 20
75.0000
 30
0.000000
  70
    32
  0
VERTEX
  8
0
  5
2319
 10
68.7071
 20
75.0000
 30
0.000000
  70
    32
  0
SEQEND
  8
0
  5
231A
  0
LINE
  5
89D
  8
0
 10
68.646446745842724
 20
79.597746630554866
 30
0.0
 11
68.646446745842724
 21
75.500000178238224
 31
0.0
  0
POLYLINE
  5
89E
  8
0
 66
     1
 10
0.0
 20
0.0
 30
0.0
 70
   128
  0
VERTEX
  5
2203
  8
0
 10
68.618406485766201
 20
80.207107265835475
 30
0.0
  0
VERTEX
  5
2204
  8
0
 10
68.63306177780035
 20
79.902426948195171
 30
0.0
  0
VERTEX
  5
2205
  8
0
 10
68.646446745842724
 20
79.597746630554866
 30
0.0
  0
SEQEND
  5
2206
  8
0
  0
LINE
  5
89F
  8
0
 10
68.618406485766201
 20
84.792893522774676
 30
0.0
 11
68.618406485766201
 21
80.207107265835475
 31
0.0
  0
POLYLINE
  5
8A0
  8
0
 66
     1
 10
0.0
 20
0.0
 30
0.0
 70
   128
  0
VERTEX
  5
2207
  8
0
 10
68.646446745842724
 20
85.402254158055285
 30
0.0
  0
VERTEX
  5
2208
  8
0
 10
68.63306177780035
 20
85.097573840414967
 30
0.0
  0
VERTEX
  5
2209
  8
0
 10
68.618406485766201
 20
84.792893522774676
 30
0.0
  0
SEQEND
  5
220A
  8
0
  0
LINE
  5
8A1
  8
0
 10
68.646446745842724
 20
89.500000610371913
 30
0.0
 11
68.646446745842724
 21
85.402254158055285
 31
0.0
  0
ARC
  5
8AF
  8
0
 10
67.499999877065434
 20
84.792893613118537
 30
0.0
 40
0.5
 50
0.0
 51
44.999999999997691
  0
ARC
  5
8B4
  8
0
 10
67.499999877065434
 20
80.207107175491615
 30
0.0
 40
0.5
 50
315.00000000000398
 51
0.0
  0
ARC
  5
8B7
  8
0
 10
67.999999877065449
 20
85.707107175491643
 30
0.0
 40
0.5
 50
180.0
 51
225.0000000000023
  0
ARC
  5
8BE
  8
0
 10
67.999999877065449
 20
75.500000394305061
 30
0.0
 40
0.5
 50
180.0
 51
270.0
  0
LINE
  5
8C5
  8
0
 10
67.853554096072941
 20
85.146447087993707
 30
0.0
 11
67.646446581929951
 21
85.353553670814136
 31
0.0
  0
LINE
  5
8C6
  8
0
 10
67.499999832361965
 20
75.500000178238224
 30
0.0
 11
67.499999832361965
 21
79.29289355257697
 31
0.0
  0
ARC
  5
8C9
  8
0
 10
67.999999877065449
 20
79.292893613118508
 30
0.0
 40
0.500000000000004
 50
134.9999999999994
 51
180.0
  0
ARC
  5
8CB
  8
0
 10
67.999999877065449
 20
89.50000039430509
 30
0.0
 40
0.5
 50
90.0
 51
180.0
  0
LINE
  5
8CD
  8
0
 10
67.499999832361965
 20
85.707107236033167
 30
0.0
 11
67.499999832361965
 21
89.500000610371913
 31
0.0
  0
LINE
  5
8CE
  8
0
 10
67.646446581929951
 20
79.646447117796015
 30
0.0
 11
67.853554096072941
 21
79.85355370061643
 31
0.0
  0
LINE
  5
8CF
  8
0
 10
67.999998982995777
 20
80.207107265835475
 30
0.0
 11
67.999998982995777
 21
84.792893522774676
 31
0.0
  0
LINE
  5
8D1
  8
0
 10
77.499999608844547
 20
78.800000393187474
 30
0.0
 11
77.499999608844547
 21
78.500000204315256
 31
0.0
  0
LINE
  5
8D2
  8
0
 10
77.499999608844547
 20
86.500000584294895
 30
0.0
 11
77.499999608844547
 21
86.200000395422677
 31
0.0
  0
LINE
  5
8D4
  8
0
 10
79.499999936670093
 20
86.500000584294895
 30
0.0
 11
79.499999936670093
 21
86.200000395422677
 31
0.0
  0
LINE
  5
8D5
  8
0
 10
79.499999936670093
 20
78.800000393187474
 30
0.0
 11
79.499999936670093
 21
78.500000204315256
 31
0.0
  0
ARC
  5
8D8
  8
0
 10
77.499999877065463
 20
82.500000394305076
 30
0.0
 40
2.250000000000004
 50
90.0
 51
270.0
  0
LINE
  5
8DA
  8
0
 10
27.999999905005101
 20
30.700000207871199
 30
0.0
 11
28.699999996460971
 21
30.0
 31
0.0
  0
LINE
  5
8DB
  8
0
 10
31.300000003539029
 20
30.0
 30
0.0
 11
32.000000094994903
 21
30.700000207871199
 31
0.0
  0
LINE
  5
8DC
  8
0
 10
27.999999905005101
 20
37.499692167609368
 30
0.0
 11
27.999999905005101
 21
30.700000207871199
 31
0.0
  0
LINE
  5
8DD
  8
0
 10
32.000000094994903
 20
30.700000207871199
 30
0.0
 11
31.999999999999972
 21
37.500000372994691
 31
0.0
  0
ARC
  5
8DE
  8
0
 10
27.499999999999972
 20
37.50000037997961
 30
0.0
 40
0.5
 50
0.0
 51
90.0
  0
ARC
  5
8DF
  8
0
 10
32.499999999999972
 20
37.50000037997961
 30
0.0
 40
0.5
 50
90.0
 51
180.0
  0
LINE
  5
8E0
  8
0
 10
27.999999905005101
 20
30.700000207871199
 30
0.0
 11
32.000000094994903
 21
30.700000207871199
 31
0.0
  0
LINE
  5
8E1
  8
0
 10
31.300000003539029
 20
30.0
 30
0.0
 11
28.699999996460971
 21
30.0
 31
0.0
  0
ARC
  5
8E3
  8
0
 10
23.000000000000028
 20
40.50000037997961
 30
0.0
 40
0.5
 50
90.0
 51
180.0
  0
ARC
  5
8E6
  8
0
 10
23.000000000000028
 20
38.50000037997961
 30
0.0
 40
0.5
 50
180.0
 51
270.0
  0
LINE
  5
8E9
  8
0
 10
22.500000167638088
 20
38.500000403728329
 30
0.0
 11
22.500000167638081
 21
44.500409816211281
 31
0.0
  0
LINE
  5
8EA
  8
0
 10
22.999999783933191
 20
41.000000406056643
 30
0.0
 11
27.09774623624984
 21
41.000000406056643
 31
0.0
  0
LINE
  5
8FA
  8
0
 10
37.000000216066873
 20
38.00000037997961
 30
0.0
 11
23.000000000000028
 21
38.00000037997961
 31
0.0
  0
LINE
  5
8FE
  8
0
 10
32.902253763750231
 20
41.000000406056643
 30
0.0
 11
37.000000216066873
 21
41.000000406056643
 31
0.0
  0
ARC
  5
905
  8
0
 10
37.000000000000028
 20
40.50000037997961
 30
0.0
 40
0.5
 50
0.0
 51
90.0
  0
ARC
  5
908
  8
0
 10
37.000000000000028
 20
38.50000037997961
 30
0.0
 40
0.5
 50
270.0
 51
0.0
  0
LINE
  5
909
  8
0
 10
37.499999832361972
 20
44.500409816202612
 30
0.0
 11
37.499999832361972
 21
38.500000403728329
 31
0.0
  0
ARC
  5
90B
  8
0
 10
26.911611432001759
 20
40.562500309886751
 30
0.0
 40
0.4463394095210793
 50
351.9505372768981
 51
78.578224341161317
  0
ARC
  5
90E
  8
0
 10
26.911611649363842
 20
38.437500315175363
 30
0.0
 40
0.4463392086907372
 50
281.42175240111351
 51
8.049479692193465
  0
LINE
  5
910
  8
0
 10
27.353553306311401
 20
38.500000403728329
 30
0.0
 11
27.353553306311401
 21
40.500000324100249
 31
0.0
  0
ARC
  5
912
  8
0
 10
33.088388567998287
 20
40.562500309886751
 30
0.0
 40
0.4463394095210722
 50
101.4217756588386
 51
188.0494627231036
  0
ARC
  5
915
  8
0
 10
33.088388350636208
 20
38.437500315175363
 30
0.0
 40
0.4463392086907372
 50
171.9505203078065
 51
258.57824759888848
  0
LINE
  5
917
  8
0
 10
32.646446693688659
 20
40.500000324100249
 30
0.0
 11
32.646446693688659
 21
38.500000403728329
 31
0.0
  0
POLYLINE
  5
91A
  8
0
 66
     1
 10
0.0
 20
0.0
 30
0.0
 70
   128
  0
VERTEX
  5
220B
  8
0
 10
27.707106871530438
 20
40.985980276018381
 30
0.0
  0
VERTEX
  5
220C
  8
0
 10
27.402426553890141
 20
40.992263676598661
 30
0.0
  0
VERTEX
  5
220D
  8
0
 10
27.09774623624984
 20
41.000000406056643
 30
0.0
  0
SEQEND
  5
220E
  8
0
  0
POLYLINE
  5
925
  8
0
 66
     1
 10
0.0
 20
0.0
 30
0.0
 70
   128
  0
VERTEX
  5
220F
  8
0
 10
32.902253763750231
 20
41.000000406056643
 30
0.0
  0
VERTEX
  5
2210
  8
0
 10
32.603923901915579
 20
40.99248556420207
 30
0.0
  0
VERTEX
  5
2211
  8
0
 10
32.292893128469622
 20
40.985980276018381
 30
0.0
  0
SEQEND
  5
2212
  8
0
  0
LINE
  5
929
  8
0
 10
32.292893128469622
 20
40.985980276018381
 30
0.0
 11
27.707106871530438
 21
40.985980276018381
 31
0.0
  0
ARC
  5
941
  8
0
 10
23.000000000000028
 20
44.500000379979639
 30
0.0
 40
0.5
 50
90.0
 51
180.0
  0
LINE
  5
942
  8
0
 10
22.999999783933191
 20
45.000000596046441
 30
0.0
 11
37.000000216066852
 21
45.000000596046441
 31
0.0
  0
ARC
  5
944
  8
0
 10
37.000000000000007
 20
44.500000379979639
 30
0.0
 40
0.5
 50
0.0
 51
90.0
  0
ARC
  5
945
  8
0
 10
134.4999997094273
 20
43.250000379979639
 30
0.0
 40
0.5
 50
0.0
 51
179.99999999999841
  0
ARC
  5
948
  8
0
 10
134.49999970942741
 20
38.749615801570123
 30
0.0
 40
0.5
 50
180.0
 51
0.0
  0
LINE
  5
949
  8
0
 10
134.99999992549419
 20
38.749615808483213
 30
0.0
 11
134.9999997094273
 21
43.250000404115177
 31
0.0
  0
ARC
  5
94A
  8
0
 10
121.4999997094273
 20
43.250000379979639
 30
0.0
 40
0.5
 50
0.0
 51
179.99999999999841
  0
LINE
  5
94C
  8
0
 10
120.9999997094273
 20
43.250000423616711
 30
0.0
 11
120.9999997094273
 21
38.749615801570123
 31
0.0
  0
ARC
  5
94D
  8
0
 10
121.4999997094273
 20
38.749615801570123
 30
0.0
 40
0.5
 50
180.0
 51
0.0
  0
ARC
  5
953
  8
0
 10
125.4999997094273
 20
37.50000037997961
 30
0.0
 40
0.5
 50
0.0
 51
90.0
  0
ARC
  5
954
  8
0
 10
130.4999997094273
 20
37.50000037997961
 30
0.0
 40
0.5
 50
90.0
 51
180.0
  0
ARC
  5
955
  8
0
 10
135.29999970942731
 20
40.95000037997962
 30
0.0
 40
0.200000000000017
 50
270.0
 51
0.0
  0
ARC
  5
956
  8
0
 10
135.29999970942731
 20
43.050000379979593
 30
0.0
 40
0.200000000000017
 50
0.0
 51
90.0
  0
LINE
  5
957
  8
0
 10
135.29999988153571
 20
43.250000309199088
 30
0.0
 11
135.19999958574769
 21
43.250000309199088
 31
0.0
  0
ARC
  5
959
  8
0
 10
135.19999970942729
 20
43.050000379979593
 30
0.0
 40
0.200000000000017
 50
90.0
 51
180.0
  0
ARC
  5
95A
  8
0
 10
135.19999970942729
 20
40.95000037997962
 30
0.0
 40
0.200000000000017
 50
180.0
 51
270.0
  0
ARC
  5
95B
  8
0
 10
120.7999997094273
 20
40.95000037997962
 30
0.0
 40
0.200000000000017
 50
270.0
 51
0.0
  0
ARC
  5
95C
  8
0
 10
120.7999997094273
 20
43.050000379979593
 30
0.0
 40
0.200000000000017
 50
0.0
 51
90.0
  0
LINE
  5
95E
  8
0
 10
120.7999998331069
 20
43.250000309199088
 30
0.0
 11
120.6999995373189
 21
43.250000309199088
 31
0.0
  0
ARC
  5
95F
  8
0
 10
120.6999997094273
 20
40.95000037997962
 30
0.0
 40
0.200000000000017
 50
180.0
 51
270.0
  0
ARC
  5
960
  8
0
 10
120.6999997094273
 20
43.050000379979593
 30
0.0
 40
0.200000000000017
 50
90.0
 51
180.0
  0
LINE
  5
961
  8
0
 10
125.9999996144324
 20
37.500000356230878
 30
0.0
 11
125.9999996144324
 21
33.500000573694713
 31
0.0
  0
LINE
  5
962
  8
0
 10
129.9999998044222
 20
33.500000573694713
 30
0.0
 11
129.9999998044222
 21
37.500000356230878
 31
0.0
  0
LINE
  5
963
  8
0
 10
125.9999996144324
 20
33.500000573694713
 30
0.0
 11
126.4999996963888
 21
33.000000491738319
 31
0.0
  0
LINE
  5
964
  8
0
 10
129.49999972246579
 20
33.000000491738319
 30
0.0
 11
129.9999998044222
 21
33.500000573694713
 31
0.0
  0
LINE
  5
969
  8
0
 10
133.99999976158139
 20
43.500000350177281
 30
0.0
 11
133.99999976158139
 21
38.500000403728329
 31
0.0
  0
ARC
  5
96B
  8
0
 10
133.4999997094273
 20
38.50000037997961
 30
0.0
 40
0.5
 50
270.0
 51
0.0
  0
ARC
  5
96D
  8
0
 10
133.4999997094273
 20
43.500000379979639
 30
0.0
 40
0.5
 50
0.0
 51
90.0
  0
LINE
  5
977
  8
0
 10
121.99999965727319
 20
38.500000403728329
 30
0.0
 11
121.99999965727319
 21
43.500000350177281
 31
0.0
  0
ARC
  5
97A
  8
0
 10
122.4999997094273
 20
38.50000037997961
 30
0.0
 40
0.5
 50
180.0
 51
270.0
  0
ARC
  5
97B
  8
0
 10
122.4999997094273
 20
43.500000379979639
 30
0.0
 40
0.5
 50
90.0
 51
180.0
  0
LINE
  5
97E
  8
0
 10
125.9999996144324
 20
33.500000573694713
 30
0.0
 11
129.9999998044222
 21
33.500000573694713
 31
0.0
  0
LINE
  5
97F
  8
0
 10
129.49999972246579
 20
33.000000491738319
 30
0.0
 11
126.4999996963888
 21
33.000000491738319
 31
0.0
  0
LINE
  5
981
  8
0
 10
120.9999997094273
 20
45.000000379979632
 30
0.0
 11
134.99999992549411
 21
45.000000596046441
 31
0.0
  0
ARC
  5
982
  8
0
 10
134.9999997094273
 20
44.500000379979639
 30
0.0
 40
0.5
 50
0.0
 51
90.0
  0
LINE
  5
984
  8
0
 10
134.99999992549411
 20
44.000000432133668
 30
0.0
 11
120.99977133680871
 21
44.000000432133703
 31
0.0
  0
ARC
  5
986
  8
0
 10
134.9999997094273
 20
44.500000379979639
 30
0.0
 40
0.5
 50
270.0
 51
0.0
  0
ARC
  5
98D
  8
0
 10
120.9999997094273
 20
44.500000379979639
 30
0.0
 40
0.5
 50
180.0
 51
270.0
  0
ARC
  5
98F
  8
0
 10
120.9999997094273
 20
44.500000379979639
 30
0.0
 40
0.5
 50
90.0
 51
180.0
  0
ARC
  5
998
  8
0
 10
135.29999970942731
 20
39.450000379979627
 30
0.0
 40
0.200000000000017
 50
270.0
 51
0.0
  0
LINE
  5
99A
  8
0
 10
135.2999998815358
 20
39.250000352039933
 30
0.0
 11
134.99999992549419
 21
39.250000352039933
 31
0.0
  0
LINE
  5
99B
  8
0
 10
134.99999992549419
 20
40.750000365078442
 30
0.0
 11
135.2999998815358
 21
40.750000365078442
 31
0.0
  0
ARC
  5
99D
  8
0
 10
135.29999970942731
 20
40.550000379979593
 30
0.0
 40
0.200000000000017
 50
0.0
 51
90.0
  0
LINE
  5
99F
  8
0
 10
120.99999949336051
 20
39.250000352039933
 30
0.0
 11
120.6999995373189
 21
39.250000352039933
 31
0.0
  0
LINE
  5
9A3
  8
0
 10
120.6999995373189
 20
40.750000365078442
 30
0.0
 11
120.99999949336051
 21
40.750000365078442
 31
0.0
  0
ARC
  5
9A8
  8
0
 10
120.6999997094273
 20
40.550000379979593
 30
0.0
 40
0.2000000000000028
 50
90.0
 51
180.0
  0
ARC
  5
9A9
  8
0
 10
120.6999997094273
 20
39.450000379979627
 30
0.0
 40
0.200000000000017
 50
180.0
 51
270.0
  0
LINE
  5
9AB
  8
0
 10
135.49999954178929
 20
44.500000514090061
 30
0.0
 11
135.49999954178941
 21
38.499590943851331
 31
0.0
  0
LINE
  5
9AC
  8
0
 10
120.49999987706551
 20
38.499590943684638
 30
0.0
 11
120.49999987706541
 21
44.500000514090061
 31
0.0
  0
ARC
  5
9AF
  8
0
 10
134.99999970942741
 20
38.50000037997961
 30
0.0
 40
0.5
 50
270.0
 51
0.0
  0
LINE
  5
9B4
  8
0
 10
134.99999992549419
 20
38.00000037997961
 30
0.0
 11
120.9999997094273
 21
38.00000037997961
 31
0.0
  0
ARC
  5
9B5
  8
0
 10
120.9999997094273
 20
38.50000037997961
 30
0.0
 40
0.5
 50
179.99999999999841
 51
270.0
  0
LINE
  5
AA5
  8
5
 10
77.499999608844547
 20
32.700000535696716
 30
0.0
 11
78.200000282377033
 21
32.000000327825518
 31
0.0
  0
LINE
  5
AA6
  8
5
 10
80.799999590963154
 20
32.000000327825518
 30
0.0
 11
81.50000026449564
 21
32.700000535696716
 31
0.0
  0
ARC
  5
AB2
  8
5
 10
90.949999877065409
 20
45.50000037997961
 30
0.0
 40
0.5
 50
90.0
 51
170.21749849352111
  0
LINE
  5
AB3
  8
5
 10
88.999999864026933
 20
44.000000432133668
 30
0.0
 11
90.316259551909781
 21
45.316260047256939
 31
0.0
  0
ARC
  5
AB4
  8
5
 10
89.96490500722345
 20
45.672012291468882
 30
0.0
 40
0.5000000000000053
 50
314.652256896182
 51
350.00005254337452
  0
LINE
  5
AB5
  8
5
 10
77.499999608844547
 20
32.700000535696716
 30
0.0
 11
81.50000026449564
 21
32.700000535696716
 31
0.0
  0
LINE
  5
AB6
  8
5
 10
80.799999590963154
 20
32.000000327825518
 30
0.0
 11
78.200000282377033
 21
32.000000327825518
 31
0.0
  0
LINE
  5
AC9
  8
5
 10
74.707106631249218
 20
46.999999992549412
 30
0.0
 11
92.000622315834818
 21
46.999999992549441
 31
0.0
  0
ARC
  5
ACF
  8
5
 10
69.99999987706542
 20
42.50000037997961
 30
0.0
 40
0.5
 50
90.0
 51
180.0
  0
LINE
  5
AD2
  8
5
 10
69.999999310821323
 20
43.000000268220901
 30
0.0
 11
70.292892809957294
 21
43.000000268220901
 31
0.0
  0
LINE
  5
AD5
  8
5
 10
76.499999444931774
 20
43.000000268220901
 30
0.0
 11
76.499999444931774
 21
40.500000324100249
 31
0.0
  0
ARC
  5
ADA
  8
5
 10
74.707106658251945
 20
46.50000037997961
 30
0.0
 40
0.5000000000000241
 50
90.0
 51
135.0000000000023
  0
ARC
  5
ADB
  8
5
 10
69.99999987706542
 20
40.50000037997961
 30
0.0
 40
0.5000000000000285
 50
180.0
 51
270.0
  0
LINE
  5
ADE
  8
5
 10
69.500000160187511
 20
40.500000324100249
 30
0.0
 11
69.500000160187511
 21
42.500000186264508
 31
0.0
  0
ARC
  5
ADF
  8
5
 10
70.292893095878867
 20
43.500000379979603
 30
0.0
 40
0.5000000000000443
 50
270.0
 51
315.0
  0
LINE
  5
AE2
  8
5
 10
70.64644707366827
 20
43.14644701778888
 30
0.0
 11
74.353552367538242
 21
46.853554174304001
 31
0.0
  0
ARC
  5
AE4
  8
5
 10
79.49999987706542
 20
43.00000037997961
 30
0.0
 40
3.0
 50
90.0
 51
180.0
  0
LINE
  5
AE6
  8
5
 10
92.000616301810595
 20
46.000000759959221
 30
0.0
 11
79.499999936670093
 21
46.000000759959221
 31
0.0
  0
ARC
  5
AE8
  8
5
 10
75.99999987706542
 20
40.50000037997961
 30
0.0
 40
0.5000000000000285
 50
270.0
 51
0.0
  0
ARC
  5
B00
  8
5
 10
91.999999877065449
 20
46.50000037997961
 30
0.0
 40
0.5
 50
0.0
 51
90.0
  0
ARC
  5
B02
  8
5
 10
91.999999877065449
 20
46.50000037997961
 30
0.0
 40
0.5
 50
270.0
 51
0.0
  0
POLYLINE
  5
B17
  8
5
 66
     1
 10
0.0
 20
0.0
 30
0.0
 70
   128
  0
VERTEX
  5
2213
  8
5
 10
88.285289183259039
 20
45.194168779999011
 30
0.0
  0
VERTEX
  5
2214
  8
5
 10
87.859863126650481
 20
45.118784271180623
 30
0.0
  0
VERTEX
  5
2215
  8
5
 10
87.40139397792521
 20
45.012528747320168
 30
0.0
  0
SEQEND
  5
2216
  8
5
  0
LINE
  5
B18
  8
5
 10
82.021376880008461
 20
40.000000469196891
 30
0.0
 11
69.99999987706542
 21
40.000000379979582
 31
0.0
  0
ARC
  5
B2D
  8
5
 10
81.976980852888104
 20
40.972237182122278
 30
0.0
 40
0.9732498308163396
 50
267.3854655196443
 51
312.09042448136228
  0
LINE
  5
B2E
  8
5
 10
87.40139397792521
 20
45.012528747320168
 30
0.0
 11
86.138865388929872
 21
43.750000391155481
 31
0.0
  0
LINE
  5
B2F
  8
5
 10
85.138865690678386
 20
42.750000227242701
 30
0.0
 11
83.638865444809227
 21
41.250000447034829
 31
0.0
  0
ARC
  5
B30
  8
5
 10
89.951019550002414
 20
34.637797970595557
 30
0.0
 40
10.686983780296311
 50
88.054124024221991
 51
98.966986607103834
  0
ARC
  5
18B1
  8
0
 10
79.499999668449163
 20
82.500000394305076
 30
0.0
 40
2.250000000000004
 50
270.0
 51
90.0
  0
LINE
  5
18B2
  8
1
 10
77.499999877065463
 20
89.500000584294895
 30
0.0
 11
77.499999877065463
 21
75.500000204315256
 31
0.0
  0
LINE
  5
18B3
  8
1
 10
79.499999668449163
 20
89.500000584294895
 30
0.0
 11
79.499999668449163
 21
75.500000204315256
 31
0.0
  0
LINE
  5
18B4
  8
0
 10
77.499999877065463
 20
84.750000394305104
 30
0.0
 11
79.499999668449163
 21
84.750000394305104
 31
0.0
  0
LINE
  5
18B5
  8
0
 10
77.499999877065463
 20
80.250000394305076
 30
0.0
 11
79.499999668449163
 21
80.250000394305076
 31
0.0
  0
LINE
  5
18D1
  8
5
 10
77.499999400228262
 20
38.000000379979639
 30
0.0
 11
77.499999400228262
 21
30.700000207871231
 31
0.0
  0
LINE
  5
18D2
  8
5
 10
81.500000055879354
 20
30.700000207871231
 30
0.0
 11
81.500000055879354
 21
38.000000379979639
 31
0.0
  0
LINE
  5
18D3
  8
5
 10
77.499999400228262
 20
30.700000207871231
 30
0.0
 11
78.200000073760748
 21
30.000000000000028
 31
0.0
  0
LINE
  5
18D4
  8
5
 10
80.799999382346869
 20
30.000000000000028
 30
0.0
 11
81.500000055879354
 21
30.700000207871231
 31
0.0
  0
LINE
  5
18D5
  8
5
 10
77.499999400228262
 20
30.700000207871231
 30
0.0
 11
81.500000055879354
 21
30.700000207871231
 31
0.0
  0
LINE
  5
18D6
  8
5
 10
80.799999382346869
 20
30.000000000000028
 30
0.0
 11
78.200000073760748
 21
30.000000000000028
 31
0.0
  0
LINE
  5
18D7
  8
5
 10
80.366025414317846
 20
84.000000407343606
 30
0.0
 11
78.63397404178977
 21
84.000000407343606
 31
0.0
  0
LINE
  5
18D8
  8
5
 10
77.767949286848307
 20
82.500000394305076
 30
0.0
 11
78.63397404178977
 21
84.000000407343606
 31
0.0
  0
LINE
  5
18D9
  8
5
 10
77.767949286848307
 20
82.500000394305076
 30
0.0
 11
78.63397404178977
 21
81.000000381266574
 31
0.0
  0
LINE
  5
18DA
  8
5
 10
78.63397404178977
 20
81.000000381266574
 30
0.0
 11
80.366025414317846
 21
81.000000381266574
 31
0.0
  0
LINE
  5
18DB
  8
5
 10
81.23205016925931
 20
82.500000394305076
 30
0.0
 11
80.366025414317846
 21
81.000000381266574
 31
0.0
  0
LINE
  5
18DC
  8
5
 10
81.23205016925931
 20
82.500000394305076
 30
0.0
 11
80.366025414317846
 21
84.000000407343606
 31
0.0
  0
CIRCLE
  5
18DD
  8
5
 10
79.499999668449163
 20
82.500000394305076
 30
0.0
 40
3.5
  0
LINE
  5
18E4
  8
1
 10
79.499999668449163
 20
48.000000596046448
 30
0.0
 11
79.499999668449163
 21
27.000000000000028
 31
0.0
  0
LINE
  5
1929
  8
1
 10
95.499999877065449
 20
82.500000394305076
 30
0.0
 11
62.999998982995777
 21
82.500000394305076
 31
0.0
  0
LINE
  5
1B27
  8
5
 10
81.120999668448917
 20
30.321000072563098
 30
0.0
 11
81.120999668448917
 21
38.00000037997961
 31
0.0
  0
LINE
  5
1B29
  8
5
 10
77.878999668449438
 20
30.321000191772299
 30
0.0
 11
77.878999668449438
 21
38.00000037997961
 31
0.0
  0
LINE
  5
1D03
  8
1
 10
127.9999998174608
 20
48.000000596046448
 30
0.0
 11
127.9999998174608
 21
27.000000000000028
 31
0.0
  0
LINE
  5
1D06
  8
5
 10
125.9999995492399
 20
30.700000207871231
 30
0.0
 11
126.7000002227723
 21
30.000000000000028
 31
0.0
  0
LINE
  5
1D07
  8
5
 10
129.29999953135851
 20
30.000000000000028
 30
0.0
 11
130.00000020489091
 21
30.700000207871231
 31
0.0
  0
LINE
  5
1D08
  8
5
 10
125.9999995492399
 20
30.700000207871231
 30
0.0
 11
130.00000020489091
 21
30.700000207871231
 31
0.0
  0
LINE
  5
1D09
  8
5
 10
129.29999953135851
 20
30.000000000000028
 30
0.0
 11
126.7000002227723
 21
30.000000000000028
 31
0.0
  0
LINE
  5
1D0A
  8
5
 10
129.6209998174605
 20
30.321000072563098
 30
0.0
 11
129.6209998174605
 21
33.121000586733039
 31
0.0
  0
LINE
  5
1D0B
  8
5
 10
126.37899981746099
 20
30.321000191772299
 30
0.0
 11
126.37899981746099
 21
33.12100037066611
 31
0.0
  0
LINE
  5
1D0C
  8
5
 10
125.9999995492399
 20
30.700000207871231
 30
0.0
 11
125.9999996144324
 21
33.500000573694713
 31
0.0
  0
LINE
  5
1D0D
  8
5
 10
129.9999998044222
 20
33.500000573694713
 30
0.0
 11
129.9999998044222
 21
30.700000207871231
 31
0.0
  0
LINE
  5
1F7A
  8
1
 10
30.000000108033451
 20
48.000000596046448
 30
0.0
 11
30.000000108033451
 21
27.000000000000028
 31
0.0
  0
LINE
  5
1F7B
  8
5
 10
27.999999839812531
 20
38.000000379979639
 30
0.0
 11
27.999999839812531
 21
30.700000207871231
 31
0.0
  0
LINE
  5
1F7C
  8
5
 10
32.000000495463631
 20
30.700000207871231
 30
0.0
 11
32.000000495463631
 21
38.000000379979639
 31
0.0
  0
LINE
  5
1F7D
  8
5
 10
27.999999839812531
 20
30.700000207871231
 30
0.0
 11
28.700000513345021
 21
30.000000000000028
 31
0.0
  0
LINE
  5
1F7E
  8
5
 10
31.299999821931141
 20
30.000000000000028
 30
0.0
 11
32.000000495463631
 21
30.700000207871231
 31
0.0
  0
LINE
  5
1F7F
  8
5
 10
27.999999839812531
 20
30.700000207871231
 30
0.0
 11
32.000000495463631
 21
30.700000207871231
 31
0.0
  0
LINE
  5
1F80
  8
5
 10
31.299999821931141
 20
30.000000000000028
 30
0.0
 11
28.700000513345021
 21
30.000000000000028
 31
0.0
  0
LINE
  5
1F81
  8
5
 10
31.62100010803319
 20
30.321000072563098
 30
0.0
 11
31.62100010803319
 21
38.00000037997961
 31
0.0
  0
LINE
  5
1F82
  8
5
 10
28.379000108033711
 20
30.321000191772299
 30
0.0
 11
28.379000108033711
 21
38.00000037997961
 31
0.0
  0
LINE
  5
1FC6
  8
1
 10
87.499999967403738
 20
41.000000379979603
 30
0.0
 11
87.499999967403738
 21
30.000000491738319
 31
0.0
  0
ENDSEC
  0
EOF
