  0
SECTION
  2
HEADER
  9
$ACADVER
  1
AC1009
  9
$INSBASE
 10
0.0
 20
0.0
 30
0.0
  9
$EXTMIN
 10
0.0
 20
-1.4802182810368341
 30
0.0
  9
$EXTMAX
 10
57.620658321045653
 20
68.663501806247766
 30
0.0
  9
$LIMMIN
 10
0.0
 20
0.0
  9
$LIMMAX
 10
375.0
 20
270.0
  9
$ORTHOMODE
 70
     1
  9
$REGENMODE
 70
     1
  9
$FILLMODE
 70
     1
  9
$QTEXTMODE
 70
     0
  9
$MIRRTEXT
 70
     0
  9
$DRAGMODE
 70
     2
  9
$LTSCALE
 40
1.0
  9
$OSMODE
 70
    37
  9
$ATTMODE
 70
     1
  9
$TEXTSIZE
 40
6.0
  9
$TRACEWID
 40
0.05
  9
$TEXTSTYLE
  7
STANDARD
  9
$CLAYER
  8
0
  9
$CELTYPE
  6
BYLAYER
  9
$CECOLOR
 62
   256
  9
$DIMSCALE
 40
1.0
  9
$DIMASZ
 40
3.0
  9
$DIMEXO
 40
2.0
  9
$DIMDLI
 40
0.3799999999999999
  9
$DIMRND
 40
0.0
  9
$DIMDLE
 40
0.0
  9
$DIMEXE
 40
2.0
  9
$DIMTP
 40
0.0
  9
$DIMTM
 40
0.0
  9
$DIMTXT
 40
3.2000000000000002
  9
$DIMCEN
 40
0.09
  9
$DIMTSZ
 40
0.0
  9
$DIMTOL
 70
     0
  9
$DIMLIM
 70
     0
  9
$DIMTIH
 70
     0
  9
$DIMTOH
 70
     0
  9
$DIMSE1
 70
     0
  9
$DIMSE2
 70
     0
  9
$DIMTAD
 70
     1
  9
$DIMZIN
 70
     9
  9
$DIMBLK
  1

  9
$DIMASO
 70
     0
  9
$DIMSHO
 70
     0
  9
$DIMPOST
  1

  9
$DIMAPOST
  1

  9
$DIMALT
 70
     0
  9
$DIMALTD
 70
     2
  9
$DIMALTF
 40
25.399999999999999
  9
$DIMLFAC
 40
1.0
  9
$DIMTOFL
 70
     0
  9
$DIMTVP
 40
0.0
  9
$DIMTIX
 70
     0
  9
$DIMSOXD
 70
     0
  9
$DIMSAH
 70
     0
  9
$DIMBLK1
  1

  9
$DIMBLK2
  1

  9
$DIMSTYLE
  2
STANDARD
  9
$DIMCLRD
 70
     0
  9
$DIMCLRE
 70
     0
  9
$DIMCLRT
 70
     0
  9
$DIMTFAC
 40
1.0
  9
$DIMGAP
 40
0.09
  9
$LUNITS
 70
     2
  9
$LUPREC
 70
     1
  9
$SKETCHINC
 40
0.1
  9
$FILLETRAD
 40
20.0
  9
$AUNITS
 70
     0
  9
$AUPREC
 70
     1
  9
$MENU
  1
E:\r13\win\SUPPORT\ACAD
  9
$ELEVATION
 40
0.0
  9
$PELEVATION
 40
0.0
  9
$THICKNESS
 40
0.0
  9
$LIMCHECK
 70
     0
  9
$BLIPMODE
 70
     0
  9
$CHAMFERA
 40
0.0
  9
$CHAMFERB
 40
0.0
  9
$SKPOLY
 70
     0
  9
$TDCREATE
 40
2449840.6320370371
  9
$TDUPDATE
 40
2456927.6947200238
  9
$TDINDWG
 40
1.9140245486
  9
$TDUSRTIMER
 40
1.9140245486
  9
$USRTIMER
 70
     1
  9
$ANGBASE
 50
0.0
  9
$ANGDIR
 70
     0
  9
$PDMODE
 70
     0
  9
$PDSIZE
 40
0.0
  9
$PLINEWID
 40
0.0
  9
$COORDS
 70
     1
  9
$SPLFRAME
 70
     0
  9
$SPLINETYPE
 70
     6
  9
$SPLINESEGS
 70
     8
  9
$ATTDIA
 70
     0
  9
$ATTREQ
 70
     1
  9
$HANDLING
 70
     1
  9
$HANDSEED
  5
1DBBF
  9
$SURFTAB1
 70
     6
  9
$SURFTAB2
 70
     6
  9
$SURFTYPE
 70
     6
  9
$SURFU
 70
     6
  9
$SURFV
 70
     6
  9
$UCSNAME
  2

  9
$UCSORG
 10
0.0
 20
0.0
 30
0.0
  9
$UCSXDIR
 10
1.0
 20
0.0
 30
0.0
  9
$UCSYDIR
 10
0.0
 20
1.0
 30
0.0
  9
$PUCSNAME
  2

  9
$PUCSORG
 10
0.0
 20
0.0
 30
0.0
  9
$PUCSXDIR
 10
1.0
 20
0.0
 30
0.0
  9
$PUCSYDIR
 10
0.0
 20
1.0
 30
0.0
  9
$USERI1
 70
     0
  9
$USERI2
 70
     1
  9
$USERI3
 70
     0
  9
$USERI4
 70
     0
  9
$USERI5
 70
     0
  9
$USERR1
 40
0.0
  9
$USERR2
 40
0.0
  9
$USERR3
 40
0.0
  9
$USERR4
 40
0.0
  9
$USERR5
 40
0.0
  9
$WORLDVIEW
 70
     1
  9
$SHADEDGE
 70
     3
  9
$SHADEDIF
 70
    70
  9
$TILEMODE
 70
     1
  9
$MAXACTVP
 70
    16
  9
$PLIMCHECK
 70
     0
  9
$PEXTMIN
 10
1.0000000000000000E+020
 20
1.0000000000000000E+020
 30
1.0000000000000000E+020
  9
$PEXTMAX
 10
-1.0000000000000000E+020
 20
-1.0000000000000000E+020
 30
-1.0000000000000000E+020
  9
$PLIMMIN
 10
0.0
 20
0.0
  9
$PLIMMAX
 10
12.0
 20
9.0
  9
$UNITMODE
 70
     0
  9
$VISRETAIN
 70
     0
  9
$PLINEGEN
 70
     0
  9
$PSLTSCALE
 70
     0
  0
ENDSEC
  0
SECTION
  2
TABLES
  0
TABLE
  2
VPORT
 70
     1
  0
VPORT
  2
*ACTIVE
 70
     0
 10
0.0
 20
0.0
 11
1.0
 21
1.0
 12
165.8205841446453
 22
95.0
 13
0.0
 23
0.0
 14
10.0
 24
10.0
 15
10.0
 25
10.0
 16
0.0
 26
0.0
 36
1.0
 17
0.0
 27
0.0
 37
0.0
 40
190.0
 41
1.7454798331015291
 42
50.0
 43
0.0
 44
0.0
 50
0.0
 51
0.0
 71
     0
 72
   500
 73
     1
 74
     0
 75
     0
 76
     0
 77
     0
 78
     0
  0
ENDTAB
  0
TABLE
  2
LTYPE
 70
     4
  0
LTYPE
  2
CONTINUOUS
 70
     0
  3
Solid Line
 72
    65
 73
     0
 40
0.0
  0
LTYPE
  2
CENTER
 70
     0
  3
____ _ ____ _ ____ _ ____ _ ____ _ ____ _ ____
 72
    65
 73
     4
 40
2.0
 49
1.25
 49
-0.25
 49
0.25
 49
-0.25
  0
LTYPE
  2
PHANTOM
 70
     0
  3
_____ _ _ _____ _ _ _____ _ _ _____ _ _ ____
 72
    65
 73
     6
 40
2.5
 49
1.25
 49
-0.25
 49
0.25
 49
-0.25
 49
0.25
 49
-0.25
  0
LTYPE
  2
PHANTOM2
 70
     0
  3
___ _ _ ___ _ _ ___ _ _ ___ _ _
 72
    65
 73
     6
 40
1.25
 49
0.625
 49
-0.125
 49
0.125
 49
-0.125
 49
0.125
 49
-0.125
  0
ENDTAB
  0
TABLE
  2
LAYER
 70
     5
  0
LAYER
  2
0
 70
     0
 62
     7
  6
CONTINUOUS
  0
LAYER
  2
1
 70
     0
 62
     1
  6
CENTER
  0
LAYER
  2
DEFPOINTS
 70
     0
 62
     7
  6
CONTINUOUS
  0
LAYER
  2
5
 70
     0
 62
     3
  6
PHANTOM
  0
LAYER
  2
3
 70
     0
 62
     3
  6
CONTINUOUS
  0
ENDTAB
  0
TABLE
  2
STYLE
 70
     2
  0
STYLE
  2
STANDARD
 70
     0
 40
0.0
 41
1.0
 50
0.0
 71
     0
 42
6.0
  3
TXT
  4
BIGFONT
  0
STYLE
  2
STANDARD1
 70
     0
 40
0.0
 41
1.0
 50
0.0
 71
     0
 42
3.0
  3
txt
  4

  0
ENDTAB
  0
TABLE
  2
VIEW
 70
     1
  0
VIEW
  2
ALL
 70
     0
 40
270.0
 10
213.25689075630251
 20
135.0
 41
0.0
 11
0.0
 21
0.0
 31
1.0
 12
0.0
 22
0.0
 32
0.0
 42
0.0
 43
0.0
 44
0.0
 50
0.0
 71
     0
  0
ENDTAB
  0
TABLE
  2
UCS
 70
     0
  0
ENDTAB
  0
TABLE
  2
APPID
 70
    13
  0
APPID
  2
ACAD
 70
     0
  0
APPID
  2
ACAD_EXEMPT_FROM_CAD_STANDARDS
 70
     0
  0
APPID
  2
ACAD_MLEADERVER
 70
     0
  0
APPID
  2
ACAD_DSTYLE_DIMJAG
 70
     0
  0
APPID
  2
ACAD_DSTYLE_DIMTALN
 70
     0
  0
APPID
  2
ACAD_PSEXT
 70
     0
  0
APPID
  2
ACAD_DSTYLE_DIMBREAK
 70
     0
  0
APPID
  2
ACAECLAYERSTANDARD
 70
     0
  0
APPID
  2
ACCMTRANSPARENCY
 70
     0
  0
APPID
  2
GRADIENTCOLOR1ACI
 70
     0
  0
APPID
  2
GRADIENTCOLOR2ACI
 70
     0
  0
APPID
  2
ACAD_DSTYLE_DIMRADIAL_EXTENSION
 70
     0
  0
APPID
  2
ACAD_NAV_VCDISPLAY
 70
     0
  0
ENDTAB
  0
TABLE
  2
DIMSTYLE
 70
     1
  0
DIMSTYLE
  2
STANDARD
 70
     0
  3

  4

  5

  6

  7

 40
1.0
 41
0.18
 42
0.0625
 43
0.38
 44
0.18
 45
0.0
 46
0.0
 47
0.0
 48
0.0
140
0.18
141
0.09
142
0.0
143
25.399999999999999
144
1.0
145
0.0
146
1.0
147
0.09
 71
     0
 72
     0
 73
     1
 74
     1
 75
     0
 76
     0
 77
     0
 78
     0
170
     0
171
     2
172
     0
173
     0
174
     0
175
     0
176
     0
177
     0
178
     0
  0
ENDTAB
  0
ENDSEC
  0
SECTION
  2
BLOCKS
  0
BLOCK
  8
0
  2
$MODEL_SPACE
 70
     0
 10
0.0
 20
0.0
 30
0.0
  3
$MODEL_SPACE
  1

  0
ENDBLK
  5
126
  8
0
  0
BLOCK
 67
     1
  8
0
  2
$PAPER_SPACE
 70
     0
 10
0.0
 20
0.0
 30
0.0
  3
$PAPER_SPACE
  1

  0
ENDBLK
  5
124
 67
     1
  8
0
  0
ENDSEC
  0
SECTION
  2
ENTITIES
  0
ARC
  5
1B827
  8
0
 10
24.492233687068001
 20
31.264222609236359
 30
0.0
 40
0.5000690618277544
 50
269.15026102591628
 51
91.044734186296225
  0
ARC
  5
1B82C
  8
0
 10
15.50765626060894
 20
31.26422298800955
 30
0.0
 40
0.5000703006081598
 50
88.945151442576574
 51
270.8563564173308
  0
LINE
  5
1B82D
  8
0
 10
15.099999999999991
 20
34.600000000000051
 30
0.0
 11
15.835791458270361
 21
33.864208541729631
 31
0.0
  0
LINE
  5
1B82E
  8
0
 10
24.164208541729302
 20
33.864208541729312
 30
0.0
 11
24.899999999999981
 21
34.600000000000051
 31
0.0
  0
LINE
  5
1B82F
  8
0
 10
15.099999999999991
 20
35.000000000000028
 30
0.0
 11
15.099999999999991
 21
34.600000000000051
 31
0.0
  0
LINE
  5
1B830
  8
0
 10
24.899999999999981
 20
34.600000000000051
 30
0.0
 11
24.899999999999981
 21
35.000000000000028
 31
0.0
  0
LINE
  5
1B831
  8
0
 10
17.5
 20
27.428417083459209
 30
0.0
 11
17.5
 21
20.800000000000011
 31
0.0
  0
LINE
  5
1B832
  8
0
 10
22.5
 20
20.800000000000011
 30
0.0
 11
22.5
 21
27.428417083459209
 31
0.0
  0
LINE
  5
1B833
  8
0
 10
17.5
 20
20.800000000000011
 30
0.0
 11
18.299999999999979
 21
20.0
 31
0.0
  0
LINE
  5
1B834
  8
0
 10
21.699999999999989
 20
20.0
 30
0.0
 11
22.5
 21
20.800000000000011
 31
0.0
  0
LINE
  5
1B835
  8
0
 10
24.899999999999981
 20
27.428417083459241
 30
0.0
 11
24.899999999999981
 21
27.928417083459209
 31
0.0
  0
LINE
  5
1B836
  8
0
 10
15.099999999999991
 20
27.928417083459209
 30
0.0
 11
15.099999999999991
 21
27.428417083459241
 31
0.0
  0
LINE
  5
1B837
  8
0
 10
24.899999999999981
 20
27.928417083459209
 30
0.0
 11
24.16420854172992
 21
28.66420854172933
 31
0.0
  0
LINE
  5
1B838
  8
0
 10
15.835791458270361
 20
28.664208541729639
 30
0.0
 11
15.099999999999991
 21
27.928417083459209
 31
0.0
  0
LINE
  5
1B839
  8
0
 10
24.986602540378328
 20
28.66420854172933
 30
0.0
 11
24.986602540378328
 21
30.764208541729349
 31
0.0
  0
LINE
  5
1B83A
  8
0
 10
24.986602540378328
 20
31.764208541729349
 30
0.0
 11
24.986602540378328
 21
33.864208541729369
 31
0.0
  0
LINE
  5
1B83B
  8
0
 10
24.486602540378328
 20
30.764208541729349
 30
0.0
 11
24.444996187499051
 21
30.765942637417108
 31
0.0
  0
LINE
  5
1B83C
  8
0
 10
24.458269425497011
 20
31.763405130861461
 30
0.0
 11
24.486602540378328
 21
31.764208541729349
 31
0.0
  0
LINE
  5
1B83D
  8
0
 10
15.013397459621549
 20
30.76420854172963
 30
0.0
 11
15.01339745962153
 21
28.664208541729639
 31
0.0
  0
LINE
  5
1B83E
  8
0
 10
15.013397459621549
 20
33.864208541729653
 30
0.0
 11
15.013397459621549
 21
31.76420854172963
 31
0.0
  0
LINE
  5
1B83F
  8
0
 10
15.51339745962156
 20
31.76420854172963
 30
0.0
 11
15.55584910541881
 21
31.762403140023419
 31
0.0
  0
LINE
  5
1B840
  8
0
 10
15.540603180469869
 20
30.76494924161284
 30
0.0
 11
15.51339745962156
 21
30.76420854172963
 31
0.0
  0
LINE
  5
1B843
  8
0
 10
15.099999999999991
 20
34.600000000000051
 30
0.0
 11
24.899999999999981
 21
34.600000000000051
 31
0.0
  0
LINE
  5
1B844
  8
0
 10
19.313397459621509
 20
32.200000000000017
 30
0.0
 11
20.68660254037832
 21
32.200000000000017
 31
0.0
  0
LINE
  5
1B845
  8
0
 10
15.099999999999991
 20
35.000000000000028
 30
0.0
 11
24.899999999999981
 21
35.000000000000028
 31
0.0
  0
LINE
  5
1B847
  8
0
 10
17.5
 20
20.800000000000011
 30
0.0
 11
22.5
 21
20.800000000000011
 31
0.0
  0
LINE
  5
1B848
  8
0
 10
21.699999999999989
 20
20.0
 30
0.0
 11
18.299999999999979
 21
20.0
 31
0.0
  0
LINE
  5
1B84A
  8
0
 10
24.899999999999981
 20
27.928417083459209
 30
0.0
 11
15.099999999999991
 21
27.928417083459209
 31
0.0
  0
LINE
  5
1B84B
  8
0
 10
24.899999999999981
 20
27.428417083459241
 30
0.0
 11
15.099999999999991
 21
27.428417083459241
 31
0.0
  0
LINE
  5
1B84C
  8
0
 10
20.68660254037832
 20
29.828417083459211
 30
0.0
 11
19.313397459621509
 21
29.828417083459211
 31
0.0
  0
LINE
  5
1B84D
  8
0
 10
20.68660254037832
 20
30.764208541729349
 30
0.0
 11
20.68660254037832
 21
28.66420854172933
 31
0.0
  0
LINE
  5
1B84F
  8
0
 10
24.986602540378328
 20
28.66420854172933
 30
0.0
 11
20.68660254037832
 21
28.66420854172933
 31
0.0
  0
LINE
  5
1B850
  8
0
 10
20.68660254037832
 20
33.86420854172934
 30
0.0
 11
20.68660254037832
 21
31.764208541729349
 31
0.0
  0
LINE
  5
1B851
  8
0
 10
24.986602540378328
 20
33.864208541729369
 30
0.0
 11
20.68660254037832
 21
33.86420854172934
 31
0.0
  0
LINE
  5
1B853
  8
0
 10
24.986602540378328
 20
30.76420854172963
 30
0.0
 11
15.013397459621549
 21
30.76420854172963
 31
0.0
  0
LINE
  5
1B854
  8
0
 10
19.313397459621509
 20
30.76420854172963
 30
0.0
 11
19.313397459621509
 21
28.664208541729639
 31
0.0
  0
LINE
  5
1B855
  8
0
 10
19.313397459621509
 20
28.664208541729639
 30
0.0
 11
15.01339745962153
 21
28.664208541729639
 31
0.0
  0
LINE
  5
1B856
  8
0
 10
19.313397459621509
 20
33.864208541729631
 30
0.0
 11
15.013397459621549
 21
33.864208541729653
 31
0.0
  0
LINE
  5
1B857
  8
0
 10
19.313397459621509
 20
33.864208541729631
 30
0.0
 11
19.313397459621509
 21
31.76420854172963
 31
0.0
  0
LINE
  5
1B858
  8
0
 10
24.986602540378328
 20
31.76420854172963
 30
0.0
 11
15.013397459621549
 21
31.76420854172963
 31
0.0
  0
LINE
  5
1B85B
  8
0
 10
16.0447826142487
 20
63.539867951642321
 30
0.0
 11
15.4014813440595
 21
62.425637467101012
 31
0.0
  0
LINE
  5
1B85E
  8
0
 10
24.598518655940499
 20
62.425637467101012
 30
0.0
 11
23.955217385751268
 21
63.539867951642321
 31
0.0
  0
LINE
  5
1B861
  8
0
 10
19.35669872981077
 20
55.57500000000001
 30
0.0
 11
20.64330127018923
 21
55.57500000000001
 31
0.0
  0
CIRCLE
  5
1B868
  8
0
 10
20.0
 20
60.513501806247767
 30
0.0
 40
4.9000000000000048
  0
LINE
  5
1B869
  8
0
 10
18.2679491924311
 20
60.513501806247767
 30
0.0
 11
19.133974596215548
 21
59.013501806247781
 31
0.0
  0
LINE
  5
1B86A
  8
0
 10
19.133974596215548
 20
59.013501806247781
 30
0.0
 11
20.86602540378442
 21
59.013501806247781
 31
0.0
  0
LINE
  5
1B86B
  8
0
 10
20.86602540378442
 20
59.013501806247781
 30
0.0
 11
21.7320508075689
 21
60.513501806247767
 31
0.0
  0
LINE
  5
1B86C
  8
0
 10
21.7320508075689
 20
60.513501806247767
 30
0.0
 11
20.86602540378442
 21
62.013501806247767
 31
0.0
  0
LINE
  5
1B86D
  8
0
 10
20.86602540378442
 20
62.013501806247767
 30
0.0
 11
19.133974596215548
 21
62.013501806247767
 31
0.0
  0
LINE
  5
1B86E
  8
0
 10
19.133974596215548
 20
62.013501806247767
 30
0.0
 11
18.2679491924311
 21
60.513501806247767
 31
0.0
  0
LINE
  5
1B86F
  8
0
 10
20.68660254037832
 20
55.600375239932667
 30
0.0
 11
20.68660254037832
 21
55.661844671665193
 31
0.0
  0
ARC
  5
1B870
  8
0
 10
20.086602540378351
 20
60.46350180624782
 30
0.0
 40
4.9000000000000092
 50
277.03346131538058
 51
22.966538684619469
  0
LINE
  5
1B871
  8
0
 10
24.54495959918972
 20
62.34471513126848
 30
0.0
 11
24.598193688626228
 21
62.375449847134718
 31
0.0
  0
LINE
  5
1B872
  8
0
 10
23.911591148247851
 20
63.56468033167598
 30
0.0
 11
23.85835705881129
 21
63.533945615809692
 31
0.0
  0
ARC
  5
1B873
  8
0
 10
20.0
 20
60.613501806247768
 30
0.0
 40
4.900000000000003
 50
37.03346131538003
 51
142.96653868461991
  0
LINE
  5
1B874
  8
0
 10
16.141642941188682
 20
63.533945615809692
 30
0.0
 11
16.088408851752089
 21
63.56468033167598
 31
0.0
  0
LINE
  5
1B875
  8
0
 10
15.40180631137369
 20
62.375449847134739
 30
0.0
 11
15.455040400810271
 21
62.34471513126848
 31
0.0
  0
ARC
  5
1B876
  8
0
 10
19.913397459621532
 20
60.46350180624782
 30
0.0
 40
4.900000000000003
 50
157.03346131537839
 51
262.96653868462272
  0
LINE
  5
1B877
  8
0
 10
19.313397459621509
 20
55.66184467166525
 30
0.0
 11
19.313397459621509
 21
55.600375239932667
 31
0.0
  0
LINE
  5
1B87C
  8
0
 10
46.570658321045642
 20
34.600000000000051
 30
0.0
 11
47.306449779316317
 21
33.864208541729312
 31
0.0
  0
LINE
  5
1B87D
  8
0
 10
55.634866862775198
 20
33.864208541729631
 30
0.0
 11
56.370658321045653
 21
34.600000000000051
 31
0.0
  0
LINE
  5
1B87E
  8
0
 10
46.570658321045642
 20
35.000000000000028
 30
0.0
 11
46.570658321045642
 21
34.600000000000051
 31
0.0
  0
LINE
  5
1B87F
  8
0
 10
56.370658321045653
 20
34.600000000000051
 30
0.0
 11
56.370658321045653
 21
35.000000000000028
 31
0.0
  0
LINE
  5
1B880
  8
0
 10
48.970658321045619
 20
27.428417083459209
 30
0.0
 11
48.970658321045619
 21
20.799999999999979
 31
0.0
  0
LINE
  5
1B881
  8
0
 10
53.970658321045669
 20
20.799999999999979
 30
0.0
 11
53.970658321045669
 21
27.428417083459209
 31
0.0
  0
LINE
  5
1B882
  8
0
 10
48.970658321045619
 20
20.799999999999979
 30
0.0
 11
49.77065832104563
 21
19.999999999999972
 31
0.0
  0
LINE
  5
1B883
  8
0
 10
53.1706583210456
 20
19.999999999999972
 30
0.0
 11
53.970658321045669
 21
20.799999999999979
 31
0.0
  0
LINE
  5
1B884
  8
0
 10
56.370658321045653
 20
27.928417083459209
 30
0.0
 11
55.634866862775247
 21
28.664208541729639
 31
0.0
  0
LINE
  5
1B885
  8
0
 10
47.306449779315699
 20
28.66420854172933
 30
0.0
 11
46.570658321045642
 21
27.928417083459209
 31
0.0
  0
LINE
  5
1B886
  8
0
 10
56.370658321045653
 20
27.428417083459241
 30
0.0
 11
56.370658321045653
 21
27.928417083459209
 31
0.0
  0
LINE
  5
1B887
  8
0
 10
46.570658321045642
 20
27.928417083459209
 30
0.0
 11
46.570658321045642
 21
27.428417083459241
 31
0.0
  0
LINE
  5
1B888
  8
0
 10
56.470658321045619
 20
31.76420854172963
 30
0.0
 11
56.470658321045619
 21
33.864208541729653
 31
0.0
  0
LINE
  5
1B889
  8
0
 10
56.470658321045669
 20
28.664208541729639
 30
0.0
 11
56.470658321045619
 21
30.76420854172963
 31
0.0
  0
ARC
  5
1B88B
  8
0
 10
47.032156514797919
 20
31.264208541729289
 30
0.0
 40
0.5
 50
90.0
 51
269.99999999999682
  0
ARC
  5
1B88D
  8
0
 10
55.970658321045683
 20
31.264208541729289
 30
0.0
 40
0.5000000000000034
 50
271.82672763626891
 51
90.029286670312999
  0
LINE
  5
1B88E
  8
0
 10
46.570658321045642
 20
34.600000000000051
 30
0.0
 11
56.370658321045653
 21
34.600000000000051
 31
0.0
  0
LINE
  5
1B88F
  8
0
 10
53.332606361932562
 20
32.200000000000017
 30
0.0
 11
53.380864513230328
 21
32.200000000000017
 31
0.0
  0
LINE
  5
1B890
  8
0
 10
46.570658321045642
 20
35.000000000000028
 30
0.0
 11
56.370658321045653
 21
35.000000000000028
 31
0.0
  0
LINE
  5
1B891
  8
0
 10
48.970658321045619
 20
20.799999999999979
 30
0.0
 11
53.970658321045669
 21
20.799999999999979
 31
0.0
  0
LINE
  5
1B892
  8
0
 10
53.1706583210456
 20
19.999999999999972
 30
0.0
 11
49.77065832104563
 21
19.999999999999972
 31
0.0
  0
LINE
  5
1B893
  8
0
 10
56.370658321045653
 20
27.928417083459209
 30
0.0
 11
46.570658321045642
 21
27.928417083459209
 31
0.0
  0
LINE
  5
1B894
  8
0
 10
53.531408310616882
 20
29.828417083459211
 30
0.0
 11
53.332606361932562
 21
29.828417083459211
 31
0.0
  0
LINE
  5
1B895
  8
0
 10
56.370658321045653
 20
27.428417083459241
 30
0.0
 11
46.570658321045642
 21
27.428417083459241
 31
0.0
  0
LINE
  5
1B896
  8
0
 10
46.557531754730583
 20
30.764208541729349
 30
0.0
 11
46.557531754730583
 21
28.66420854172933
 31
0.0
  0
LINE
  5
1B897
  8
0
 10
56.470658321045619
 20
30.764208541729349
 30
0.0
 11
46.557531754730583
 21
30.764208541729349
 31
0.0
  0
LINE
  5
1B898
  8
0
 10
53.332606361932562
 20
30.764208541729349
 30
0.0
 11
53.332606361932562
 21
28.66420854172933
 31
0.0
  0
LINE
  5
1B899
  8
0
 10
53.332606361932562
 20
28.66420854172933
 30
0.0
 11
46.557531754730583
 21
28.66420854172933
 31
0.0
  0
LINE
  5
1B89A
  8
0
 10
46.557531754730583
 20
33.86420854172934
 30
0.0
 11
46.557531754730583
 21
31.764208541729349
 31
0.0
  0
LINE
  5
1B89B
  8
0
 10
53.332606361932562
 20
33.86420854172934
 30
0.0
 11
46.557531754730583
 21
33.86420854172934
 31
0.0
  0
LINE
  5
1B89C
  8
0
 10
53.332606361932562
 20
33.86420854172934
 30
0.0
 11
53.332606361932562
 21
31.764208541729349
 31
0.0
  0
LINE
  5
1B89D
  8
0
 10
56.470658321045619
 20
31.764208541729321
 30
0.0
 11
46.557531754730583
 21
31.764208541729349
 31
0.0
  0
LINE
  5
1B89E
  8
0
 10
54.521836846473889
 20
33.864208541729631
 30
0.0
 11
54.521836846473889
 21
31.76420854172963
 31
0.0
  0
LINE
  5
1B8A1
  8
0
 10
53.380864513230328
 20
32.414208541729607
 30
0.0
 11
54.118203542383583
 21
33.864208541729631
 31
0.0
  0
LINE
  5
1B8A4
  8
0
 10
54.521836846473889
 20
30.76420854172963
 30
0.0
 11
54.521836846473889
 21
28.664208541729639
 31
0.0
  0
LINE
  5
1B8A5
  8
0
 10
56.470658321045669
 20
28.664208541729611
 30
0.0
 11
54.11820354238364
 21
28.664208541729639
 31
0.0
  0
LINE
  5
1B8A6
  8
0
 10
54.11820354238364
 20
28.664208541729639
 30
0.0
 11
53.380864513230328
 21
30.114208541729649
 31
0.0
  0
LINE
  5
1B8A7
  8
0
 10
53.380864513230328
 20
32.414208541729607
 30
0.0
 11
53.380864513230328
 21
31.764208541729289
 31
0.0
  0
LINE
  5
1B8A8
  8
0
 10
53.380864513230328
 20
30.764208541729289
 30
0.0
 11
53.380864513230328
 21
30.114208541729649
 31
0.0
  0
LINE
  5
1B8A9
  8
0
 10
56.470658321045619
 20
33.864208541729631
 30
0.0
 11
54.118203542383583
 21
33.864208541729631
 31
0.0
  0
ARC
  5
1B8AE
  8
5
 10
25.4881629014202
 20
30.43389388028351
 30
0.0
 40
0.5000690618277554
 50
269.15026102590969
 51
91.044734186302733
  0
ARC
  5
1B8B3
  8
5
 10
14.51172704625685
 20
30.4338942590567
 30
0.0
 40
0.5000703006081534
 50
88.945151442576574
 51
270.8563564173275
  0
LINE
  5
1B8BC
  8
5
 10
25.98253175473053
 20
27.83387981277647
 30
0.0
 11
25.98253175473053
 21
29.933879812776471
 31
0.0
  0
LINE
  5
1B8BD
  8
5
 10
25.98253175473053
 20
30.933879812776471
 30
0.0
 11
25.98253175473053
 21
33.033879812776462
 31
0.0
  0
LINE
  5
1B8C0
  8
5
 10
14.01746824526947
 20
29.933879812776439
 30
0.0
 11
14.01746824526947
 21
27.83387981277647
 31
0.0
  0
LINE
  5
1B8C1
  8
5
 10
14.01746824526947
 20
33.033879812776462
 30
0.0
 11
14.01746824526947
 21
30.933879812776439
 31
0.0
  0
LINE
  5
1B8D0
  8
5
 10
25.98253175473053
 20
29.933879812776471
 30
0.0
 11
24.986602540378328
 21
29.933879812776471
 31
0.0
  0
LINE
  5
1B8D1
  8
5
 10
25.98253175473053
 20
27.83387981277647
 30
0.0
 11
24.899999999999981
 21
27.83387981277647
 31
0.0
  0
LINE
  5
1B8D3
  8
5
 10
25.98253175473053
 20
33.033879812776462
 30
0.0
 11
24.986602540378328
 21
33.03387981277649
 31
0.0
  0
LINE
  5
1B8D4
  8
5
 10
25.98253175473053
 20
30.933879812776471
 30
0.0
 11
24.867657052649239
 21
30.933879812776471
 31
0.0
  0
LINE
  5
1B8D5
  8
5
 10
15.01339745962153
 20
29.933879812776439
 30
0.0
 11
14.01746824526947
 21
29.933879812776439
 31
0.0
  0
LINE
  5
1B8D7
  8
5
 10
15.099999999999991
 20
27.83387981277647
 30
0.0
 11
14.01746824526947
 21
27.83387981277647
 31
0.0
  0
LINE
  5
1B8D8
  8
5
 10
15.013397459621549
 20
33.033879812776462
 30
0.0
 11
14.01746824526947
 21
33.033879812776462
 31
0.0
  0
LINE
  5
1B8DA
  8
5
 10
15.13223157824609
 20
30.933879812776439
 30
0.0
 11
14.01746824526947
 21
30.933879812776439
 31
0.0
  0
ARC
  5
1B8DB
  8
5
 10
19.988775120419859
 20
61.726280941051328
 30
0.0
 40
4.933348240098006
 50
104.0316459526212
 51
143.078140209362
  0
LINE
  5
1B8DC
  8
5
 10
16.044782614248732
 20
64.689867951642356
 30
0.0
 11
14.40555212970742
 21
61.850637467100988
 31
0.0
  0
ARC
  5
1B8DD
  8
5
 10
20.042537691704641
 20
61.754711268932937
 30
0.0
 40
4.891237792242225
 50
36.875959970180233
 51
66.935258988410553
  0
ARC
  5
1B8DE
  8
5
 10
18.906126878051278
 20
59.928893781473022
 30
0.0
 40
4.8936971564126948
 50
156.87753647968759
 51
187.28617250657521
  0
ARC
  5
1B8DF
  8
5
 10
18.94754231963509
 20
59.866202973827249
 30
0.0
 40
4.9014522038071489
 50
231.00276483971459
 51
263.1243988191942
  0
LINE
  5
1B8E0
  8
5
 10
25.59444787029264
 20
61.850637467100988
 30
0.0
 11
23.955217385751329
 21
64.689867951642356
 31
0.0
  0
ARC
  5
1B8E1
  8
5
 10
21.053221961685718
 20
59.858483906510543
 30
0.0
 40
4.8936971564126193
 50
276.87753647968799
 51
307.28617250661898
  0
ARC
  5
1B8E2
  8
5
 10
21.086806072898749
 20
59.925696134854
 30
0.0
 40
4.9014522038070583
 50
351.00276483973482
 51
23.124398819192312
  0
LINE
  5
1B8E3
  8
5
 10
18.360769515458738
 20
55.000000000000028
 30
0.0
 11
21.639230484541368
 21
55.000000000000028
 31
0.0
  0
LINE
  5
1B8F1
  8
5
 10
21.682531754730519
 20
55.025375239932629
 30
0.0
 11
21.682531754730519
 21
55.826101299691629
 31
0.0
  0
ARC
  5
1B8F2
  8
5
 10
21.08253175473056
 20
59.888501806247767
 30
0.0
 40
4.1000000000000059
 50
278.85343787461431
 51
21.146562125387799
  0
ARC
  5
1B8F3
  8
5
 10
21.08253175473056
 20
59.888501806247767
 30
0.0
 40
4.9000000000000092
 50
277.03346131538058
 51
22.9665386846216
  0
LINE
  5
1B8F4
  8
5
 10
24.900673793754951
 20
61.400086817255179
 30
0.0
 11
25.59412290297843
 21
61.800449847134672
 31
0.0
  0
LINE
  5
1B8F7
  8
5
 10
23.911591148247911
 20
64.714680331676021
 30
0.0
 11
23.218142039024372
 21
64.314317301796507
 31
0.0
  0
ARC
  5
1B8F8
  8
5
 10
20.0
 20
61.763501806247739
 30
0.0
 40
4.1000000000000174
 50
38.853437874614158
 51
141.1465621253858
  0
ARC
  5
1B8F9
  8
5
 10
20.0
 20
61.763501806247739
 30
0.0
 40
4.9000000000000226
 50
37.03346131538003
 51
142.96653868461991
  0
LINE
  5
1B8FA
  8
5
 10
16.7818579609756
 20
64.314317301796507
 30
0.0
 11
16.088408851752089
 21
64.714680331676021
 31
0.0
  0
LINE
  5
1B8FD
  8
5
 10
14.40587709702163
 20
61.800449847134729
 30
0.0
 11
15.099326206245079
 21
61.4000868172553
 31
0.0
  0
ARC
  5
1B8FE
  8
5
 10
18.9174682452695
 20
59.888501806247803
 30
0.0
 40
4.1000000000000236
 50
158.8534378746152
 51
261.14656212538569
  0
ARC
  5
1B8FF
  8
5
 10
18.9174682452695
 20
59.888501806247803
 30
0.0
 40
4.9000000000000243
 50
157.03346131537839
 51
262.96653868461942
  0
LINE
  5
1B900
  8
5
 10
18.317468245269421
 20
55.826101299691651
 30
0.0
 11
18.317468245269421
 21
55.02537523993265
 31
0.0
  0
LINE
  5
1B912
  8
5
 10
57.620658321045653
 20
30.933879812776471
 30
0.0
 11
57.620658321045653
 21
33.033879812776462
 31
0.0
  0
LINE
  5
1B913
  8
5
 10
57.620658321045653
 20
27.83387981277647
 30
0.0
 11
57.620658321045653
 21
29.933879812776471
 31
0.0
  0
ARC
  5
1B915
  8
5
 10
46.457156514797923
 20
30.433879812776439
 30
0.0
 40
0.5000000000000142
 50
90.000000000003254
 51
269.99999999999682
  0
ARC
  5
1B917
  8
5
 10
57.120658321045653
 20
30.433879812776439
 30
0.0
 40
0.5000000000000034
 50
271.82672763626891
 51
90.029286670316253
  0
LINE
  5
1B91F
  8
5
 10
45.98253175473053
 20
29.933879812776439
 30
0.0
 11
45.98253175473053
 21
27.83387981277642
 31
0.0
  0
LINE
  5
1B920
  8
5
 10
46.557531754730512
 20
29.933879812776439
 30
0.0
 11
45.98253175473053
 21
29.933879812776439
 31
0.0
  0
LINE
  5
1B922
  8
5
 10
46.570658321045698
 20
27.83387981277642
 30
0.0
 11
45.98253175473053
 21
27.83387981277642
 31
0.0
  0
LINE
  5
1B923
  8
5
 10
45.98253175473053
 20
33.033879812776462
 30
0.0
 11
45.98253175473053
 21
30.933879812776439
 31
0.0
  0
LINE
  5
1B924
  8
5
 10
46.557531754730512
 20
33.033879812776433
 30
0.0
 11
45.98253175473053
 21
33.033879812776462
 31
0.0
  0
LINE
  5
1B926
  8
5
 10
46.656812764579001
 20
30.933879812776439
 30
0.0
 11
45.98253175473053
 21
30.933879812776439
 31
0.0
  0
LINE
  5
1B928
  8
5
 10
57.620658321045653
 20
33.033879812776462
 30
0.0
 11
56.470658321045562
 21
33.033879812776462
 31
0.0
  0
LINE
  5
1B929
  8
5
 10
57.620658321045653
 20
30.933879812776439
 30
0.0
 11
56.346002071264593
 21
30.933879812776439
 31
0.0
  0
LINE
  5
1B933
  8
5
 10
57.620658321045653
 20
27.833879812776448
 30
0.0
 11
56.370658321045653
 21
27.833879812776448
 31
0.0
  0
LINE
  5
1B934
  8
5
 10
57.620658321045653
 20
29.933879812776439
 30
0.0
 11
56.470658321045619
 21
29.933879812776411
 31
0.0
  0
LINE
  5
1B93F
  8
3
 10
22.067000000000181
 20
20.367000000000161
 30
0.0
 11
22.067000000000181
 21
27.428417083459241
 31
0.0
  0
LINE
  5
1B940
  8
3
 10
17.932999999999819
 20
20.367000000000221
 30
0.0
 11
17.93299999999979
 21
27.428417083459241
 31
0.0
  0
LINE
  5
1B942
  8
3
 10
53.537658321045797
 20
20.367000000000161
 30
0.0
 11
53.537658321045797
 21
27.428417083459209
 31
0.0
  0
LINE
  5
1B943
  8
3
 10
49.403658321045441
 20
20.367000000000189
 30
0.0
 11
49.403658321045441
 21
27.428417083459209
 31
0.0
  0
LINE
  5
1B947
  8
1
 10
20.0
 20
68.663501806247766
 30
0.0
 11
20.0
 21
52.363501806247768
 31
0.0
  0
LINE
  5
1B948
  8
1
 10
28.149999999999981
 20
60.513501806247767
 30
0.0
 11
11.849999999999991
 21
60.513501806247767
 31
0.0
  0
LINE
  5
1B94D
  8
1
 10
20.0
 20
37.000000000000028
 30
0.0
 11
20.0
 21
16.328417083459229
 31
0.0
  0
LINE
  5
1B94E
  8
1
 10
51.470658321045619
 20
37.0
 30
0.0
 11
51.470658321045612
 21
16.328417083459211
 31
0.0
  0
ARC
  5
1B954
  8
0
 10
20.0
 20
60.513501806247767
 30
0.0
 40
4.9802245546299773
 50
157.42169815378361
 51
173.68988146586429
  0
ARC
  5
1B955
  8
0
 10
20.0
 20
60.513501806247767
 30
0.0
 40
4.9802245546299773
 50
277.42169815378651
 51
293.6898814659599
  0
ARC
  5
1B956
  8
0
 10
20.0
 20
60.513501806247767
 30
0.0
 40
4.9802245546299773
 50
37.421698153787567
 51
53.689881465895013
  0
ARC
  5
1B957
  8
0
 10
20.0
 20
60.513501806247767
 30
0.0
 40
4.9802245546299773
 50
126.310118534105
 51
142.57830184621699
  0
ARC
  5
1B958
  8
0
 10
20.0
 20
60.513501806247767
 30
0.0
 40
4.9802245546299773
 50
6.3101185340326129
 51
22.578301846214831
  0
ARC
  5
1B959
  8
0
 10
20.0
 20
60.513501806247767
 30
0.0
 40
4.9802245546299773
 50
246.3101185340773
 51
262.57830184621361
  0
TEXT
  5
1DA7A
  8
0
 62
     3
 10
0.0
 20
0.0
 30
0.0
 40
5.0
  1
CP131-05001A
  7
STANDARD1
  0
LINE
  5
1DACD
  8
5
 10
17.5
 20
20.800000000000011
 30
0.0
 11
17.5
 21
19.128417083459251
 31
0.0
  0
LINE
  5
1DACE
  8
5
 10
22.5
 20
19.128417083459251
 30
0.0
 11
22.5
 21
20.800000000000011
 31
0.0
  0
LINE
  5
1DACF
  8
5
 10
17.5
 20
19.128417083459251
 30
0.0
 11
18.299999999999979
 21
18.328417083459229
 31
0.0
  0
LINE
  5
1DAD0
  8
5
 10
21.699999999999989
 20
18.328417083459229
 30
0.0
 11
22.5
 21
19.128417083459251
 31
0.0
  0
LINE
  5
1DAD1
  8
5
 10
17.5
 20
19.128417083459251
 30
0.0
 11
22.5
 21
19.128417083459251
 31
0.0
  0
LINE
  5
1DAD2
  8
5
 10
21.699999999999989
 20
18.328417083459229
 30
0.0
 11
18.299999999999979
 21
18.328417083459229
 31
0.0
  0
LINE
  5
1DAD3
  8
5
 10
22.067000000000181
 20
18.6954170834594
 30
0.0
 11
22.067000000000181
 21
20.367000000000189
 31
0.0
  0
LINE
  5
1DAD4
  8
5
 10
17.932999999999819
 20
18.69541708345945
 30
0.0
 11
17.932999999999812
 21
20.367000000000179
 31
0.0
  0
LINE
  5
1DADC
  8
5
 10
48.970658321045633
 20
20.79999999999999
 30
0.0
 11
48.970658321045633
 21
19.128417083459219
 31
0.0
  0
LINE
  5
1DADD
  8
5
 10
53.970658321045633
 20
19.128417083459219
 30
0.0
 11
53.970658321045633
 21
20.799999999999979
 31
0.0
  0
LINE
  5
1DADE
  8
5
 10
48.970658321045633
 20
19.128417083459219
 30
0.0
 11
49.770658321045609
 21
18.3284170834592
 31
0.0
  0
LINE
  5
1DADF
  8
5
 10
53.170658321045622
 20
18.3284170834592
 30
0.0
 11
53.970658321045633
 21
19.128417083459219
 31
0.0
  0
LINE
  5
1DAE0
  8
5
 10
48.970658321045633
 20
19.128417083459219
 30
0.0
 11
53.970658321045633
 21
19.128417083459219
 31
0.0
  0
LINE
  5
1DAE1
  8
5
 10
53.170658321045622
 20
18.3284170834592
 30
0.0
 11
49.770658321045609
 21
18.3284170834592
 31
0.0
  0
LINE
  5
1DAE2
  8
5
 10
53.537658321045811
 20
18.695417083459368
 30
0.0
 11
53.537658321045811
 21
20.367000000000161
 31
0.0
  0
LINE
  5
1DAE3
  8
5
 10
49.403658321045462
 20
18.695417083459422
 30
0.0
 11
49.403658321045441
 21
20.36700000000015
 31
0.0
  0
ENDSEC
  0
EOF
