  0
SECTION
  2
HEADER
  9
$ACADVER
  1
AC1009
  9
$INSBASE
 10
0.0
 20
0.0
 30
0.0
  9
$EXTMIN
 10
0.0
 20
-1.4802182810368341
 30
0.0
  9
$EXTMAX
 10
54.611101528330089
 20
63.628569773599622
 30
0.0
  9
$LIMMIN
 10
0.0
 20
0.0
  9
$LIMMAX
 10
375.0
 20
270.0
  9
$ORTHOMODE
 70
     0
  9
$REGENMODE
 70
     1
  9
$FILLMODE
 70
     1
  9
$QTEXTMODE
 70
     0
  9
$MIRRTEXT
 70
     0
  9
$DRAGMODE
 70
     2
  9
$LTSCALE
 40
1.0
  9
$OSMODE
 70
    37
  9
$ATTMODE
 70
     1
  9
$TEXTSIZE
 40
6.0
  9
$TRACEWID
 40
0.05
  9
$TEXTSTYLE
  7
STANDARD
  9
$CLAYER
  8
0
  9
$CELTYPE
  6
BYLAYER
  9
$CECOLOR
 62
   256
  9
$DIMSCALE
 40
1.0
  9
$DIMASZ
 40
3.0
  9
$DIMEXO
 40
2.0
  9
$DIMDLI
 40
0.3799999999999999
  9
$DIMRND
 40
0.0
  9
$DIMDLE
 40
0.0
  9
$DIMEXE
 40
2.0
  9
$DIMTP
 40
0.0
  9
$DIMTM
 40
0.0
  9
$DIMTXT
 40
3.2000000000000002
  9
$DIMCEN
 40
0.09
  9
$DIMTSZ
 40
0.0
  9
$DIMTOL
 70
     0
  9
$DIMLIM
 70
     0
  9
$DIMTIH
 70
     0
  9
$DIMTOH
 70
     0
  9
$DIMSE1
 70
     0
  9
$DIMSE2
 70
     0
  9
$DIMTAD
 70
     1
  9
$DIMZIN
 70
     9
  9
$DIMBLK
  1

  9
$DIMASO
 70
     0
  9
$DIMSHO
 70
     0
  9
$DIMPOST
  1

  9
$DIMAPOST
  1

  9
$DIMALT
 70
     0
  9
$DIMALTD
 70
     2
  9
$DIMALTF
 40
25.399999999999999
  9
$DIMLFAC
 40
1.0
  9
$DIMTOFL
 70
     0
  9
$DIMTVP
 40
0.0
  9
$DIMTIX
 70
     0
  9
$DIMSOXD
 70
     0
  9
$DIMSAH
 70
     0
  9
$DIMBLK1
  1

  9
$DIMBLK2
  1

  9
$DIMSTYLE
  2
STANDARD
  9
$DIMCLRD
 70
     0
  9
$DIMCLRE
 70
     0
  9
$DIMCLRT
 70
     0
  9
$DIMTFAC
 40
1.0
  9
$DIMGAP
 40
0.09
  9
$LUNITS
 70
     2
  9
$LUPREC
 70
     1
  9
$SKETCHINC
 40
0.1
  9
$FILLETRAD
 40
20.0
  9
$AUNITS
 70
     0
  9
$AUPREC
 70
     1
  9
$MENU
  1
E:\r13\win\SUPPORT\ACAD
  9
$ELEVATION
 40
0.0
  9
$PELEVATION
 40
0.0
  9
$THICKNESS
 40
0.0
  9
$LIMCHECK
 70
     0
  9
$BLIPMODE
 70
     0
  9
$CHAMFERA
 40
0.0
  9
$CHAMFERB
 40
0.0
  9
$SKPOLY
 70
     0
  9
$TDCREATE
 40
2449840.6320370371
  9
$TDUPDATE
 40
2456927.694703056
  9
$TDINDWG
 40
1.9037528125000001
  9
$TDUSRTIMER
 40
1.9037528125000001
  9
$USRTIMER
 70
     1
  9
$ANGBASE
 50
0.0
  9
$ANGDIR
 70
     0
  9
$PDMODE
 70
     0
  9
$PDSIZE
 40
0.0
  9
$PLINEWID
 40
0.0
  9
$COORDS
 70
     1
  9
$SPLFRAME
 70
     0
  9
$SPLINETYPE
 70
     6
  9
$SPLINESEGS
 70
     8
  9
$ATTDIA
 70
     0
  9
$ATTREQ
 70
     1
  9
$HANDLING
 70
     1
  9
$HANDSEED
  5
1DBC5
  9
$SURFTAB1
 70
     6
  9
$SURFTAB2
 70
     6
  9
$SURFTYPE
 70
     6
  9
$SURFU
 70
     6
  9
$SURFV
 70
     6
  9
$UCSNAME
  2

  9
$UCSORG
 10
0.0
 20
0.0
 30
0.0
  9
$UCSXDIR
 10
1.0
 20
0.0
 30
0.0
  9
$UCSYDIR
 10
0.0
 20
1.0
 30
0.0
  9
$PUCSNAME
  2

  9
$PUCSORG
 10
0.0
 20
0.0
 30
0.0
  9
$PUCSXDIR
 10
1.0
 20
0.0
 30
0.0
  9
$PUCSYDIR
 10
0.0
 20
1.0
 30
0.0
  9
$USERI1
 70
     0
  9
$USERI2
 70
     1
  9
$USERI3
 70
     0
  9
$USERI4
 70
     0
  9
$USERI5
 70
     0
  9
$USERR1
 40
0.0
  9
$USERR2
 40
0.0
  9
$USERR3
 40
0.0
  9
$USERR4
 40
0.0
  9
$USERR5
 40
0.0
  9
$WORLDVIEW
 70
     1
  9
$SHADEDGE
 70
     3
  9
$SHADEDIF
 70
    70
  9
$TILEMODE
 70
     1
  9
$MAXACTVP
 70
    16
  9
$PLIMCHECK
 70
     0
  9
$PEXTMIN
 10
1.0000000000000000E+020
 20
1.0000000000000000E+020
 30
1.0000000000000000E+020
  9
$PEXTMAX
 10
-1.0000000000000000E+020
 20
-1.0000000000000000E+020
 30
-1.0000000000000000E+020
  9
$PLIMMIN
 10
0.0
 20
0.0
  9
$PLIMMAX
 10
12.0
 20
9.0
  9
$UNITMODE
 70
     0
  9
$VISRETAIN
 70
     0
  9
$PLINEGEN
 70
     0
  9
$PSLTSCALE
 70
     0
  0
ENDSEC
  0
SECTION
  2
TABLES
  0
TABLE
  2
VPORT
 70
     1
  0
VPORT
  2
*ACTIVE
 70
     0
 10
0.0
 20
0.0
 11
1.0
 21
1.0
 12
165.8205841446453
 22
95.0
 13
0.0
 23
0.0
 14
10.0
 24
10.0
 15
10.0
 25
10.0
 16
0.0
 26
0.0
 36
1.0
 17
0.0
 27
0.0
 37
0.0
 40
190.0
 41
1.7454798331015291
 42
50.0
 43
0.0
 44
0.0
 50
0.0
 51
0.0
 71
     0
 72
   500
 73
     1
 74
     0
 75
     0
 76
     0
 77
     0
 78
     0
  0
ENDTAB
  0
TABLE
  2
LTYPE
 70
     4
  0
LTYPE
  2
CONTINUOUS
 70
     0
  3
Solid Line
 72
    65
 73
     0
 40
0.0
  0
LTYPE
  2
CENTER
 70
     0
  3
____ _ ____ _ ____ _ ____ _ ____ _ ____ _ ____
 72
    65
 73
     4
 40
2.0
 49
1.25
 49
-0.25
 49
0.25
 49
-0.25
  0
LTYPE
  2
PHANTOM
 70
     0
  3
_____ _ _ _____ _ _ _____ _ _ _____ _ _ ____
 72
    65
 73
     6
 40
2.5
 49
1.25
 49
-0.25
 49
0.25
 49
-0.25
 49
0.25
 49
-0.25
  0
LTYPE
  2
PHANTOM2
 70
     0
  3
___ _ _ ___ _ _ ___ _ _ ___ _ _
 72
    65
 73
     6
 40
1.25
 49
0.625
 49
-0.125
 49
0.125
 49
-0.125
 49
0.125
 49
-0.125
  0
ENDTAB
  0
TABLE
  2
LAYER
 70
     5
  0
LAYER
  2
0
 70
     0
 62
     7
  6
CONTINUOUS
  0
LAYER
  2
1
 70
     0
 62
     1
  6
CENTER
  0
LAYER
  2
DEFPOINTS
 70
     0
 62
     7
  6
CONTINUOUS
  0
LAYER
  2
5
 70
     0
 62
     3
  6
PHANTOM
  0
LAYER
  2
3
 70
     0
 62
     3
  6
CONTINUOUS
  0
ENDTAB
  0
TABLE
  2
STYLE
 70
     2
  0
STYLE
  2
STANDARD
 70
     0
 40
0.0
 41
1.0
 50
0.0
 71
     0
 42
6.0
  3
TXT
  4
BIGFONT
  0
STYLE
  2
STANDARD1
 70
     0
 40
0.0
 41
1.0
 50
0.0
 71
     0
 42
3.0
  3
txt
  4

  0
ENDTAB
  0
TABLE
  2
VIEW
 70
     1
  0
VIEW
  2
ALL
 70
     0
 40
270.0
 10
213.25689075630251
 20
135.0
 41
0.0
 11
0.0
 21
0.0
 31
1.0
 12
0.0
 22
0.0
 32
0.0
 42
0.0
 43
0.0
 44
0.0
 50
0.0
 71
     0
  0
ENDTAB
  0
TABLE
  2
UCS
 70
     0
  0
ENDTAB
  0
TABLE
  2
APPID
 70
    13
  0
APPID
  2
ACAD
 70
     0
  0
APPID
  2
ACAD_EXEMPT_FROM_CAD_STANDARDS
 70
     0
  0
APPID
  2
ACAD_MLEADERVER
 70
     0
  0
APPID
  2
ACAD_DSTYLE_DIMJAG
 70
     0
  0
APPID
  2
ACAD_DSTYLE_DIMTALN
 70
     0
  0
APPID
  2
ACAD_PSEXT
 70
     0
  0
APPID
  2
ACAD_DSTYLE_DIMBREAK
 70
     0
  0
APPID
  2
ACAECLAYERSTANDARD
 70
     0
  0
APPID
  2
ACCMTRANSPARENCY
 70
     0
  0
APPID
  2
GRADIENTCOLOR1ACI
 70
     0
  0
APPID
  2
GRADIENTCOLOR2ACI
 70
     0
  0
APPID
  2
ACAD_DSTYLE_DIMRADIAL_EXTENSION
 70
     0
  0
APPID
  2
ACAD_NAV_VCDISPLAY
 70
     0
  0
ENDTAB
  0
TABLE
  2
DIMSTYLE
 70
     1
  0
DIMSTYLE
  2
STANDARD
 70
     0
  3

  4

  5

  6

  7

 40
1.0
 41
0.18
 42
0.0625
 43
0.38
 44
0.18
 45
0.0
 46
0.0
 47
0.0
 48
0.0
140
0.18
141
0.09
142
0.0
143
25.399999999999999
144
1.0
145
0.0
146
1.0
147
0.09
 71
     0
 72
     0
 73
     1
 74
     1
 75
     0
 76
     0
 77
     0
 78
     0
170
     0
171
     2
172
     0
173
     0
174
     0
175
     0
176
     0
177
     0
178
     0
  0
ENDTAB
  0
ENDSEC
  0
SECTION
  2
BLOCKS
  0
BLOCK
  8
0
  2
$MODEL_SPACE
 70
     0
 10
0.0
 20
0.0
 30
0.0
  3
$MODEL_SPACE
  1

  0
ENDBLK
  5
126
  8
0
  0
BLOCK
 67
     1
  8
0
  2
$PAPER_SPACE
 70
     0
 10
0.0
 20
0.0
 30
0.0
  3
$PAPER_SPACE
  1

  0
ENDBLK
  5
124
 67
     1
  8
0
  0
ENDSEC
  0
SECTION
  2
ENTITIES
  0
LINE
  5
1B3CF
  8
0
 10
16.099999999999991
 20
32.0
 30
0.0
 11
16.099999999999991
 21
31.600000000000019
 31
0.0
  0
LINE
  5
1B3D0
  8
0
 10
23.899999999999981
 20
31.600000000000019
 30
0.0
 11
23.899999999999981
 21
32.0
 31
0.0
  0
LINE
  5
1B3D1
  8
0
 10
16.099999999999991
 20
31.600000000000019
 30
0.0
 11
16.631884148056201
 21
31.068115851943791
 31
0.0
  0
LINE
  5
1B3D2
  8
0
 10
23.36811585194377
 20
31.068115851943791
 30
0.0
 11
23.899999999999981
 21
31.600000000000019
 31
0.0
  0
LINE
  5
1B3D3
  8
0
 10
18.0
 20
25.536231703887552
 30
0.0
 11
18.0
 21
20.699999999999989
 31
0.0
  0
LINE
  5
1B3D4
  8
0
 10
22.0
 20
20.699999999999989
 30
0.0
 11
22.0
 21
25.536231703887552
 31
0.0
  0
LINE
  5
1B3D5
  8
0
 10
18.0
 20
20.699999999999989
 30
0.0
 11
18.699999999999989
 21
20.0
 31
0.0
  0
LINE
  5
1B3D6
  8
0
 10
21.29999999999999
 20
20.0
 30
0.0
 11
22.0
 21
20.699999999999989
 31
0.0
  0
LINE
  5
1B3D7
  8
0
 10
19.352089314955261
 20
28.368115851943742
 30
0.0
 11
20.64791068504471
 21
28.368115851943742
 31
0.0
  0
LINE
  5
1B3D8
  8
0
 10
20.64791068504471
 20
29.368115851943742
 30
0.0
 11
19.352089314955261
 21
29.368115851943742
 31
0.0
  0
LINE
  5
1B3D9
  8
0
 10
20.64791068504471
 20
28.368115851943742
 30
0.0
 11
20.668775753705859
 21
28.368115851943742
 31
0.0
  0
LINE
  5
1B3DA
  8
0
 10
20.668775753705859
 20
29.368115851943742
 30
0.0
 11
20.64791068504471
 21
29.368115851943742
 31
0.0
  0
ARC
  5
1B3DB
  8
0
 10
23.485353366434371
 20
28.86813366048219
 30
0.0
 40
0.500111038492986
 50
268.8936592906918
 51
91.300621543005619
  0
LINE
  5
1B3DC
  8
0
 10
19.352089314955261
 20
29.368115851943742
 30
0.0
 11
19.331224246294049
 21
29.368115851943742
 31
0.0
  0
LINE
  5
1B3DD
  8
0
 10
19.331224246294049
 20
28.368115851943742
 30
0.0
 11
19.352089314955261
 21
28.368115851943742
 31
0.0
  0
ARC
  5
1B3DE
  8
0
 10
16.514316699007679
 20
28.868134503698538
 30
0.0
 40
0.5001174531370013
 50
88.663255696954721
 51
271.13891230463639
  0
LINE
  5
1B3DF
  8
0
 10
23.899999999999981
 20
25.536231703887552
 30
0.0
 11
23.899999999999981
 21
26.136231703887582
 31
0.0
  0
LINE
  5
1B3E0
  8
0
 10
16.099999999999991
 20
26.136231703887582
 30
0.0
 11
16.099999999999991
 21
25.536231703887552
 31
0.0
  0
LINE
  5
1B3E1
  8
0
 10
23.899999999999981
 20
26.136231703887582
 30
0.0
 11
23.36811585194377
 21
26.66811585194381
 31
0.0
  0
LINE
  5
1B3E2
  8
0
 10
16.631884148056201
 20
26.66811585194381
 30
0.0
 11
16.099999999999991
 21
26.136231703887582
 31
0.0
  0
LINE
  5
1B3E3
  8
0
 10
23.986602540378438
 20
29.368115851943799
 30
0.0
 11
23.986602540378438
 21
31.068115851943791
 31
0.0
  0
LINE
  5
1B3E4
  8
0
 10
23.986602540378438
 20
26.66811585194381
 30
0.0
 11
23.986602540378438
 21
28.368115851943799
 31
0.0
  0
LINE
  5
1B3E5
  8
0
 10
23.486602540378438
 20
28.368115851943799
 30
0.0
 11
23.442818429417969
 21
28.370036589549329
 31
0.0
  0
LINE
  5
1B3E6
  8
0
 10
23.453253423527801
 20
29.367002448682261
 30
0.0
 11
23.486602540378438
 21
29.368115851943799
 31
0.0
  0
LINE
  5
1B3E7
  8
0
 10
16.013397459621562
 20
28.368115851943799
 30
0.0
 11
16.013397459621562
 21
26.66811585194381
 31
0.0
  0
LINE
  5
1B3E8
  8
0
 10
16.013397459621562
 20
31.068115851943791
 30
0.0
 11
16.013397459621562
 21
29.368115851943799
 31
0.0
  0
LINE
  5
1B3E9
  8
0
 10
16.545625325980861
 20
28.369155568324
 30
0.0
 11
16.51339745962153
 21
28.368115851943799
 31
0.0
  0
LINE
  5
1B3EA
  8
0
 10
16.099999999999991
 20
32.0
 30
0.0
 11
23.899999999999981
 21
32.0
 31
0.0
  0
LINE
  5
1B3EB
  8
0
 10
16.099999999999991
 20
31.600000000000019
 30
0.0
 11
23.899999999999981
 21
31.600000000000019
 31
0.0
  0
LINE
  5
1B3EC
  8
0
 10
19.313397459621509
 20
29.699999999999989
 30
0.0
 11
20.686602540378399
 21
29.699999999999989
 31
0.0
  0
LINE
  5
1B3EE
  8
0
 10
18.0
 20
20.699999999999989
 30
0.0
 11
22.0
 21
20.700000000000021
 31
0.0
  0
LINE
  5
1B3EF
  8
0
 10
21.300000000000011
 20
20.0
 30
0.0
 11
18.699999999999989
 21
20.0
 31
0.0
  0
LINE
  5
1B3F3
  8
0
 10
23.899999999999981
 20
26.136231703887582
 30
0.0
 11
16.099999999999991
 21
26.136231703887582
 31
0.0
  0
LINE
  5
1B3F4
  8
0
 10
23.899999999999981
 20
25.536231703887552
 30
0.0
 11
16.099999999999991
 21
25.536231703887552
 31
0.0
  0
LINE
  5
1B3F5
  8
0
 10
20.686602540378399
 20
27.536231703887552
 30
0.0
 11
19.313397459621509
 21
27.536231703887552
 31
0.0
  0
LINE
  5
1B3F6
  8
0
 10
20.686602540378399
 20
31.068115851943791
 30
0.0
 11
20.686602540378399
 21
29.368115851943799
 31
0.0
  0
LINE
  5
1B3F7
  8
0
 10
23.986602540378438
 20
31.068115851943791
 30
0.0
 11
20.686602540378399
 21
31.068115851943791
 31
0.0
  0
LINE
  5
1B3F8
  8
0
 10
23.986602540378438
 20
29.368115851943799
 30
0.0
 11
20.686602540378399
 21
29.368115851943799
 31
0.0
  0
LINE
  5
1B3F9
  8
0
 10
20.686602540378399
 20
28.368115851943799
 30
0.0
 11
20.686602540378399
 21
26.66811585194381
 31
0.0
  0
LINE
  5
1B3FA
  8
0
 10
23.986602540378438
 20
28.368115851943799
 30
0.0
 11
20.686602540378399
 21
28.368115851943799
 31
0.0
  0
LINE
  5
1B3FB
  8
0
 10
23.986602540378438
 20
26.66811585194381
 30
0.0
 11
20.686602540378399
 21
26.66811585194381
 31
0.0
  0
LINE
  5
1B3FC
  8
0
 10
19.313397459621509
 20
28.368115851943799
 30
0.0
 11
16.013397459621562
 21
28.368115851943799
 31
0.0
  0
LINE
  5
1B3FD
  8
0
 10
19.313397459621509
 20
28.368115851943799
 30
0.0
 11
19.313397459621509
 21
26.66811585194381
 31
0.0
  0
LINE
  5
1B3FE
  8
0
 10
19.313397459621509
 20
26.66811585194381
 30
0.0
 11
16.013397459621562
 21
26.66811585194381
 31
0.0
  0
LINE
  5
1B3FF
  8
0
 10
19.313397459621509
 20
31.068115851943791
 30
0.0
 11
19.313397459621509
 21
29.368115851943799
 31
0.0
  0
LINE
  5
1B400
  8
0
 10
19.313397459621509
 20
29.368115851943799
 30
0.0
 11
16.013397459621562
 21
29.368115851943799
 31
0.0
  0
LINE
  5
1B401
  8
0
 10
19.313397459621509
 20
31.068115851943791
 30
0.0
 11
16.013397459621562
 21
31.068115851943791
 31
0.0
  0
LINE
  5
1B402
  8
0
 10
16.962710680806961
 20
59.024969902670023
 30
0.0
 11
16.27610814042853
 21
57.835739418128689
 31
0.0
  0
LINE
  5
1B403
  8
0
 10
23.72389185957152
 20
57.835739418128689
 30
0.0
 11
23.037289319193071
 21
59.024969902670023
 31
0.0
  0
LINE
  5
1B404
  8
0
 10
19.313397459621569
 20
52.575000000000038
 30
0.0
 11
20.686602540378459
 21
52.575000000000038
 31
0.0
  0
CIRCLE
  5
1B405
  8
0
 10
20.000000000000028
 20
56.478569773599588
 30
0.0
 40
3.8999999999999999
  0
LINE
  5
1B406
  8
0
 10
18.556624327025961
 20
56.478569773599588
 30
0.0
 11
19.278312163512989
 21
55.228569773599588
 31
0.0
  0
LINE
  5
1B407
  8
0
 10
19.278312163512989
 20
55.228569773599588
 30
0.0
 11
20.72168783648706
 21
55.228569773599588
 31
0.0
  0
LINE
  5
1B408
  8
0
 10
20.72168783648706
 20
55.228569773599588
 30
0.0
 11
21.443375672974071
 21
56.478569773599588
 31
0.0
  0
LINE
  5
1B409
  8
0
 10
21.443375672974071
 20
56.478569773599588
 30
0.0
 11
20.721687836487039
 21
57.728569773599588
 31
0.0
  0
LINE
  5
1B40A
  8
0
 10
20.721687836487039
 20
57.728569773599588
 30
0.0
 11
19.278312163512961
 21
57.728569773599588
 31
0.0
  0
LINE
  5
1B40B
  8
0
 10
19.278312163512961
 20
57.728569773599588
 30
0.0
 11
18.556624327025961
 21
56.478569773599588
 31
0.0
  0
LINE
  5
1B412
  8
0
 10
23.037289319193089
 20
59.024969902670023
 30
0.0
 11
22.98144424092283
 21
58.992727731697777
 31
0.0
  0
LINE
  5
1B413
  8
0
 10
17.018555759077231
 20
58.992727731697762
 30
0.0
 11
16.962710680806929
 21
59.024969902670023
 31
0.0
  0
ARC
  5
1B414
  8
0
 10
20.000000000000028
 20
56.578569773599583
 30
0.0
 40
3.9000000000000301
 50
38.8498830984297
 51
141.1501169015703
  0
LINE
  5
1B415
  8
0
 10
20.686602540378431
 20
52.575000000000017
 30
0.0
 11
20.686602540378431
 21
52.639484341944517
 31
0.0
  0
LINE
  5
1B416
  8
0
 10
23.66804678130126
 20
57.803497247156429
 30
0.0
 11
23.72389185957152
 21
57.835739418128689
 31
0.0
  0
ARC
  5
1B417
  8
0
 10
20.086602540378468
 20
56.428569773599577
 30
0.0
 40
3.9000000000000301
 50
278.84988309843112
 51
21.150116901569572
  0
LINE
  5
1B418
  8
0
 10
16.276108140428502
 20
57.835739418128753
 30
0.0
 11
16.331953218698771
 21
57.803497247156479
 31
0.0
  0
LINE
  5
1B419
  8
0
 10
19.313397459621541
 20
52.639484341944552
 30
0.0
 11
19.313397459621541
 21
52.575000000000038
 31
0.0
  0
ARC
  5
1B41A
  8
0
 10
19.91339745962156
 20
56.428569773599577
 30
0.0
 40
3.9000000000000248
 50
158.84988309843041
 51
261.15011690156888
  0
LINE
  5
1B41B
  8
0
 10
45.561101528330077
 20
31.600000000000019
 30
0.0
 11
46.092985676386313
 21
31.068115851943791
 31
0.0
  0
LINE
  5
1B41C
  8
0
 10
52.829217380273889
 20
31.068115851943791
 30
0.0
 11
53.361101528330089
 21
31.600000000000019
 31
0.0
  0
LINE
  5
1B41D
  8
0
 10
45.561101528330077
 20
32.0
 30
0.0
 11
45.561101528330077
 21
31.600000000000019
 31
0.0
  0
LINE
  5
1B41E
  8
0
 10
53.361101528330089
 20
31.600000000000019
 30
0.0
 11
53.361101528330089
 21
32.0
 31
0.0
  0
LINE
  5
1B41F
  8
0
 10
47.46110152833009
 20
20.699999999999989
 30
0.0
 11
48.161101528330107
 21
20.0
 31
0.0
  0
LINE
  5
1B420
  8
0
 10
50.761101528330101
 20
20.0
 30
0.0
 11
51.46110152833009
 21
20.699999999999989
 31
0.0
  0
LINE
  5
1B421
  8
0
 10
47.46110152833009
 20
25.536231703887552
 30
0.0
 11
47.46110152833009
 21
20.699999999999989
 31
0.0
  0
LINE
  5
1B422
  8
0
 10
51.46110152833009
 20
20.699999999999989
 30
0.0
 11
51.46110152833009
 21
25.536231703887552
 31
0.0
  0
LINE
  5
1B427
  8
0
 10
53.361101528330089
 20
25.536231703887552
 30
0.0
 11
53.361101528330089
 21
26.136231703887582
 31
0.0
  0
LINE
  5
1B428
  8
0
 10
45.561101528330077
 20
26.136231703887582
 30
0.0
 11
45.561101528330077
 21
25.536231703887552
 31
0.0
  0
LINE
  5
1B429
  8
0
 10
53.361101528330089
 20
26.136231703887582
 30
0.0
 11
52.829217380273889
 21
26.66811585194381
 31
0.0
  0
LINE
  5
1B42A
  8
0
 10
46.092985676386313
 20
26.66811585194381
 30
0.0
 11
45.561101528330077
 21
26.136231703887582
 31
0.0
  0
LINE
  5
1B42B
  8
0
 10
53.46110152833009
 20
29.368115851943799
 30
0.0
 11
53.46110152833009
 21
31.068115851943791
 31
0.0
  0
LINE
  5
1B42C
  8
0
 10
53.46110152833009
 20
26.66811585194381
 30
0.0
 11
53.46110152833009
 21
28.368115851943799
 31
0.0
  0
LINE
  5
1B42D
  8
0
 10
45.561101528330113
 20
31.600000000000019
 30
0.0
 11
53.361101528330089
 21
31.600000000000019
 31
0.0
  0
LINE
  5
1B42E
  8
0
 10
50.818271172859198
 20
29.699999999999989
 30
0.0
 11
51.086947360475669
 21
29.699999999999989
 31
0.0
  0
LINE
  5
1B42F
  8
0
 10
45.561101528330113
 20
32.0
 30
0.0
 11
53.361101528330089
 21
32.0
 31
0.0
  0
LINE
  5
1B430
  8
0
 10
47.46110152833009
 20
20.699999999999989
 30
0.0
 11
51.46110152833009
 21
20.699999999999989
 31
0.0
  0
LINE
  5
1B431
  8
0
 10
50.761101528330101
 20
20.0
 30
0.0
 11
48.161101528330107
 21
20.0
 31
0.0
  0
ARC
  5
1B433
  8
0
 10
46.05753175473054
 20
28.868115851943742
 30
0.0
 40
0.5000000000000029
 50
90.0
 51
270.0
  0
ARC
  5
1B435
  8
0
 10
52.96110152833009
 20
28.868115851943742
 30
0.0
 40
0.5000000000000031
 50
269.97667607362962
 51
89.994824677211199
  0
LINE
  5
1B436
  8
0
 10
53.361101528330089
 20
25.536231703887552
 30
0.0
 11
45.561101528330113
 21
25.536231703887552
 31
0.0
  0
LINE
  5
1B437
  8
0
 10
53.361101528330089
 20
26.136231703887582
 30
0.0
 11
45.561101528330113
 21
26.136231703887582
 31
0.0
  0
LINE
  5
1B438
  8
0
 10
51.260987677942381
 20
27.536231703887552
 30
0.0
 11
50.818271172859198
 21
27.536231703887552
 31
0.0
  0
LINE
  5
1B439
  8
0
 10
51.086947360475669
 20
29.868115851943799
 30
0.0
 11
51.703214844559568
 21
31.068115851943791
 31
0.0
  0
LINE
  5
1B43A
  8
0
 10
53.461101528330119
 20
31.068115851943791
 30
0.0
 11
51.703214844559568
 21
31.068115851943791
 31
0.0
  0
LINE
  5
1B43B
  8
0
 10
52.007501657400518
 20
31.068115851943791
 30
0.0
 11
52.007501657400518
 21
29.368115851943799
 31
0.0
  0
LINE
  5
1B43E
  8
0
 10
52.007501657400518
 20
28.368115851943799
 30
0.0
 11
52.007501657400518
 21
26.66811585194381
 31
0.0
  0
LINE
  5
1B43F
  8
0
 10
53.46110152833009
 20
26.66811585194381
 30
0.0
 11
51.703214844559568
 21
26.66811585194381
 31
0.0
  0
LINE
  5
1B440
  8
0
 10
51.703214844559568
 20
26.66811585194381
 30
0.0
 11
51.086947360475669
 21
27.868115851943799
 31
0.0
  0
LINE
  5
1B441
  8
0
 10
51.086947360475669
 20
29.868115851943799
 30
0.0
 11
51.086947360475669
 21
29.368115851943742
 31
0.0
  0
LINE
  5
1B442
  8
0
 10
51.086947360475669
 20
28.36811585194372
 30
0.0
 11
51.086947360475669
 21
27.868115851943799
 31
0.0
  0
LINE
  5
1B447
  8
0
 10
45.557531754730519
 20
31.068115851943791
 30
0.0
 11
45.557531754730519
 21
29.368115851943799
 31
0.0
  0
LINE
  5
1B448
  8
0
 10
50.818271172859198
 20
31.068115851943791
 30
0.0
 11
45.557531754730519
 21
31.068115851943791
 31
0.0
  0
LINE
  5
1B449
  8
0
 10
50.818271172859198
 20
31.068115851943791
 30
0.0
 11
50.818271172859198
 21
29.368115851943799
 31
0.0
  0
LINE
  5
1B44A
  8
0
 10
53.461101528330119
 20
29.368115851943799
 30
0.0
 11
45.557531754730519
 21
29.368115851943799
 31
0.0
  0
LINE
  5
1B44B
  8
0
 10
45.557531754730519
 20
28.368115851943799
 30
0.0
 11
45.557531754730519
 21
26.66811585194381
 31
0.0
  0
LINE
  5
1B44C
  8
0
 10
50.818271172859198
 20
28.368115851943799
 30
0.0
 11
50.818271172859198
 21
26.66811585194381
 31
0.0
  0
LINE
  5
1B44D
  8
0
 10
50.818271172859198
 20
26.66811585194381
 30
0.0
 11
45.557531754730519
 21
26.66811585194381
 31
0.0
  0
LINE
  5
1B44E
  8
0
 10
53.461101528330119
 20
28.368115851943799
 30
0.0
 11
45.557531754730519
 21
28.368115851943799
 31
0.0
  0
ARC
  5
1B451
  8
5
 10
15.518601130095529
 20
27.9839813919445
 30
0.0
 40
0.5001128834676515
 50
88.687726460381327
 51
271.11444154120181
  0
ARC
  5
1B456
  8
5
 10
24.48125337445461
 20
27.983980868051109
 30
0.0
 40
0.5001104259191848
 50
268.8970046175159
 51
91.297276216187868
  0
LINE
  5
1B45F
  8
5
 10
15.017468245269439
 20
27.48396310902973
 30
0.0
 11
15.017468245269439
 21
25.783963109029742
 31
0.0
  0
LINE
  5
1B460
  8
5
 10
15.017468245269439
 20
30.183963109029719
 30
0.0
 11
15.017468245269439
 21
28.48396310902973
 31
0.0
  0
LINE
  5
1B462
  8
5
 10
24.98253175473053
 20
25.783963109029742
 30
0.0
 11
24.98253175473053
 21
27.48396310902973
 31
0.0
  0
LINE
  5
1B463
  8
5
 10
24.98253175473053
 20
28.48396310902973
 30
0.0
 11
24.98253175473053
 21
30.183963109029719
 31
0.0
  0
LINE
  5
1B470
  8
5
 10
16.01339745962153
 20
27.483963109029698
 30
0.0
 11
15.017468245269439
 21
27.48396310902973
 31
0.0
  0
LINE
  5
1B472
  8
5
 10
16.099999999999991
 20
25.783963109029742
 30
0.0
 11
15.017468245269439
 21
25.783963109029742
 31
0.0
  0
LINE
  5
1B474
  8
5
 10
16.013397459621562
 20
30.183963109029719
 30
0.0
 11
15.017468245269439
 21
30.183963109029719
 31
0.0
  0
LINE
  5
1B475
  8
5
 10
16.194113940664689
 20
28.48396310902973
 30
0.0
 11
15.017468245269439
 21
28.48396310902973
 31
0.0
  0
LINE
  5
1B477
  8
5
 10
24.98253175473053
 20
27.48396310902973
 30
0.0
 11
23.98660254037841
 21
27.48396310902973
 31
0.0
  0
LINE
  5
1B478
  8
5
 10
24.98253175473053
 20
25.783963109029742
 30
0.0
 11
23.899999999999981
 21
25.783963109029742
 31
0.0
  0
LINE
  5
1B47A
  8
5
 10
24.98253175473053
 20
28.48396310902973
 30
0.0
 11
23.805547117496531
 21
28.48396310902973
 31
0.0
  0
LINE
  5
1B47B
  8
5
 10
24.98253175473053
 20
30.183963109029719
 30
0.0
 11
23.986602540378438
 21
30.183963109029719
 31
0.0
  0
ARC
  5
1B48C
  8
5
 10
18.917468245269468
 20
55.853569773599588
 30
0.0
 40
3.3000000000000389
 50
160.47568169638751
 51
259.52431830361138
  0
LINE
  5
1B48D
  8
5
 10
18.317468245269449
 20
52.960177115819143
 30
0.0
 11
18.317468245269449
 21
52.000000000000021
 31
0.0
  0
ARC
  5
1B48E
  8
5
 10
18.917468245269468
 20
55.853569773599588
 30
0.0
 40
3.9000000000000372
 50
158.84988309843041
 51
261.15011690156888
  0
LINE
  5
1B48F
  8
5
 10
15.28017892607642
 20
57.260739418128757
 30
0.0
 11
16.111716700508222
 21
56.780650860219161
 31
0.0
  0
ARC
  5
1B492
  8
5
 10
20.000000000000028
 20
57.728569773599588
 30
0.0
 40
3.3000000000000398
 50
40.475681696391092
 51
139.52431830360891
  0
LINE
  5
1B493
  8
5
 10
17.794248455238801
 20
59.694881344760489
 30
0.0
 11
16.962710680806929
 21
60.174969902670028
 31
0.0
  0
ARC
  5
1B494
  8
5
 10
20.000000000000028
 20
57.728569773599588
 30
0.0
 40
3.9000000000000341
 50
38.8498830984297
 51
141.1501169015703
  0
LINE
  5
1B495
  8
5
 10
23.037289319193089
 20
60.174969902670028
 30
0.0
 11
22.205751544761281
 21
59.694881344760461
 31
0.0
  0
ARC
  5
1B498
  8
5
 10
21.082531754730581
 20
55.853569773599588
 30
0.0
 40
3.3000000000000389
 50
280.47568169638862
 51
19.524318303612429
  0
LINE
  5
1B499
  8
5
 10
23.888283299491832
 20
56.78065086021914
 30
0.0
 11
24.719821073923669
 21
57.260739418128701
 31
0.0
  0
ARC
  5
1B49A
  8
5
 10
21.082531754730581
 20
55.853569773599588
 30
0.0
 40
3.9000000000000372
 50
278.84988309843112
 51
21.150116901569572
  0
LINE
  5
1B49B
  8
5
 10
21.682531754730551
 20
52.0
 30
0.0
 11
21.682531754730551
 21
52.960177115819143
 31
0.0
  0
LINE
  5
1B4AC
  8
5
 10
54.611101528330089
 20
25.783963109029742
 30
0.0
 11
54.611101528330089
 21
27.48396310902973
 31
0.0
  0
LINE
  5
1B4AD
  8
5
 10
54.611101528330089
 20
28.48396310902973
 30
0.0
 11
54.611101528330089
 21
30.183963109029719
 31
0.0
  0
ARC
  5
1B4AF
  8
5
 10
45.482531754730587
 20
27.983963109029681
 30
0.0
 40
0.5
 50
90.0
 51
270.0
  0
ARC
  5
1B4B1
  8
5
 10
54.111101528330103
 20
27.983963109029681
 30
0.0
 40
0.5000000000000036
 50
271.49160674028218
 51
90.029212192700584
  0
LINE
  5
1B4C2
  8
5
 10
54.611101528330089
 20
27.48396310902973
 30
0.0
 11
53.46110152833009
 21
27.483963109029698
 31
0.0
  0
LINE
  5
1B4C3
  8
5
 10
54.611101528330089
 20
25.783963109029742
 30
0.0
 11
53.361101528330089
 21
25.783963109029742
 31
0.0
  0
LINE
  5
1B4C4
  8
5
 10
54.611101528330089
 20
30.183963109029719
 30
0.0
 11
53.46110152833009
 21
30.183963109029719
 31
0.0
  0
LINE
  5
1B4C5
  8
5
 10
54.611101528330089
 20
28.48396310902973
 30
0.0
 11
53.281143197666523
 21
28.48396310902973
 31
0.0
  0
LINE
  5
1B4C6
  8
5
 10
44.98253175473053
 20
27.48396310902973
 30
0.0
 11
44.98253175473053
 21
25.783963109029742
 31
0.0
  0
LINE
  5
1B4C7
  8
5
 10
45.557531754730519
 20
27.48396310902973
 30
0.0
 11
44.98253175473053
 21
27.48396310902973
 31
0.0
  0
LINE
  5
1B4C9
  8
5
 10
45.561101528330077
 20
25.783963109029742
 30
0.0
 11
44.98253175473053
 21
25.783963109029742
 31
0.0
  0
LINE
  5
1B4CA
  8
5
 10
44.98253175473053
 20
30.183963109029719
 30
0.0
 11
44.98253175473053
 21
28.48396310902973
 31
0.0
  0
LINE
  5
1B4CC
  8
5
 10
45.737490085394107
 20
28.48396310902973
 30
0.0
 11
44.98253175473053
 21
28.48396310902973
 31
0.0
  0
LINE
  5
1B4CD
  8
5
 10
45.557531754730519
 20
30.183963109029751
 30
0.0
 11
44.98253175473053
 21
30.183963109029719
 31
0.0
  0
LINE
  5
1B4E5
  8
3
 10
21.62099999999975
 20
20.320999999999739
 30
0.0
 11
21.62099999999975
 21
25.536231703887552
 31
0.0
  0
LINE
  5
1B4E7
  8
3
 10
18.37900000000025
 20
20.320999999999739
 30
0.0
 11
18.37900000000025
 21
25.536231703887552
 31
0.0
  0
LINE
  5
1B4E9
  8
3
 10
51.082101528329851
 20
20.320999999999739
 30
0.0
 11
51.082101528329851
 21
25.536231703887552
 31
0.0
  0
LINE
  5
1B4EA
  8
3
 10
47.840101528330329
 20
20.320999999999739
 30
0.0
 11
47.840101528330329
 21
25.536231703887552
 31
0.0
  0
LINE
  5
1B5D1
  8
1
 10
20.000000000000028
 20
63.628569773599622
 30
0.0
 11
20.000000000000028
 21
49.328569773599547
 31
0.0
  0
LINE
  5
1B5D2
  8
1
 10
49.46110152833009
 20
34.0
 30
0.0
 11
49.461101528330083
 21
16.236231703887551
 31
0.0
  0
LINE
  5
1B5D3
  8
1
 10
27.150000000000059
 20
56.478569773599588
 30
0.0
 11
12.849999999999991
 21
56.478569773599588
 31
0.0
  0
LINE
  5
1B5D9
  8
1
 10
20.0
 20
34.0
 30
0.0
 11
20.0
 21
16.236231703887551
 31
0.0
  0
LINE
  5
1BB25
  8
5
 10
16.962710680806929
 20
60.174969902670028
 30
0.0
 11
15.280178926076241
 21
57.260739418128878
 31
0.0
  0
LINE
  5
1BB26
  8
5
 10
23.037289319193121
 20
60.17496990267005
 30
0.0
 11
24.719821073923612
 21
57.260739418128651
 31
0.0
  0
LINE
  5
1BB27
  8
5
 10
18.317468245269449
 20
52.0
 30
0.0
 11
21.682531754730551
 21
52.0
 31
0.0
  0
TEXT
  5
1DA32
  8
0
 62
     3
 10
0.0
 20
0.0
 30
0.0
 40
5.0
  1
CP131-04001A
  7
STANDARD1
  0
LINE
  5
1DA91
  8
5
 10
18.0
 20
20.699999999999989
 30
0.0
 11
18.0
 21
18.93623170388754
 31
0.0
  0
LINE
  5
1DA92
  8
5
 10
22.0
 20
18.93623170388754
 30
0.0
 11
22.0
 21
20.700000000000021
 31
0.0
  0
LINE
  5
1DA93
  8
5
 10
18.0
 20
18.93623170388754
 30
0.0
 11
18.699999999999989
 21
18.236231703887551
 31
0.0
  0
LINE
  5
1DA94
  8
5
 10
21.29999999999999
 20
18.236231703887551
 30
0.0
 11
22.0
 21
18.93623170388754
 31
0.0
  0
LINE
  5
1DA95
  8
5
 10
18.0
 20
18.93623170388754
 30
0.0
 11
22.0
 21
18.936231703887572
 31
0.0
  0
LINE
  5
1DA96
  8
5
 10
21.300000000000011
 20
18.236231703887551
 30
0.0
 11
18.699999999999989
 21
18.236231703887551
 31
0.0
  0
LINE
  5
1DA97
  8
5
 10
21.62099999999975
 20
18.55723170388729
 30
0.0
 11
21.62099999999975
 21
20.32099999999976
 31
0.0
  0
LINE
  5
1DA98
  8
5
 10
18.37900000000025
 20
18.55723170388729
 30
0.0
 11
18.37900000000025
 21
20.320999999999739
 31
0.0
  0
LINE
  5
1DA99
  8
5
 10
47.461101528330097
 20
20.699999999999989
 30
0.0
 11
47.461101528330097
 21
18.93623170388754
 31
0.0
  0
LINE
  5
1DA9A
  8
5
 10
51.461101528330097
 20
18.93623170388754
 30
0.0
 11
51.461101528330097
 21
20.700000000000021
 31
0.0
  0
LINE
  5
1DA9B
  8
5
 10
47.461101528330097
 20
18.93623170388754
 30
0.0
 11
48.161101528330093
 21
18.236231703887551
 31
0.0
  0
LINE
  5
1DA9C
  8
5
 10
50.761101528330087
 20
18.236231703887551
 30
0.0
 11
51.461101528330097
 21
18.93623170388754
 31
0.0
  0
LINE
  5
1DA9D
  8
5
 10
47.461101528330097
 20
18.93623170388754
 30
0.0
 11
51.461101528330097
 21
18.936231703887572
 31
0.0
  0
LINE
  5
1DA9E
  8
5
 10
50.761101528330109
 20
18.236231703887551
 30
0.0
 11
48.161101528330093
 21
18.236231703887551
 31
0.0
  0
LINE
  5
1DA9F
  8
5
 10
51.082101528329851
 20
18.55723170388729
 30
0.0
 11
51.082101528329858
 21
20.32099999999976
 31
0.0
  0
LINE
  5
1DAA0
  8
5
 10
47.840101528330351
 20
18.55723170388729
 30
0.0
 11
47.840101528330351
 21
20.320999999999739
 31
0.0
  0
ENDSEC
  0
EOF
