  0
SECTION
  2
HEADER
  9
$ACADVER
  1
AC1009
  9
$INSBASE
 10
0.0
 20
0.0
 30
0.0
  9
$EXTMIN
 10
0.0
 20
-2.960436562073669
 30
0.0
  9
$EXTMAX
 10
220.00000000000699
 20
330.5
 30
0.0
  9
$LIMMIN
 10
0.0
 20
0.0
  9
$LIMMAX
 10
12.0
 20
9.0
  9
$ORTHOMODE
 70
     1
  9
$REGENMODE
 70
     1
  9
$FILLMODE
 70
     1
  9
$QTEXTMODE
 70
     0
  9
$MIRRTEXT
 70
     0
  9
$DRAGMODE
 70
     2
  9
$LTSCALE
 40
5.0
  9
$OSMODE
 70
    37
  9
$ATTMODE
 70
     1
  9
$TEXTSIZE
 40
0.2
  9
$TRACEWID
 40
0.05
  9
$TEXTSTYLE
  7
STANDARD
  9
$CLAYER
  8
0
  9
$CELTYPE
  6
BYLAYER
  9
$CECOLOR
 62
   256
  9
$DIMSCALE
 40
1.0
  9
$DIMASZ
 40
0.18
  9
$DIMEXO
 40
0.0625
  9
$DIMDLI
 40
0.38
  9
$DIMRND
 40
0.0
  9
$DIMDLE
 40
0.0
  9
$DIMEXE
 40
0.18
  9
$DIMTP
 40
0.0
  9
$DIMTM
 40
0.0
  9
$DIMTXT
 40
2.6000000000000001
  9
$DIMCEN
 40
0.09
  9
$DIMTSZ
 40
0.0
  9
$DIMTOL
 70
     0
  9
$DIMLIM
 70
     0
  9
$DIMTIH
 70
     0
  9
$DIMTOH
 70
     0
  9
$DIMSE1
 70
     0
  9
$DIMSE2
 70
     0
  9
$DIMTAD
 70
     1
  9
$DIMZIN
 70
     8
  9
$DIMBLK
  1

  9
$DIMASO
 70
     1
  9
$DIMSHO
 70
     1
  9
$DIMPOST
  1

  9
$DIMAPOST
  1

  9
$DIMALT
 70
     0
  9
$DIMALTD
 70
     2
  9
$DIMALTF
 40
25.399999999999999
  9
$DIMLFAC
 40
1.0
  9
$DIMTOFL
 70
     0
  9
$DIMTVP
 40
0.0
  9
$DIMTIX
 70
     0
  9
$DIMSOXD
 70
     0
  9
$DIMSAH
 70
     0
  9
$DIMBLK1
  1

  9
$DIMBLK2
  1

  9
$DIMSTYLE
  2
STANDARD
  9
$DIMCLRD
 70
     0
  9
$DIMCLRE
 70
     0
  9
$DIMCLRT
 70
     0
  9
$DIMTFAC
 40
1.0
  9
$DIMGAP
 40
0.09
  9
$LUNITS
 70
     2
  9
$LUPREC
 70
     4
  9
$SKETCHINC
 40
0.1
  9
$FILLETRAD
 40
0.0
  9
$AUNITS
 70
     0
  9
$AUPREC
 70
     0
  9
$MENU
  1
.
  9
$ELEVATION
 40
0.0
  9
$PELEVATION
 40
0.0
  9
$THICKNESS
 40
0.0
  9
$LIMCHECK
 70
     0
  9
$BLIPMODE
 70
     0
  9
$CHAMFERA
 40
0.0
  9
$CHAMFERB
 40
0.0
  9
$SKPOLY
 70
     0
  9
$TDCREATE
 40
2453083.4120647679
  9
$TDUPDATE
 40
2456765.56200044
  9
$TDINDWG
 40
0.5954799537
  9
$TDUSRTIMER
 40
0.595479838
  9
$USRTIMER
 70
     1
  9
$ANGBASE
 50
0.0
  9
$ANGDIR
 70
     0
  9
$PDMODE
 70
     0
  9
$PDSIZE
 40
0.0
  9
$PLINEWID
 40
0.0
  9
$COORDS
 70
     1
  9
$SPLFRAME
 70
     0
  9
$SPLINETYPE
 70
     6
  9
$SPLINESEGS
 70
     8
  9
$ATTDIA
 70
     0
  9
$ATTREQ
 70
     1
  9
$HANDLING
 70
     1
  9
$HANDSEED
  5
5D51
  9
$SURFTAB1
 70
     6
  9
$SURFTAB2
 70
     6
  9
$SURFTYPE
 70
     6
  9
$SURFU
 70
     6
  9
$SURFV
 70
     6
  9
$UCSNAME
  2

  9
$UCSORG
 10
0.0
 20
0.0
 30
0.0
  9
$UCSXDIR
 10
1.0
 20
0.0
 30
0.0
  9
$UCSYDIR
 10
0.0
 20
1.0
 30
0.0
  9
$PUCSNAME
  2

  9
$PUCSORG
 10
0.0
 20
0.0
 30
0.0
  9
$PUCSXDIR
 10
1.0
 20
0.0
 30
0.0
  9
$PUCSYDIR
 10
0.0
 20
1.0
 30
0.0
  9
$USERI1
 70
     0
  9
$USERI2
 70
     1
  9
$USERI3
 70
     0
  9
$USERI4
 70
     0
  9
$USERI5
 70
     0
  9
$USERR1
 40
0.0
  9
$USERR2
 40
0.0
  9
$USERR3
 40
0.0
  9
$USERR4
 40
0.0
  9
$USERR5
 40
0.0
  9
$WORLDVIEW
 70
     1
  9
$SHADEDGE
 70
     3
  9
$SHADEDIF
 70
    70
  9
$TILEMODE
 70
     1
  9
$MAXACTVP
 70
    64
  9
$PLIMCHECK
 70
     0
  9
$PEXTMIN
 10
0.0
 20
0.0
 30
0.0
  9
$PEXTMAX
 10
0.0
 20
0.0
 30
0.0
  9
$PLIMMIN
 10
0.0
 20
0.0
  9
$PLIMMAX
 10
12.0
 20
9.0
  9
$UNITMODE
 70
     0
  9
$VISRETAIN
 70
     1
  9
$PLINEGEN
 70
     0
  9
$PSLTSCALE
 70
     1
  0
ENDSEC
  0
SECTION
  2
TABLES
  0
TABLE
  2
VPORT
 70
     1
  0
VPORT
  2
*ACTIVE
 70
     0
 10
0.0
 20
0.0
 11
1.0
 21
1.0
 12
349.095966620306
 22
200.0
 13
0.0
 23
0.0
 14
0.5
 24
0.5
 15
0.5
 25
0.5
 16
0.0
 26
0.0
 36
1.0
 17
0.0
 27
0.0
 37
0.0
 40
400.0
 41
1.7454798331015291
 42
50.0
 43
0.0
 44
0.0
 50
0.0
 51
0.0
 71
     0
 72
  1000
 73
     1
 74
     2
 75
     0
 76
     0
 77
     0
 78
     0
  0
ENDTAB
  0
TABLE
  2
LTYPE
 70
     4
  0
LTYPE
  2
CONTINUOUS
 70
     0
  3
Solid Line
 72
    65
 73
     0
 40
0.0
  0
LTYPE
  2
CENTER
 70
     0
  3
____ _ ____ _ ____ _ ____ _ ____ _ ____ _ ____
 72
    65
 73
     4
 40
2.0
 49
1.25
 49
-0.25
 49
0.25
 49
-0.25
  0
LTYPE
  2
PHANTOM2
 70
     0
  3
___ _ _ ___ _ _ ___ _ _ ___ _ _
 72
    65
 73
     6
 40
1.25
 49
0.625
 49
-0.125
 49
0.125
 49
-0.125
 49
0.125
 49
-0.125
  0
LTYPE
  2
HIDDEN
 70
     0
  3
Hidden __ __ __ __ __ __ __ __ __ __ __ __ __ __
 72
    65
 73
     2
 40
1.905
 49
1.27
 49
-0.635
  0
ENDTAB
  0
TABLE
  2
LAYER
 70
     4
  0
LAYER
  2
0
 70
     0
 62
     7
  6
CONTINUOUS
  0
LAYER
  2
1
 70
     0
 62
     1
  6
CENTER
  0
LAYER
  2
DEFPOINTS
 70
     0
 62
     7
  6
CONTINUOUS
  0
LAYER
  2
2
 70
     0
 62
     2
  6
HIDDEN
  0
ENDTAB
  0
TABLE
  2
STYLE
 70
     2
  0
STYLE
  2
STANDARD
 70
     0
 40
0.0
 41
1.0
 50
0.0
 71
     0
 42
0.2
  3
simplex.shx
  4
bigfont.shx
  0
STYLE
  2
STANDARD1
 70
     0
 40
0.0
 41
1.0
 50
0.0
 71
     0
 42
3.0
  3
txt
  4

  0
ENDTAB
  0
TABLE
  2
VIEW
 70
     0
  0
ENDTAB
  0
TABLE
  2
UCS
 70
     0
  0
ENDTAB
  0
TABLE
  2
APPID
 70
     5
  0
APPID
  2
ACAD
 70
     0
  0
APPID
  2
ACAD_MLEADERVER
 70
     0
  0
APPID
  2
ACAD_NAV_VCDISPLAY
 70
     0
  0
APPID
  2
ACAD_EXEMPT_FROM_CAD_STANDARDS
 70
     0
  0
APPID
  2
ACAD_DSTYLE_DIMRADIAL_EXTENSION
 70
     0
  0
ENDTAB
  0
TABLE
  2
DIMSTYLE
 70
     1
  0
DIMSTYLE
  2
STANDARD
 70
     0
  3

  4

  5

  6

  7

 40
1.0
 41
0.18
 42
0.0625
 43
0.38
 44
0.18
 45
0.0
 46
0.0
 47
0.0
 48
0.0
140
2.6000000000000001
141
0.09
142
0.0
143
25.399999999999999
144
1.0
145
0.0
146
1.0
147
0.09
 71
     0
 72
     0
 73
     0
 74
     0
 75
     0
 76
     0
 77
     1
 78
     8
170
     0
171
     2
172
     0
173
     0
174
     0
175
     0
176
     0
177
     0
178
     0
  0
ENDTAB
  0
ENDSEC
  0
SECTION
  2
BLOCKS
  0
BLOCK
  8
0
  2
$MODEL_SPACE
 70
     0
 10
0.0
 20
0.0
 30
0.0
  3
$MODEL_SPACE
  1

  0
ENDBLK
  5
21
  8
0
  0
BLOCK
 67
     1
  8
0
  2
$PAPER_SPACE
 70
     0
 10
0.0
 20
0.0
 30
0.0
  3
$PAPER_SPACE
  1

  0
ENDBLK
  5
5B
 67
     1
  8
0
  0
ENDSEC
  0
SECTION
  2
ENTITIES
  0
TEXT
  5
1F01
  8
0
 62
     3
 10
0.0
 20
0.0
 30
0.0
 40
10.0
  1
CP127-12001
  7
STANDARD1
  0
ARC
  5
58E1
  8
0
 10
150.00000000000711
 20
260.5
 30
0.0
 40
59.499999999999929
 50
338.94458446106842
 51
21.055415538931641
  0
LINE
  5
58E3
  8
0
 10
205.98947165047269
 20
238.93198979271139
 30
0.0
 11
158.30375589040679
 21
258.68405999199967
 31
0.0
  0
ARC
  5
58E4
  8
0
 10
150.00000000000711
 20
260.5
 30
0.0
 40
14.99999999999995
 50
343.23917047726752
 51
16.760829522732521
  0
LINE
  5
58E5
  8
0
 10
205.98947165047301
 20
282.06801020728841
 30
0.0
 11
158.30375589040679
 21
262.3159400080005
 31
0.0
  0
ARC
  5
58E9
  8
0
 10
150.00000000000711
 20
260.5
 30
0.0
 40
59.500000000000007
 50
23.944584461069699
 51
66.055415538930319
  0
ARC
  5
58EC
  8
0
 10
150.00000000000711
 20
260.5
 30
0.0
 40
59.499999999999922
 50
293.94458446106961
 51
336.05541553893039
  0
ARC
  5
58EE
  8
0
 10
150.00000000000711
 20
260.5
 30
0.0
 40
15.000000000000011
 50
28.239170477261919
 51
61.76082952273233
  0
LINE
  5
58EF
  8
0
 10
174.33964880482941
 20
315.34142135337038
 30
0.0
 11
154.5875786055413
 21
267.6557055933045
 31
0.0
  0
LINE
  5
58F0
  8
0
 10
204.84142135337771
 20
284.83964880482222
 30
0.0
 11
157.15570559331169
 21
265.08757860553402
 31
0.0
  0
ARC
  5
58F1
  8
0
 10
150.00000000000711
 20
260.5
 30
0.0
 40
15.000000000000011
 50
298.23917047726758
 51
331.76082952273811
  0
LINE
  5
58F2
  8
0
 10
174.33964880483001
 20
205.65857864662979
 30
0.0
 11
154.5875786055413
 21
253.34429440669581
 31
0.0
  0
LINE
  5
58F3
  8
0
 10
204.84142135337771
 20
236.16035119517781
 30
0.0
 11
157.15570559331141
 21
255.91242139446561
 31
0.0
  0
ARC
  5
58F4
  8
0
 10
150.00000000000711
 20
260.5
 30
0.0
 40
14.99999999999998
 50
253.23917047726741
 51
286.76082952273248
  0
ARC
  5
58F5
  8
0
 10
150.00000000000711
 20
260.5
 30
0.0
 40
59.499999999999979
 50
248.9445844610683
 51
291.05541553893158
  0
LINE
  5
58F6
  8
0
 10
128.43198979271969
 20
204.51052834953381
 30
0.0
 11
148.18405999200701
 21
252.1962441096004
 31
0.0
  0
LINE
  5
58F7
  8
0
 10
171.5680102072962
 20
204.5105283495345
 30
0.0
 11
151.8159400080076
 21
252.1962441096004
 31
0.0
  0
ARC
  5
58FB
  8
0
 10
150.00000000000711
 20
260.5
 30
0.0
 40
15.00000000000002
 50
73.23917047726745
 51
106.76082952273249
  0
LINE
  5
58FC
  8
0
 10
128.4319897927187
 20
316.4894716504657
 30
0.0
 11
148.18405999200689
 21
268.80375589039949
 31
0.0
  0
ARC
  5
58FD
  8
0
 10
150.00000000000711
 20
260.5
 30
0.0
 40
59.5
 50
68.944584461068374
 51
111.05541553893769
  0
LINE
  5
58FE
  8
0
 10
171.5680102072954
 20
316.4894716504657
 30
0.0
 11
151.81594000800791
 21
268.80375589039932
 31
0.0
  0
ARC
  5
5913
  8
0
 10
150.00000000000711
 20
260.5
 30
0.0
 40
15.00000000000003
 50
118.23917047726761
 51
151.76082952273811
  0
ARC
  5
5916
  8
0
 10
150.00000000000711
 20
260.5
 30
0.0
 40
15.000000000000011
 50
208.23917047726189
 51
241.76082952273811
  0
ARC
  5
5919
  8
0
 10
150.00000000000711
 20
260.5
 30
0.0
 40
59.500000000000007
 50
203.9445844610697
 51
246.05541553893039
  0
LINE
  5
591A
  8
0
 10
95.158578646636897
 20
236.1603511951773
 30
0.0
 11
142.8442944067032
 21
255.91242139446561
 31
0.0
  0
LINE
  5
591B
  8
0
 10
125.6603511951857
 20
205.65857864662919
 30
0.0
 11
145.4124213944732
 21
253.34429440669581
 31
0.0
  0
ARC
  5
591E
  8
0
 10
150.00000000000711
 20
260.5
 30
0.0
 40
15.000000000000041
 50
163.23917047726741
 51
196.76082952273251
  0
LINE
  5
5920
  8
0
 10
95.158578646636556
 20
284.83964880482199
 30
0.0
 11
142.84429440670311
 21
265.08757860553419
 31
0.0
  0
ARC
  5
5921
  8
0
 10
150.00000000000711
 20
260.5
 30
0.0
 40
59.500000000000021
 50
113.9445844610696
 51
156.0554155389303
  0
LINE
  5
5922
  8
0
 10
125.6603511951848
 20
315.34142135337038
 30
0.0
 11
145.41242139447311
 21
267.65570559330422
 31
0.0
  0
ARC
  5
5923
  8
0
 10
150.00000000000711
 20
260.5
 30
0.0
 40
59.500000000000007
 50
158.9445844610683
 51
201.05541553893161
  0
LINE
  5
5924
  8
0
 10
94.010528349541573
 20
238.93198979271119
 30
0.0
 11
141.6962441096079
 21
258.6840599919995
 31
0.0
  0
LINE
  5
5925
  8
0
 10
94.010528349541232
 20
282.0680102072879
 30
0.0
 11
141.69624410960779
 21
262.3159400080001
 31
0.0
  0
ARC
  5
596B
  8
2
 10
194.0000000000075
 20
260.5
 30
0.0
 40
5.0
 50
270.0
 51
90.0
  0
LINE
  5
596C
  8
2
 10
194.0000000000075
 20
255.5
 30
0.0
 11
191.0000000000075
 21
255.5
 31
0.0
  0
LINE
  5
596D
  8
2
 10
191.0000000000075
 20
265.5
 30
0.0
 11
194.0000000000075
 21
265.5
 31
0.0
  0
ARC
  5
596E
  8
2
 10
191.0000000000075
 20
260.5
 30
0.0
 40
5.0
 50
90.0
 51
270.0
  0
ARC
  5
596F
  8
2
 10
109.0000000000075
 20
260.5
 30
0.0
 40
5.0
 50
270.0
 51
90.0
  0
LINE
  5
5970
  8
2
 10
109.0000000000075
 20
255.5
 30
0.0
 11
106.0000000000075
 21
255.5
 31
0.0
  0
LINE
  5
5971
  8
2
 10
106.0000000000075
 20
265.5
 30
0.0
 11
109.0000000000075
 21
265.5
 31
0.0
  0
ARC
  5
5972
  8
2
 10
106.0000000000075
 20
260.5
 30
0.0
 40
5.0
 50
90.0
 51
270.0
  0
ARC
  5
59B3
  8
0
 10
206.25
 20
105.45
 30
0.0
 40
1.5500000000000109
 50
270.0
 51
90.0
  0
ARC
  5
59B4
  8
0
 10
93.75
 20
105.45
 30
0.0
 40
1.5500000000000109
 50
90.0
 51
270.0
  0
LINE
  5
59B5
  8
0
 10
93.75
 20
103.90000000000011
 30
0.0
 11
206.25
 21
103.90000000000011
 31
0.0
  0
LINE
  5
59B6
  8
0
 10
90.0
 20
107.5
 30
0.0
 11
90.5
 21
107.0
 31
0.0
  0
LINE
  5
59B7
  8
0
 10
209.5
 20
107.0
 30
0.0
 11
210.0
 21
107.5
 31
0.0
  0
LINE
  5
59B8
  8
0
 10
90.0
 20
119.5
 30
0.0
 11
90.0
 21
107.5
 31
0.0
  0
LINE
  5
59B9
  8
0
 10
210.0
 20
107.5
 30
0.0
 11
210.0
 21
119.5
 31
0.0
  0
LINE
  5
59BA
  8
0
 10
210.0
 20
120.5
 30
0.0
 11
210.0
 21
140.0
 31
0.0
  0
LINE
  5
59BB
  8
0
 10
209.7828427124746
 20
120.2828427124746
 30
0.0
 11
210.0
 21
120.5
 31
0.0
  0
LINE
  5
59BC
  8
0
 10
210.0
 20
119.5
 30
0.0
 11
209.7828427124746
 21
119.7171572875254
 31
0.0
  0
LINE
  5
59BD
  8
0
 10
210.0
 20
140.0
 30
0.0
 11
209.5
 21
140.5
 31
0.0
  0
LINE
  5
59BE
  8
0
 10
90.0
 20
120.5
 30
0.0
 11
90.217157287525296
 21
120.2828427124746
 31
0.0
  0
LINE
  5
59BF
  8
0
 10
90.5
 20
140.5
 30
0.0
 11
90.0
 21
140.0
 31
0.0
  0
LINE
  5
59C0
  8
0
 10
90.217157287525296
 20
119.7171572875254
 30
0.0
 11
90.0
 21
119.5
 31
0.0
  0
LINE
  5
59C1
  8
0
 10
90.0
 20
140.0
 30
0.0
 11
90.0
 21
120.5
 31
0.0
  0
ARC
  5
59C2
  8
0
 10
210.06568542494941
 20
120.0
 30
0.0
 40
0.4000000000000595
 50
135.0000000000046
 51
224.99999999999079
  0
ARC
  5
59C3
  8
0
 10
89.934314575050735
 20
120.0
 30
0.0
 40
0.3999999999999791
 50
315.0
 51
45.000000000009209
  0
LINE
  5
59C4
  8
0
 10
134.99999999999989
 20
101.0
 30
0.0
 11
135.99999999999989
 21
100.0
 31
0.0
  0
LINE
  5
59C5
  8
0
 10
164.0
 20
100.0
 30
0.0
 11
165.0
 21
101.0
 31
0.0
  0
LINE
  5
59C6
  8
0
 10
134.99999999999989
 20
103.90000000000011
 30
0.0
 11
134.99999999999989
 21
101.0
 31
0.0
  0
LINE
  5
59C7
  8
0
 10
165.0
 20
101.0
 30
0.0
 11
165.0
 21
103.90000000000011
 31
0.0
  0
LINE
  5
59C8
  8
0
 10
90.0
 20
107.5
 30
0.0
 11
209.9999999999998
 21
107.5
 31
0.0
  0
LINE
  5
59C9
  8
0
 10
209.4999999999998
 20
107.0
 30
0.0
 11
90.500000000000227
 21
107.0
 31
0.0
  0
LINE
  5
59CA
  8
0
 10
204.84142135337041
 20
112.0
 30
0.0
 11
204.84142135337041
 21
119.5
 31
0.0
  0
POLYLINE
  5
59CB
  8
0
 66
     1
 10
0.0
 20
0.0
 30
0.0
 70
   128
  0
VERTEX
  5
5D35
  8
0
 10
205.43277195067711
 20
110.5
 30
0.0
  0
VERTEX
  5
5D36
  8
0
 10
205.2409027175413
 20
110.58452599461221
 30
0.0
  0
VERTEX
  5
5D37
  8
0
 10
205.06748838196859
 20
110.8285606126562
 30
0.0
  0
VERTEX
  5
5D38
  8
0
 10
204.93362227318519
 20
111.20467999772291
 30
0.0
  0
VERTEX
  5
5D39
  8
0
 10
204.8562746593509
 20
111.6705372940901
 30
0.0
  0
VERTEX
  5
5D3A
  8
0
 10
204.84142135337041
 20
112.0
 30
0.0
  0
SEQEND
  5
5D3B
  8
0
  0
POLYLINE
  5
59CC
  8
0
 66
     1
 10
0.0
 20
0.0
 30
0.0
 70
   128
  0
VERTEX
  5
5D3C
  8
0
 10
205.9894716504657
 20
112.0
 30
0.0
  0
VERTEX
  5
5D3D
  8
0
 10
205.9590228063723
 20
111.50357950132179
 30
0.0
  0
VERTEX
  5
5D3E
  8
0
 10
205.87049630208
 20
111.0631277256216
 30
0.0
  0
VERTEX
  5
5D3F
  8
0
 10
205.7322576590179
 20
110.72820361267421
 30
0.0
  0
VERTEX
  5
5D40
  8
0
 10
205.5580161845655
 20
110.5366291306136
 30
0.0
  0
VERTEX
  5
5D41
  8
0
 10
205.43277195067711
 20
110.5
 30
0.0
  0
SEQEND
  5
5D42
  8
0
  0
LINE
  5
59CD
  8
0
 10
205.9894716504657
 20
112.0
 30
0.0
 11
205.9894716504657
 21
119.5
 31
0.0
  0
LINE
  5
59CE
  8
0
 10
205.9894716504657
 20
119.5
 30
0.0
 11
210.0
 21
119.5
 31
0.0
  0
LINE
  5
59CF
  8
0
 10
90.0
 20
119.5
 30
0.0
 11
94.010528349534297
 21
119.5
 31
0.0
  0
LINE
  5
59D0
  8
0
 10
94.010528349534297
 20
112.0
 30
0.0
 11
94.010528349534297
 21
119.5
 31
0.0
  0
POLYLINE
  5
59D1
  8
0
 66
     1
 10
0.0
 20
0.0
 30
0.0
 70
   128
  0
VERTEX
  5
5D43
  8
0
 10
94.567228049322807
 20
110.5
 30
0.0
  0
VERTEX
  5
5D44
  8
0
 10
94.379153459777854
 20
110.58452599461221
 30
0.0
  0
VERTEX
  5
5D45
  8
0
 10
94.215460580550598
 20
110.8285606126562
 30
0.0
  0
VERTEX
  5
5D46
  8
0
 10
94.092986900284345
 20
111.20467999772291
 30
0.0
  0
VERTEX
  5
5D47
  8
0
 10
94.023709760120937
 20
111.6705372940901
 30
0.0
  0
VERTEX
  5
5D48
  8
0
 10
94.010528349534297
 20
112.0
 30
0.0
  0
SEQEND
  5
5D49
  8
0
  0
POLYLINE
  5
59D2
  8
0
 66
     1
 10
0.0
 20
0.0
 30
0.0
 70
   128
  0
VERTEX
  5
5D4A
  8
0
 10
95.158578646629621
 20
112.0
 30
0.0
  0
VERTEX
  5
5D4B
  8
0
 10
95.124334102960816
 20
111.50357950132179
 30
0.0
  0
VERTEX
  5
5D4C
  8
0
 10
95.026084622772032
 20
111.0631277256216
 30
0.0
  0
VERTEX
  5
5D4D
  8
0
 10
94.876453938350551
 20
110.72820361267421
 30
0.0
  0
VERTEX
  5
5D4E
  8
0
 10
94.694143681632113
 20
110.5366291306136
 30
0.0
  0
VERTEX
  5
5D4F
  8
0
 10
94.567228049322921
 20
110.5
 30
0.0
  0
SEQEND
  5
5D50
  8
0
  0
LINE
  5
59D3
  8
0
 10
95.158578646629621
 20
112.0
 30
0.0
 11
95.158578646629621
 21
119.5
 31
0.0
  0
LINE
  5
59D4
  8
0
 10
95.158578646629621
 20
119.5
 30
0.0
 11
125.66035119517819
 21
119.5
 31
0.0
  0
LINE
  5
59D5
  8
0
 10
125.66035119517819
 20
112.0
 30
0.0
 11
125.66035119517819
 21
119.5
 31
0.0
  0
ARC
  5
59D6
  8
0
 10
127.11035575477651
 20
111.9491402437008
 30
0.0
 40
1.450896253240338
 50
177.99114065071129
 51
267.18079473527018
  0
ARC
  5
59D7
  8
0
 10
126.9901411130972
 20
111.94218033489049
 30
0.0
 40
1.4430075289409441
 50
271.9401163752475
 51
2.2963912674253
  0
LINE
  5
59D8
  8
0
 10
128.43198979271199
 20
112.0
 30
0.0
 11
128.43198979271199
 21
119.5
 31
0.0
  0
LINE
  5
59D9
  8
0
 10
128.43198979271199
 20
119.5
 30
0.0
 11
171.56801020728869
 21
119.5
 31
0.0
  0
LINE
  5
59DA
  8
0
 10
171.56801020728869
 20
112.0
 30
0.0
 11
171.56801020728869
 21
119.5
 31
0.0
  0
ARC
  5
59DB
  8
0
 10
173.0268096171078
 20
111.95792186480639
 30
0.0
 40
1.4594061420832769
 50
178.3477980226337
 51
267.4156943346988
  0
ARC
  5
59DC
  8
0
 10
172.90922691975501
 20
111.93114190071491
 30
0.0
 40
1.432078282468163
 50
272.0720698376187
 51
2.7559947764095392
  0
LINE
  5
59DD
  8
0
 10
174.33964880482239
 20
112.0
 30
0.0
 11
174.33964880482239
 21
119.5
 31
0.0
  0
LINE
  5
59DE
  8
0
 10
174.33964880482239
 20
119.5
 30
0.0
 11
204.84142135337041
 21
119.5
 31
0.0
  0
LINE
  5
59DF
  8
0
 10
171.3766081658294
 20
140.5
 30
0.0
 11
171.56801020728869
 21
140.0
 31
0.0
  0
LINE
  5
59E0
  8
0
 10
171.56801020728869
 20
140.0
 30
0.0
 11
128.43198979271199
 21
140.0
 31
0.0
  0
LINE
  5
59E1
  8
0
 10
128.6233918341712
 20
140.5
 30
0.0
 11
128.43198979271199
 21
140.0
 31
0.0
  0
LINE
  5
59E3
  8
0
 10
128.43198979271199
 20
119.5
 30
0.0
 11
128.51511836499631
 21
119.7171572875254
 31
0.0
  0
LINE
  5
59E5
  8
0
 10
171.56801020728869
 20
119.5
 30
0.0
 11
171.4848816350044
 21
119.7171572875254
 31
0.0
  0
LINE
  5
59E7
  8
0
 10
128.51511836499631
 20
120.2828427124746
 30
0.0
 11
128.43198979271199
 21
120.5
 31
0.0
  0
LINE
  5
59E8
  8
0
 10
128.43198979271199
 20
120.5
 30
0.0
 11
171.56801020728869
 21
120.5
 31
0.0
  0
LINE
  5
59E9
  8
0
 10
171.4848816350044
 20
120.2828427124746
 30
0.0
 11
171.56801020728869
 21
120.5
 31
0.0
  0
LINE
  5
59EA
  8
0
 10
128.43198979271199
 20
120.5
 30
0.0
 11
128.43198979271199
 21
140.0
 31
0.0
  0
LINE
  5
59EB
  8
0
 10
171.56801020728869
 20
120.5
 30
0.0
 11
171.56801020728869
 21
140.0
 31
0.0
  0
ARC
  5
59EC
  8
0
 10
127.6870871017463
 20
120.0
 30
0.0
 40
0.8750061559322535
 50
341.14062405287052
 51
18.859375947135671
  0
ARC
  5
59ED
  8
0
 10
172.31291289825339
 20
120.0
 30
0.0
 40
0.8750061559313929
 50
161.14062405284369
 51
198.8593759471562
  0
LINE
  5
59EE
  8
0
 10
125.66035119517819
 20
120.5
 30
0.0
 11
125.66035119517819
 21
140.0
 31
0.0
  0
LINE
  5
59EF
  8
0
 10
125.85175323663719
 20
140.5
 30
0.0
 11
125.66035119517819
 21
140.0
 31
0.0
  0
LINE
  5
59F1
  8
0
 10
125.66035119517819
 20
119.5
 30
0.0
 11
125.7434797674624
 21
119.7171572875254
 31
0.0
  0
ARC
  5
59F2
  8
0
 10
124.9154485042102
 20
120.0
 30
0.0
 40
0.875006155934396
 50
341.14062405291168
 51
18.85937594708831
  0
LINE
  5
59F3
  8
0
 10
125.7434797674624
 20
120.2828427124746
 30
0.0
 11
125.66035119517819
 21
120.5
 31
0.0
  0
LINE
  5
59F5
  8
0
 10
95.359268773258904
 20
120.2828427124746
 30
0.0
 11
95.158578646629621
 21
120.5
 31
0.0
  0
LINE
  5
59F6
  8
0
 10
95.158578646629621
 20
120.5
 30
0.0
 11
125.66035119517819
 21
120.5
 31
0.0
  0
LINE
  5
59F7
  8
0
 10
95.158578646629621
 20
119.5
 30
0.0
 11
95.359268773258904
 21
119.7171572875254
 31
0.0
  0
LINE
  5
59F9
  8
0
 10
95.158578646629621
 20
120.5
 30
0.0
 11
95.158578646629621
 21
140.0
 31
0.0
  0
LINE
  5
59FA
  8
0
 10
125.66035119517819
 20
140.0
 30
0.0
 11
95.158578646629621
 21
140.0
 31
0.0
  0
LINE
  5
59FB
  8
0
 10
95.620664050986079
 20
140.5
 30
0.0
 11
95.158578646629621
 21
140.0
 31
0.0
  0
LINE
  5
59FD
  8
0
 10
174.33964880482239
 20
120.5
 30
0.0
 11
174.33964880482239
 21
140.0
 31
0.0
  0
LINE
  5
59FE
  8
0
 10
204.84142135337041
 20
140.0
 30
0.0
 11
174.33964880482239
 21
140.0
 31
0.0
  0
LINE
  5
59FF
  8
0
 10
204.84142135337041
 20
120.5
 30
0.0
 11
204.84142135337041
 21
140.0
 31
0.0
  0
LINE
  5
5A00
  8
0
 10
174.33964880482239
 20
120.5
 30
0.0
 11
204.84142135337041
 21
120.5
 31
0.0
  0
LINE
  5
5A01
  8
0
 10
174.33964880482239
 20
119.5
 30
0.0
 11
174.25652023253821
 21
119.7171572875254
 31
0.0
  0
LINE
  5
5A03
  8
0
 10
204.84142135337041
 20
119.5
 30
0.0
 11
204.64073122674091
 21
119.7171572875254
 31
0.0
  0
LINE
  5
5A04
  8
0
 10
204.37933594901389
 20
140.5
 30
0.0
 11
204.84142135337041
 21
140.0
 31
0.0
  0
LINE
  5
5A05
  8
0
 10
174.14824676336329
 20
140.5
 30
0.0
 11
174.33964880482239
 21
140.0
 31
0.0
  0
LINE
  5
5A08
  8
0
 10
174.25652023253821
 20
120.2828427124746
 30
0.0
 11
174.33964880482239
 21
120.5
 31
0.0
  0
LINE
  5
5A09
  8
0
 10
204.64073122674091
 20
120.2828427124746
 30
0.0
 11
204.84142135337041
 21
120.5
 31
0.0
  0
ARC
  5
5A0B
  8
0
 10
175.0845514957899
 20
120.0
 30
0.0
 40
0.8750061559338673
 50
161.14062405289931
 51
198.8593759471006
  0
ARC
  5
5A0C
  8
0
 10
95.046904702342076
 20
120.0
 30
0.0
 40
0.4213921128827363
 50
317.83945737987079
 51
42.16054262012927
  0
ARC
  5
5A0D
  8
0
 10
204.95309529765791
 20
120.0
 30
0.0
 40
0.4213921128827784
 50
137.83945737987551
 51
222.16054262012929
  0
LINE
  5
5A0E
  8
0
 10
94.010528349534297
 20
120.5
 30
0.0
 11
94.010528349534297
 21
140.0
 31
0.0
  0
LINE
  5
5A0F
  8
0
 10
94.472613753890755
 20
140.5
 30
0.0
 11
94.010528349534297
 21
140.0
 31
0.0
  0
LINE
  5
5A11
  8
0
 10
94.010528349534297
 20
119.5
 30
0.0
 11
94.211218476163594
 21
119.7171572875254
 31
0.0
  0
ARC
  5
5A12
  8
0
 10
93.89885440524688
 20
120.0
 30
0.0
 40
0.4213921128827132
 50
317.83945737986642
 51
42.160542620138472
  0
LINE
  5
5A13
  8
0
 10
94.211218476163594
 20
120.2828427124746
 30
0.0
 11
94.010528349534297
 21
120.5
 31
0.0
  0
LINE
  5
5A14
  8
0
 10
205.9894716504657
 20
120.5
 30
0.0
 11
205.9894716504657
 21
140.0
 31
0.0
  0
LINE
  5
5A15
  8
0
 10
210.0
 20
140.0
 30
0.0
 11
205.9894716504657
 21
140.0
 31
0.0
  0
LINE
  5
5A16
  8
0
 10
205.9894716504657
 20
120.5
 30
0.0
 11
210.0
 21
120.5
 31
0.0
  0
LINE
  5
5A17
  8
0
 10
205.78878152383621
 20
120.2828427124746
 30
0.0
 11
205.9894716504657
 21
120.5
 31
0.0
  0
LINE
  5
5A18
  8
0
 10
205.9894716504657
 20
119.5
 30
0.0
 11
205.78878152383621
 21
119.7171572875254
 31
0.0
  0
LINE
  5
5A19
  8
0
 10
205.52738624610919
 20
140.5
 30
0.0
 11
205.9894716504657
 21
140.0
 31
0.0
  0
LINE
  5
5A1A
  8
0
 10
90.499999999999886
 20
140.5
 30
0.0
 11
209.5
 21
140.5
 31
0.0
  0
ARC
  5
5A1C
  8
0
 10
206.1011455947534
 20
120.0
 30
0.0
 40
0.421392112882966
 50
137.8394573798891
 51
222.1605426201061
  0
LINE
  5
5A1D
  8
0
 10
90.0
 20
120.5
 30
0.0
 11
94.010528349534297
 21
120.5
 31
0.0
  0
LINE
  5
5A1E
  8
0
 10
94.010528349534297
 20
140.0
 30
0.0
 11
90.0
 21
140.0
 31
0.0
  0
LINE
  5
5A20
  8
0
 10
134.99999999999989
 20
101.0
 30
0.0
 11
165.0
 21
101.0
 31
0.0
  0
LINE
  5
5A21
  8
0
 10
164.0
 20
100.0
 30
0.0
 11
135.99999999999989
 21
100.0
 31
0.0
  0
LINE
  5
5A37
  8
2
 10
201.4999999999998
 20
109.0
 30
0.0
 11
174.0
 21
109.0
 31
0.0
  0
LINE
  5
5A49
  8
2
 10
171.4999999999998
 20
105.5
 30
0.0
 11
128.5
 21
105.5
 31
0.0
  0
LINE
  5
5A55
  8
2
 10
141.5
 20
122.641396773545
 30
0.0
 11
158.4999999999998
 21
122.641396773545
 31
0.0
  0
LINE
  5
5A6A
  8
2
 10
199.0
 20
117.5
 30
0.0
 11
186.0
 21
117.5
 31
0.0
  0
LINE
  5
5A74
  8
2
 10
113.9999999999997
 20
117.5
 30
0.0
 11
100.9999999999998
 21
117.5
 31
0.0
  0
LINE
  5
5A90
  8
2
 10
97.5
 20
108.0
 30
0.0
 11
97.5
 21
107.0
 31
0.0
  0
LINE
  5
5A91
  8
2
 10
202.4999999999998
 20
107.0
 30
0.0
 11
202.4999999999998
 21
108.0
 31
0.0
  0
ARC
  5
5A92
  8
2
 10
98.500000000000014
 20
108.0
 30
0.0
 40
1.0
 50
90.0
 51
180.0
  0
ARC
  5
5A93
  8
2
 10
201.4999999999998
 20
108.0
 30
0.0
 40
1.0
 50
0.0
 51
90.0
  0
ARC
  5
5AA0
  8
2
 10
125.9999999999998
 20
107.0
 30
0.0
 40
2.0
 50
0.0
 51
90.0
  0
ARC
  5
5AA1
  8
2
 10
174.0
 20
107.0
 30
0.0
 40
2.0
 50
90.0
 51
180.0
  0
LINE
  5
5AA2
  8
2
 10
127.9999999999998
 20
107.0
 30
0.0
 11
127.9999999999998
 21
106.0
 31
0.0
  0
LINE
  5
5AA3
  8
2
 10
172.0
 20
106.0
 30
0.0
 11
172.0
 21
107.0
 31
0.0
  0
LINE
  5
5AA4
  8
2
 10
127.9999999999998
 20
106.0
 30
0.0
 11
128.5
 21
105.5
 31
0.0
  0
LINE
  5
5AA5
  8
2
 10
171.4999999999998
 20
105.5
 30
0.0
 11
172.0
 21
106.0
 31
0.0
  0
ARC
  5
5AA6
  8
2
 10
133.9999999999998
 20
104.5
 30
0.0
 40
1.0
 50
0.0
 51
90.0
  0
ARC
  5
5AA7
  8
2
 10
166.0
 20
104.5
 30
0.0
 40
1.0
 50
90.0
 51
180.0
  0
LINE
  5
5AA8
  8
2
 10
134.99999999999969
 20
104.5
 30
0.0
 11
134.99999999999969
 21
103.90000000000011
 31
0.0
  0
LINE
  5
5AA9
  8
2
 10
165.0
 20
103.90000000000011
 30
0.0
 11
165.0
 21
104.5
 31
0.0
  0
LINE
  5
5AAE
  8
2
 10
141.5
 20
122.641396773545
 30
0.0
 11
141.50000000000011
 21
100.0
 31
0.0
  0
LINE
  5
5AAF
  8
2
 10
158.4999999999998
 20
100.0
 30
0.0
 11
158.4999999999998
 21
122.641396773545
 31
0.0
  0
LINE
  5
5AB6
  8
2
 10
199.0
 20
109.0
 30
0.0
 11
199.0
 21
117.5
 31
0.0
  0
LINE
  5
5AB7
  8
2
 10
186.0
 20
117.5
 30
0.0
 11
186.0
 21
109.0
 31
0.0
  0
LINE
  5
5AB8
  8
2
 10
113.9999999999997
 20
109.0
 30
0.0
 11
113.9999999999997
 21
117.5
 31
0.0
  0
LINE
  5
5AB9
  8
2
 10
100.9999999999998
 20
117.5
 30
0.0
 11
100.9999999999998
 21
109.0
 31
0.0
  0
LINE
  5
5ABA
  8
2
 10
134.99999999999969
 20
140.5
 30
0.0
 11
141.5
 21
122.641396773545
 31
0.0
  0
LINE
  5
5ABB
  8
2
 10
158.4999999999998
 20
122.641396773545
 30
0.0
 11
165.0
 21
140.5
 31
0.0
  0
CIRCLE
  5
5B07
  8
0
 10
150.00000000000711
 20
260.5
 30
0.0
 40
60.0
  0
CIRCLE
  5
5B08
  8
0
 10
150.00000000000739
 20
260.5
 30
0.0
 40
8.5
  0
LINE
  5
5C2B
  8
2
 10
125.9999999999998
 20
109.0
 30
0.0
 11
98.500000000000014
 21
109.0
 31
0.0
  0
LINE
  5
5C2D
  8
1
 10
150.00000000000711
 20
330.5
 30
0.0
 11
150.00000000000711
 21
190.5
 31
0.0
  0
LINE
  5
5C2E
  8
1
 10
109.0000000000075
 20
104.0
 30
0.0
 11
109.0000000000075
 21
122.5
 31
0.0
  0
LINE
  5
5C2F
  8
1
 10
106.0000000000075
 20
104.0
 30
0.0
 11
106.0000000000075
 21
122.5
 31
0.0
  0
LINE
  5
5C30
  8
1
 10
194.0000000000075
 20
104.0
 30
0.0
 11
194.0000000000075
 21
122.5
 31
0.0
  0
LINE
  5
5C31
  8
1
 10
191.0000000000075
 20
104.0
 30
0.0
 11
191.0000000000075
 21
122.5
 31
0.0
  0
LINE
  5
5C32
  8
1
 10
220.00000000000699
 20
260.5
 30
0.0
 11
80.000000000007148
 21
260.5
 31
0.0
  0
LINE
  5
5C36
  8
1
 10
150.00000000000711
 20
150.5
 30
0.0
 11
150.00000000000711
 21
90.0
 31
0.0
  0
LINE
  5
5C3F
  8
1
 10
194.0000000000075
 20
250.5
 30
0.0
 11
194.0000000000075
 21
270.5
 31
0.0
  0
LINE
  5
5C40
  8
1
 10
191.0000000000075
 20
250.5
 30
0.0
 11
191.0000000000075
 21
270.5
 31
0.0
  0
LINE
  5
5C41
  8
1
 10
109.0000000000075
 20
250.5
 30
0.0
 11
109.0000000000075
 21
270.5
 31
0.0
  0
LINE
  5
5C42
  8
1
 10
106.0000000000075
 20
250.5
 30
0.0
 11
106.0000000000075
 21
270.5
 31
0.0
  0
ENDSEC
  0
EOF
