  0
SECTION
  2
HEADER
  9
$ACADVER
  1
AC1009
  9
$INSBASE
 10
0.0
 20
0.0
 30
0.0
  9
$EXTMIN
 10
0.0
 20
-2.960436562073669
 30
0.0
  9
$EXTMAX
 10
391.9999999999996
 20
245.99999999999321
 30
0.0
  9
$LIMMIN
 10
0.0
 20
0.0
  9
$LIMMAX
 10
375.0
 20
270.0
  9
$ORTHOMODE
 70
     1
  9
$REGENMODE
 70
     1
  9
$FILLMODE
 70
     1
  9
$QTEXTMODE
 70
     0
  9
$MIRRTEXT
 70
     0
  9
$DRAGMODE
 70
     2
  9
$LTSCALE
 40
10.0
  9
$OSMODE
 70
  3071
  9
$ATTMODE
 70
     1
  9
$TEXTSIZE
 40
6.0
  9
$TRACEWID
 40
0.05
  9
$TEXTSTYLE
  7
STANDARD
  9
$CLAYER
  8
0
  9
$CELTYPE
  6
BYLAYER
  9
$CECOLOR
 62
   256
  9
$DIMSCALE
 40
1.0
  9
$DIMASZ
 40
3.0
  9
$DIMEXO
 40
2.0
  9
$DIMDLI
 40
0.3799999999999999
  9
$DIMRND
 40
0.0
  9
$DIMDLE
 40
0.0
  9
$DIMEXE
 40
2.0
  9
$DIMTP
 40
0.0
  9
$DIMTM
 40
0.0
  9
$DIMTXT
 40
3.2000000000000002
  9
$DIMCEN
 40
0.09
  9
$DIMTSZ
 40
0.0
  9
$DIMTOL
 70
     0
  9
$DIMLIM
 70
     0
  9
$DIMTIH
 70
     0
  9
$DIMTOH
 70
     0
  9
$DIMSE1
 70
     0
  9
$DIMSE2
 70
     0
  9
$DIMTAD
 70
     1
  9
$DIMZIN
 70
     9
  9
$DIMBLK
  1

  9
$DIMASO
 70
     0
  9
$DIMSHO
 70
     0
  9
$DIMPOST
  1

  9
$DIMAPOST
  1

  9
$DIMALT
 70
     0
  9
$DIMALTD
 70
     2
  9
$DIMALTF
 40
25.399999999999999
  9
$DIMLFAC
 40
1.0
  9
$DIMTOFL
 70
     0
  9
$DIMTVP
 40
0.0
  9
$DIMTIX
 70
     0
  9
$DIMSOXD
 70
     0
  9
$DIMSAH
 70
     0
  9
$DIMBLK1
  1

  9
$DIMBLK2
  1

  9
$DIMSTYLE
  2
STANDARD
  9
$DIMCLRD
 70
     0
  9
$DIMCLRE
 70
     0
  9
$DIMCLRT
 70
     0
  9
$DIMTFAC
 40
1.0
  9
$DIMGAP
 40
0.09
  9
$LUNITS
 70
     2
  9
$LUPREC
 70
     4
  9
$SKETCHINC
 40
0.1
  9
$FILLETRAD
 40
20.0
  9
$AUNITS
 70
     0
  9
$AUPREC
 70
     3
  9
$MENU
  1
E:\r13\win\SUPPORT\ACAD
  9
$ELEVATION
 40
0.0
  9
$PELEVATION
 40
0.0
  9
$THICKNESS
 40
0.0
  9
$LIMCHECK
 70
     0
  9
$BLIPMODE
 70
     0
  9
$CHAMFERA
 40
0.0
  9
$CHAMFERB
 40
0.0
  9
$SKPOLY
 70
     0
  9
$TDCREATE
 40
2449840.6320370371
  9
$TDUPDATE
 40
2456598.497758796
  9
$TDINDWG
 40
1.3976656944000001
  9
$TDUSRTIMER
 40
1.3976656944000001
  9
$USRTIMER
 70
     1
  9
$ANGBASE
 50
0.0
  9
$ANGDIR
 70
     0
  9
$PDMODE
 70
     0
  9
$PDSIZE
 40
0.0
  9
$PLINEWID
 40
0.0
  9
$COORDS
 70
     1
  9
$SPLFRAME
 70
     0
  9
$SPLINETYPE
 70
     6
  9
$SPLINESEGS
 70
     8
  9
$ATTDIA
 70
     0
  9
$ATTREQ
 70
     1
  9
$HANDLING
 70
     1
  9
$HANDSEED
  5
17808
  9
$SURFTAB1
 70
     6
  9
$SURFTAB2
 70
     6
  9
$SURFTYPE
 70
     6
  9
$SURFU
 70
     6
  9
$SURFV
 70
     6
  9
$UCSNAME
  2

  9
$UCSORG
 10
0.0
 20
0.0
 30
0.0
  9
$UCSXDIR
 10
1.0
 20
0.0
 30
0.0
  9
$UCSYDIR
 10
0.0
 20
1.0
 30
0.0
  9
$PUCSNAME
  2

  9
$PUCSORG
 10
0.0
 20
0.0
 30
0.0
  9
$PUCSXDIR
 10
1.0
 20
0.0
 30
0.0
  9
$PUCSYDIR
 10
0.0
 20
1.0
 30
0.0
  9
$USERI1
 70
     0
  9
$USERI2
 70
     1
  9
$USERI3
 70
     0
  9
$USERI4
 70
     0
  9
$USERI5
 70
     0
  9
$USERR1
 40
0.0
  9
$USERR2
 40
0.0
  9
$USERR3
 40
0.0
  9
$USERR4
 40
0.0
  9
$USERR5
 40
0.0
  9
$WORLDVIEW
 70
     1
  9
$SHADEDGE
 70
     3
  9
$SHADEDIF
 70
    70
  9
$TILEMODE
 70
     1
  9
$MAXACTVP
 70
    16
  9
$PLIMCHECK
 70
     0
  9
$PEXTMIN
 10
1.0000000000000000E+020
 20
1.0000000000000000E+020
 30
1.0000000000000000E+020
  9
$PEXTMAX
 10
-1.0000000000000000E+020
 20
-1.0000000000000000E+020
 30
-1.0000000000000000E+020
  9
$PLIMMIN
 10
0.0
 20
0.0
  9
$PLIMMAX
 10
12.0
 20
9.0
  9
$UNITMODE
 70
     0
  9
$VISRETAIN
 70
     0
  9
$PLINEGEN
 70
     0
  9
$PSLTSCALE
 70
     0
  0
ENDSEC
  0
SECTION
  2
TABLES
  0
TABLE
  2
VPORT
 70
     1
  0
VPORT
  2
*ACTIVE
 70
     0
 10
0.0
 20
0.0
 11
1.0
 21
1.0
 12
203.563830854131
 22
133.5127261426681
 13
0.0
 23
0.0
 14
10.0
 24
10.0
 15
10.0
 25
10.0
 16
0.0
 26
0.0
 36
1.0
 17
0.0
 27
0.0
 37
0.0
 40
275.42274993631997
 41
1.831871345029239
 42
50.0
 43
0.0
 44
0.0
 50
0.0
 51
0.0
 71
     0
 72
   500
 73
     1
 74
     0
 75
     0
 76
     0
 77
     0
 78
     0
  0
ENDTAB
  0
TABLE
  2
LTYPE
 70
     3
  0
LTYPE
  2
CONTINUOUS
 70
     0
  3
Solid Line
 72
    65
 73
     0
 40
0.0
  0
LTYPE
  2
CENTER
 70
     0
  3
____ _ ____ _ ____ _ ____ _ ____ _ ____ _ ____
 72
    65
 73
     4
 40
2.0
 49
1.25
 49
-0.25
 49
0.25
 49
-0.25
  0
LTYPE
  2
PHANTOM2
 70
     0
  3
___ _ _ ___ _ _ ___ _ _ ___ _ _
 72
    65
 73
     6
 40
1.25
 49
0.625
 49
-0.125
 49
0.125
 49
-0.125
 49
0.125
 49
-0.125
  0
ENDTAB
  0
TABLE
  2
LAYER
 70
     4
  0
LAYER
  2
0
 70
     0
 62
     7
  6
CONTINUOUS
  0
LAYER
  2
1
 70
     0
 62
     1
  6
CENTER
  0
LAYER
  2
DEFPOINTS
 70
     0
 62
     7
  6
CONTINUOUS
  0
LAYER
  2
3
 70
     0
 62
     3
  6
CONTINUOUS
  0
ENDTAB
  0
TABLE
  2
STYLE
 70
     2
  0
STYLE
  2
STANDARD
 70
     0
 40
0.0
 41
1.0
 50
0.0
 71
     0
 42
6.0
  3
TXT
  4
BIGFONT
  0
STYLE
  2
STANDARD1
 70
     0
 40
0.0
 41
1.0
 50
0.0
 71
     0
 42
3.0
  3
txt
  4

  0
ENDTAB
  0
TABLE
  2
VIEW
 70
     1
  0
VIEW
  2
ALL
 70
     0
 40
270.0
 10
213.25689075630251
 20
135.0
 41
0.0
 11
0.0
 21
0.0
 31
1.0
 12
0.0
 22
0.0
 32
0.0
 42
0.0
 43
0.0
 44
0.0
 50
0.0
 71
     0
  0
ENDTAB
  0
TABLE
  2
UCS
 70
     0
  0
ENDTAB
  0
TABLE
  2
APPID
 70
     6
  0
APPID
  2
ACAD
 70
     0
  0
APPID
  2
ACAD_EXEMPT_FROM_CAD_STANDARDS
 70
     0
  0
APPID
  2
ACAD_MLEADERVER
 70
     0
  0
APPID
  2
ACAD_DSTYLE_DIMJAG
 70
     0
  0
APPID
  2
ACAD_DSTYLE_DIMTALN
 70
     0
  0
APPID
  2
ACAD_NAV_VCDISPLAY
 70
     0
  0
ENDTAB
  0
TABLE
  2
DIMSTYLE
 70
     1
  0
DIMSTYLE
  2
STANDARD
 70
     0
  3

  4

  5

  6

  7

 40
1.0
 41
0.18
 42
0.0625
 43
0.38
 44
0.18
 45
0.0
 46
0.0
 47
0.0
 48
0.0
140
0.18
141
0.09
142
0.0
143
25.399999999999999
144
1.0
145
0.0
146
1.0
147
0.09
 71
     0
 72
     0
 73
     1
 74
     1
 75
     0
 76
     0
 77
     0
 78
     0
170
     0
171
     2
172
     0
173
     0
174
     0
175
     0
176
     0
177
     0
178
     0
  0
ENDTAB
  0
ENDSEC
  0
SECTION
  2
BLOCKS
  0
BLOCK
  8
0
  2
$MODEL_SPACE
 70
     0
 10
0.0
 20
0.0
 30
0.0
  3
$MODEL_SPACE
  1

  0
ENDBLK
  5
126
  8
0
  0
BLOCK
 67
     1
  8
0
  2
$PAPER_SPACE
 70
     0
 10
0.0
 20
0.0
 30
0.0
  3
$PAPER_SPACE
  1

  0
ENDBLK
  5
124
 67
     1
  8
0
  0
ENDSEC
  0
SECTION
  2
ENTITIES
  0
LINE
  5
1713D
  8
0
 10
240.0
 20
21.999999999993179
 30
0.0
 11
240.0
 21
27.999999999993179
 31
0.0
  0
LINE
  5
1713E
  8
0
 10
234.0
 20
27.999999999993179
 30
0.0
 11
234.0
 21
21.999999999993179
 31
0.0
  0
LINE
  5
1713F
  8
0
 10
234.00000000000139
 20
21.999999999993179
 30
0.0
 11
234.53589838488011
 21
20.0
 31
0.0
  0
LINE
  5
17140
  8
0
 10
239.46410161511989
 20
20.0
 30
0.0
 11
239.99999999999869
 21
21.999999999993179
 31
0.0
  0
LINE
  5
17141
  8
0
 10
178.0
 20
21.999999999993179
 30
0.0
 11
178.0
 21
27.999999999993179
 31
0.0
  0
LINE
  5
17142
  8
0
 10
172.0
 20
27.999999999993179
 30
0.0
 11
172.0
 21
21.999999999993179
 31
0.0
  0
LINE
  5
17143
  8
0
 10
172.00000000000131
 20
21.999999999993179
 30
0.0
 11
172.53589838488
 21
20.0
 31
0.0
  0
LINE
  5
17144
  8
0
 10
177.46410161511989
 20
20.0
 30
0.0
 11
177.99999999999861
 21
21.999999999993179
 31
0.0
  0
LINE
  5
17145
  8
0
 10
237.0
 20
63.999999999993179
 30
0.0
 11
231.0
 21
63.999999999993179
 31
0.0
  0
LINE
  5
17146
  8
0
 10
231.0
 20
45.999999999993179
 30
0.0
 11
237.0
 21
45.999999999993179
 31
0.0
  0
LINE
  5
17147
  8
0
 10
214.69999999999979
 20
60.999999999993179
 30
0.0
 11
213.5
 21
60.999999999993179
 31
0.0
  0
LINE
  5
17148
  8
0
 10
207.5
 20
60.999999999993179
 30
0.0
 11
204.5
 21
60.999999999993179
 31
0.0
  0
LINE
  5
17149
  8
0
 10
198.5
 20
60.999999999993179
 30
0.0
 11
197.30000000000021
 21
60.999999999993179
 31
0.0
  0
LINE
  5
1714A
  8
0
 10
197.30000000000021
 20
48.999999999993179
 30
0.0
 11
198.5
 21
48.999999999993179
 31
0.0
  0
LINE
  5
1714B
  8
0
 10
204.5
 20
48.999999999993179
 30
0.0
 11
207.5
 21
48.999999999993179
 31
0.0
  0
LINE
  5
1714C
  8
0
 10
213.5
 20
48.999999999993179
 30
0.0
 11
214.69999999999979
 21
48.999999999993179
 31
0.0
  0
LINE
  5
1714D
  8
0
 10
237.93674969975251
 20
27.999999999993179
 30
0.0
 11
237.9367496997574
 21
21.99999999999272
 31
0.0
  0
LINE
  5
1714E
  8
0
 10
236.06325030024121
 20
21.999999999994088
 30
0.0
 11
236.06325030024621
 21
27.999999999993179
 31
0.0
  0
LINE
  5
1714F
  8
0
 10
237.9367496997574
 20
21.99999999999272
 30
0.0
 11
240.0
 21
21.999999999993179
 31
0.0
  0
LINE
  5
17150
  8
0
 10
234.0
 20
21.999999999993179
 30
0.0
 11
236.06325030024121
 21
21.999999999994088
 31
0.0
  0
POLYLINE
  5
17151
  8
0
 66
     1
 10
0.0
 20
0.0
 30
0.0
 70
   128
  0
VERTEX
  5
177B4
  8
0
 10
237.93674969975521
 20
21.999999999992269
 30
0.0
  0
VERTEX
  5
177B5
  8
0
 10
237.64146529392841
 20
21.706277402480971
 30
0.0
  0
VERTEX
  5
177B6
  8
0
 10
237.28057635981531
 20
21.491611702030919
 30
0.0
  0
VERTEX
  5
177B7
  8
0
 10
237.01547657932409
 20
21.44034920538024
 30
0.0
  0
VERTEX
  5
177B8
  8
0
 10
236.7480020086619
 20
21.48168974019336
 30
0.0
  0
VERTEX
  5
177B9
  8
0
 10
236.42855361987449
 20
21.651893435819151
 30
0.0
  0
VERTEX
  5
177BA
  8
0
 10
236.06325030024249
 20
21.999999999995001
 30
0.0
  0
SEQEND
  5
177BB
  8
0
  0
LINE
  5
17153
  8
0
 10
234.53589838488011
 20
20.0
 30
0.0
 11
239.46410161511989
 21
19.999999999999972
 31
0.0
  0
LINE
  5
17154
  8
0
 10
175.9367496997524
 20
27.999999999993179
 30
0.0
 11
175.9367496997574
 21
21.99999999999272
 31
0.0
  0
LINE
  5
17155
  8
0
 10
174.06325030024121
 20
21.999999999994088
 30
0.0
 11
174.06325030024621
 21
27.999999999993179
 31
0.0
  0
LINE
  5
17156
  8
0
 10
175.9367496997574
 20
21.99999999999272
 30
0.0
 11
178.0
 21
21.999999999993179
 31
0.0
  0
LINE
  5
17157
  8
0
 10
172.0
 20
21.999999999993179
 30
0.0
 11
174.06325030024121
 21
21.999999999994088
 31
0.0
  0
POLYLINE
  5
17158
  8
0
 66
     1
 10
0.0
 20
0.0
 30
0.0
 70
   128
  0
VERTEX
  5
177BC
  8
0
 10
175.93674969975521
 20
21.999999999992269
 30
0.0
  0
VERTEX
  5
177BD
  8
0
 10
175.64146529392841
 20
21.706277402480971
 30
0.0
  0
VERTEX
  5
177BE
  8
0
 10
175.28057635981531
 20
21.491611702030919
 30
0.0
  0
VERTEX
  5
177BF
  8
0
 10
175.015476579324
 20
21.44034920538024
 30
0.0
  0
VERTEX
  5
177C0
  8
0
 10
174.74800200866181
 20
21.48168974019336
 30
0.0
  0
VERTEX
  5
177C1
  8
0
 10
174.42855361987449
 20
21.651893435819151
 30
0.0
  0
VERTEX
  5
177C2
  8
0
 10
174.06325030024249
 20
21.999999999995001
 30
0.0
  0
SEQEND
  5
177C3
  8
0
  0
LINE
  5
1715A
  8
0
 10
172.53589838488
 20
20.0
 30
0.0
 11
177.46410161511949
 21
19.999999999999972
 31
0.0
  0
LINE
  5
1715D
  8
0
 10
207.5
 20
69.499999999993179
 30
0.0
 11
204.5
 21
69.499999999993179
 31
0.0
  0
LINE
  5
1715E
  8
0
 10
204.5
 20
74.999999999993165
 30
0.0
 11
207.5
 21
74.999999999993165
 31
0.0
  0
LINE
  5
1715F
  8
0
 10
237.0
 20
63.999999999993179
 30
0.0
 11
237.0
 21
45.999999999993179
 31
0.0
  0
ARC
  5
17160
  8
0
 10
181.5
 20
72.625181439890184
 30
0.0
 40
0.5
 50
59.500000000008903
 51
180.0
  0
ARC
  5
17161
  8
0
 10
194.30000000000021
 20
65.39999999999327
 30
0.0
 40
3.0
 50
0.0
 51
90.0
  0
ARC
  5
17162
  8
0
 10
194.30000000000021
 20
44.599999999993322
 30
0.0
 40
3.0
 50
270.0
 51
0.0
  0
LINE
  5
17163
  8
0
 10
194.30000000000021
 20
41.599999999993308
 30
0.0
 11
189.93071320041511
 21
41.599999999993308
 31
0.0
  0
ARC
  5
17164
  8
0
 10
189.93071320041511
 20
40.599999999993308
 30
0.0
 40
1.0
 50
90.0
 51
120.4999999999911
  0
LINE
  5
17165
  8
0
 10
189.4231748374545
 20
41.461629160434761
 30
0.0
 11
181.75376918148049
 21
36.944003979875788
 31
0.0
  0
ARC
  5
17166
  8
0
 10
181.5
 20
37.374818560096628
 30
0.0
 40
0.5
 50
180.0
 51
300.49999999999108
  0
LINE
  5
17167
  8
0
 10
189.93071320041511
 20
68.39999999999327
 30
0.0
 11
194.30000000000021
 21
68.39999999999327
 31
0.0
  0
LINE
  5
17168
  8
0
 10
197.30000000000021
 20
65.39999999999327
 30
0.0
 11
197.30000000000021
 21
44.599999999993322
 31
0.0
  0
ARC
  5
17169
  8
0
 10
189.93071320041511
 20
69.39999999999327
 30
0.0
 40
1.0
 50
239.5000000000089
 51
270.0
  0
LINE
  5
1716A
  8
0
 10
181.0
 20
37.374818560096628
 30
0.0
 11
181.0
 21
72.625181439890184
 31
0.0
  0
LINE
  5
1716B
  8
0
 10
181.75376918148049
 20
73.055996020111024
 30
0.0
 11
189.4231748374545
 21
68.538370839551817
 31
0.0
  0
ARC
  5
1716C
  8
0
 10
222.06928679958489
 20
69.39999999999327
 30
0.0
 40
1.0
 50
270.0
 51
300.49999999999108
  0
LINE
  5
1716D
  8
0
 10
214.69999999999979
 20
65.39999999999327
 30
0.0
 11
214.69999999999979
 21
44.599999999993081
 31
0.0
  0
LINE
  5
1716E
  8
0
 10
222.06928679958489
 20
68.39999999999327
 30
0.0
 11
217.69999999999979
 21
68.39999999999327
 31
0.0
  0
ARC
  5
1716F
  8
0
 10
217.69999999999979
 20
44.599999999993081
 30
0.0
 40
3.000000000000028
 50
180.0
 51
270.0
  0
LINE
  5
17170
  8
0
 10
230.24623081851951
 20
73.055996020110797
 30
0.0
 11
222.5768251625455
 21
68.53837083955159
 31
0.0
  0
ARC
  5
17171
  8
0
 10
230.5
 20
72.625181439889957
 30
0.0
 40
0.5000000000000026
 50
0.0
 51
120.4999999999894
  0
ARC
  5
17172
  8
0
 10
230.5
 20
37.374818560096401
 30
0.0
 40
0.5000000000000026
 50
239.5000000000106
 51
0.0
  0
ARC
  5
17173
  8
0
 10
217.69999999999979
 20
65.39999999999327
 30
0.0
 40
3.000000000000028
 50
90.0
 51
180.0
  0
ARC
  5
17174
  8
0
 10
222.06928679958489
 20
40.599999999993081
 30
0.0
 40
1.0
 50
59.500000000008903
 51
90.0
  0
LINE
  5
17175
  8
0
 10
231.0
 20
37.374818560096401
 30
0.0
 11
231.0
 21
72.625181439889957
 31
0.0
  0
LINE
  5
17176
  8
0
 10
217.69999999999979
 20
41.599999999993088
 30
0.0
 11
222.06928679958489
 21
41.599999999993088
 31
0.0
  0
LINE
  5
17177
  8
0
 10
222.5768251625455
 20
41.461629160434761
 30
0.0
 11
230.24623081851951
 21
36.944003979875561
 31
0.0
  0
ARC
  5
17178
  8
0
 10
241.92426406871209
 20
31.499999999993179
 30
0.0
 40
0.3000000000000145
 50
135.00000000000921
 51
224.9999999999919
  0
LINE
  5
17179
  8
0
 10
241.71213203435579
 20
31.28786796563713
 30
0.0
 11
241.88284271247451
 21
31.11715728751847
 31
0.0
  0
ARC
  5
1717A
  8
0
 10
241.59999999999991
 20
30.834314575043891
 30
0.0
 40
0.4000000000000193
 50
0.0
 51
44.99999999999654
  0
LINE
  5
1717B
  8
0
 10
242.0
 20
27.999999999993179
 30
0.0
 11
242.0
 21
30.834314575043891
 31
0.0
  0
LINE
  5
1717C
  8
0
 10
170.0
 20
34.999999999993179
 30
0.0
 11
170.0
 21
27.999999999993179
 31
0.0
  0
LINE
  5
1717D
  8
0
 10
181.0
 20
34.999999999993179
 30
0.0
 11
170.0
 21
34.999999999993179
 31
0.0
  0
LINE
  5
1717E
  8
0
 10
181.0
 20
36.499999999993179
 30
0.0
 11
181.0
 21
34.999999999993179
 31
0.0
  0
LINE
  5
1717F
  8
0
 10
181.0
 20
36.499999999993179
 30
0.0
 11
188.79422863405989
 21
40.999999999993179
 31
0.0
  0
LINE
  5
17180
  8
0
 10
188.79422863405989
 20
40.999999999993179
 30
0.0
 11
195.5
 21
40.999999999993179
 31
0.0
  0
ARC
  5
17181
  8
0
 10
195.5
 20
43.999999999993179
 30
0.0
 40
3.0
 50
270.0
 51
0.0
  0
LINE
  5
17182
  8
0
 10
198.5
 20
43.999999999993179
 30
0.0
 11
198.5
 21
65.999999999993179
 31
0.0
  0
ARC
  5
17183
  8
0
 10
195.5
 20
65.999999999993179
 30
0.0
 40
3.0
 50
0.0
 51
90.0
  0
LINE
  5
17184
  8
0
 10
195.5
 20
68.999999999993179
 30
0.0
 11
188.79422863405989
 21
68.999999999993179
 31
0.0
  0
LINE
  5
17185
  8
0
 10
188.79422863405989
 20
68.999999999993179
 30
0.0
 11
181.0
 21
73.499999999993179
 31
0.0
  0
LINE
  5
17186
  8
0
 10
181.0
 20
74.834314575043891
 30
0.0
 11
181.0
 21
73.499999999993179
 31
0.0
  0
ARC
  5
17187
  8
0
 10
181.40000000000009
 20
74.834314575043891
 30
0.0
 40
0.4000000000000057
 50
135.00000000000799
 51
180.0
  0
LINE
  5
17188
  8
0
 10
181.11715728752549
 20
75.117157287518467
 30
0.0
 11
181.2878679656441
 21
75.287867965637133
 31
0.0
  0
ARC
  5
17189
  8
0
 10
181.07573593128791
 20
75.499999999993179
 30
0.0
 40
0.2999999999999944
 50
315.00000000000801
 51
44.99999999999654
  0
LINE
  5
1718A
  8
0
 10
181.2878679656441
 20
75.712132034348997
 30
0.0
 11
181.11715728752549
 21
75.882842712467664
 31
0.0
  0
ARC
  5
1718B
  8
0
 10
181.40000000000009
 20
76.165685424942467
 30
0.0
 40
0.4000000000000394
 50
180.0
 51
224.9999999999965
  0
LINE
  5
1718C
  8
0
 10
181.0
 20
90.999999999993165
 30
0.0
 11
181.0
 21
76.165685424942467
 31
0.0
  0
LINE
  5
1718D
  8
0
 10
204.5
 20
90.999999999993165
 30
0.0
 11
181.0
 21
90.999999999993165
 31
0.0
  0
LINE
  5
1718E
  8
0
 10
204.5
 20
90.999999999993165
 30
0.0
 11
204.5
 21
42.499999999993172
 31
0.0
  0
ARC
  5
1718F
  8
0
 10
206.0
 20
42.499999999993172
 30
0.0
 40
1.5
 50
180.0
 51
0.0
  0
LINE
  5
17190
  8
0
 10
207.5
 20
42.499999999993172
 30
0.0
 11
207.5
 21
90.999999999993165
 31
0.0
  0
LINE
  5
17191
  8
0
 10
231.0
 20
90.999999999993165
 30
0.0
 11
207.5
 21
90.999999999993165
 31
0.0
  0
LINE
  5
17192
  8
0
 10
231.0
 20
76.165685424942467
 30
0.0
 11
231.0
 21
90.999999999993165
 31
0.0
  0
ARC
  5
17193
  8
0
 10
230.59999999999991
 20
76.165685424942467
 30
0.0
 40
0.4000000000000796
 50
315.00000000000801
 51
0.0
  0
LINE
  5
17194
  8
0
 10
230.88284271247451
 20
75.882842712467664
 30
0.0
 11
230.71213203435579
 21
75.712132034348997
 31
0.0
  0
ARC
  5
17195
  8
0
 10
230.92426406871209
 20
75.499999999993179
 30
0.0
 40
0.3000000000000145
 50
135.00000000000799
 51
224.9999999999919
  0
LINE
  5
17196
  8
0
 10
230.71213203435579
 20
75.287867965637133
 30
0.0
 11
230.88284271247451
 21
75.117157287518467
 31
0.0
  0
LINE
  5
17197
  8
0
 10
231.0
 20
73.499999999993179
 30
0.0
 11
231.0
 21
74.834314575043891
 31
0.0
  0
LINE
  5
17198
  8
0
 10
231.0
 20
73.499999999993179
 30
0.0
 11
223.20577136594011
 21
68.999999999993179
 31
0.0
  0
LINE
  5
17199
  8
0
 10
223.20577136594011
 20
68.999999999993179
 30
0.0
 11
216.5
 21
68.999999999993179
 31
0.0
  0
ARC
  5
1719A
  8
0
 10
216.5
 20
65.999999999993179
 30
0.0
 40
3.0
 50
90.0
 51
180.0
  0
LINE
  5
1719B
  8
0
 10
213.5
 20
65.999999999993179
 30
0.0
 11
213.5
 21
43.999999999993179
 31
0.0
  0
ARC
  5
1719C
  8
0
 10
216.5
 20
43.999999999993179
 30
0.0
 40
3.0
 50
180.0
 51
270.0
  0
LINE
  5
1719D
  8
0
 10
216.5
 20
40.999999999993179
 30
0.0
 11
223.20577136594011
 21
40.999999999993179
 31
0.0
  0
LINE
  5
1719E
  8
0
 10
223.20577136594011
 20
40.999999999993179
 30
0.0
 11
231.0
 21
36.499999999993179
 31
0.0
  0
LINE
  5
1719F
  8
0
 10
231.0
 20
34.999999999993179
 30
0.0
 11
231.0
 21
36.499999999993179
 31
0.0
  0
ARC
  5
171A0
  8
0
 10
241.59999999999991
 20
32.165685424942467
 30
0.0
 40
0.3999999999999992
 50
315.00000000000801
 51
0.0
  0
LINE
  5
171A1
  8
0
 10
241.88284271247451
 20
31.882842712467671
 30
0.0
 11
241.71213203435579
 21
31.712132034349001
 31
0.0
  0
LINE
  5
171A2
  8
0
 10
170.0
 20
27.999999999993179
 30
0.0
 11
242.0
 21
27.999999999993179
 31
0.0
  0
LINE
  5
171A3
  8
0
 10
242.0
 20
32.165685424942467
 30
0.0
 11
242.0
 21
34.999999999993179
 31
0.0
  0
LINE
  5
171A4
  8
0
 10
242.0
 20
34.999999999993179
 30
0.0
 11
231.0
 21
34.999999999993179
 31
0.0
  0
ARC
  5
171A5
  8
0
 10
230.59999999999991
 20
74.834314575043891
 30
0.0
 40
0.4000000000000394
 50
0.0
 51
44.999999999990777
  0
LINE
  5
171A6
  8
0
 10
237.0
 20
199.99999999999321
 30
0.0
 11
231.0
 21
199.99999999999321
 31
0.0
  0
LINE
  5
171A7
  8
0
 10
231.0
 20
181.99999999999321
 30
0.0
 11
237.0
 21
181.99999999999321
 31
0.0
  0
LINE
  5
171A8
  8
0
 10
207.5
 20
196.99999999999321
 30
0.0
 11
204.5
 21
196.99999999999321
 31
0.0
  0
LINE
  5
171A9
  8
0
 10
204.5
 20
184.99999999999321
 30
0.0
 11
207.5
 21
184.99999999999321
 31
0.0
  0
LINE
  5
171AA
  8
0
 10
237.0
 20
188.14999999999321
 30
0.0
 11
237.93674969973429
 21
188.14999999999321
 31
0.0
  0
LINE
  5
171B0
  8
0
 10
174.06325030026301
 20
188.14999999999321
 30
0.0
 11
175.93674969973469
 21
188.14999999999321
 31
0.0
  0
CIRCLE
  5
171B4
  8
0
 10
175.0
 20
190.99999999999309
 30
0.0
 40
1.6209999999432509
  0
LINE
  5
171BF
  8
0
 10
237.0
 20
199.99999999999321
 30
0.0
 11
237.0
 21
181.99999999999321
 31
0.0
  0
LINE
  5
171C0
  8
0
 10
207.5
 20
240.99999999999289
 30
0.0
 11
207.5
 21
225.2915026221221
 31
0.0
  0
LINE
  5
171C2
  8
0
 10
231.0
 20
240.99999999999289
 30
0.0
 11
231.0
 21
140.99999999999289
 31
0.0
  0
LINE
  5
171C4
  8
0
 10
207.5
 20
156.70849737786369
 30
0.0
 11
207.5
 21
140.99999999999289
 31
0.0
  0
ARC
  5
171C5
  8
0
 10
206.0
 20
161.99999999999289
 30
0.0
 40
5.7000000000000268
 50
285.25752329044599
 51
74.742476709553955
  0
LINE
  5
171C6
  8
0
 10
207.5
 20
214.70849737786381
 30
0.0
 11
207.5
 21
167.2915026221221
 31
0.0
  0
ARC
  5
171C7
  8
0
 10
206.0
 20
219.99999999999301
 30
0.0
 40
5.7000000000000268
 50
285.25752329044599
 51
74.742476709553955
  0
ARC
  5
171C8
  8
0
 10
206.0
 20
161.99999999999289
 30
0.0
 40
5.7000000000000268
 50
105.257523290446
 51
254.7424767095539
  0
LINE
  5
171CA
  8
0
 10
181.0
 20
240.99999999999289
 30
0.0
 11
181.0
 21
140.99999999999289
 31
0.0
  0
ARC
  5
171CB
  8
0
 10
206.0
 20
219.99999999999301
 30
0.0
 40
5.7000000000000268
 50
105.257523290446
 51
254.7424767095539
  0
LINE
  5
171CD
  8
0
 10
204.5
 20
240.99999999999289
 30
0.0
 11
204.5
 21
225.2915026221221
 31
0.0
  0
LINE
  5
171CE
  8
0
 10
204.5
 20
156.70849737786369
 30
0.0
 11
204.5
 21
140.99999999999289
 31
0.0
  0
LINE
  5
171CF
  8
0
 10
204.5
 20
214.70849737786381
 30
0.0
 11
204.5
 21
167.2915026221221
 31
0.0
  0
LINE
  5
171E1
  8
0
 10
170.0
 20
240.99999999999321
 30
0.0
 11
170.0
 21
140.99999999999309
 31
0.0
  0
LINE
  5
171E2
  8
0
 10
242.0
 20
140.99999999999309
 30
0.0
 11
170.0
 21
140.99999999999309
 31
0.0
  0
LINE
  5
171E3
  8
0
 10
242.0
 20
240.99999999999321
 30
0.0
 11
170.0
 21
240.99999999999321
 31
0.0
  0
LINE
  5
171E7
  8
0
 10
242.0
 20
240.99999999999321
 30
0.0
 11
242.0
 21
140.99999999999309
 31
0.0
  0
CIRCLE
  5
171EA
  8
0
 10
175.0
 20
219.99999999999321
 30
0.0
 40
2.7499999999999432
  0
CIRCLE
  5
171EB
  8
0
 10
237.0
 20
219.99999999999321
 30
0.0
 40
2.75
  0
CIRCLE
  5
171EC
  8
0
 10
175.0
 20
190.99999999999309
 30
0.0
 40
3.0
  0
ARC
  5
171ED
  8
0
 10
237.0
 20
190.99999999999309
 30
0.0
 40
3.0
 50
270.0
 51
90.0
  0
CIRCLE
  5
171EE
  8
0
 10
175.0
 20
161.99999999999309
 30
0.0
 40
2.7499999999999432
  0
CIRCLE
  5
171EF
  8
0
 10
237.0
 20
161.99999999999309
 30
0.0
 40
2.7499999999999432
  0
LINE
  5
17205
  8
0
 10
67.000000000000909
 20
21.999999999993179
 30
0.0
 11
67.535898384880056
 21
20.0
 31
0.0
  0
LINE
  5
17206
  8
0
 10
72.464101615119944
 20
20.0
 30
0.0
 11
72.849999999999909
 21
21.440192378881651
 31
0.0
  0
LINE
  5
17207
  8
0
 10
67.0
 20
27.999999999993179
 30
0.0
 11
67.0
 21
21.999999999993179
 31
0.0
  0
LINE
  5
17208
  8
0
 10
50.007257164466409
 20
73.125181439889957
 30
0.0
 11
20.0
 21
73.125181439889957
 31
0.0
  0
LINE
  5
17209
  8
0
 10
120.0
 20
73.125181439890184
 30
0.0
 11
89.993960495452939
 21
73.125181439890184
 31
0.0
  0
LINE
  5
1720A
  8
0
 10
89.992742835533136
 20
36.874818560096628
 30
0.0
 11
119.9999999999995
 21
36.874818560096628
 31
0.0
  0
LINE
  5
1720B
  8
0
 10
19.999999999999542
 20
36.874818560096401
 30
0.0
 11
50.0060395045466
 21
36.874818560096401
 31
0.0
  0
LINE
  5
1720D
  8
0
 10
67.000000000000909
 20
21.999999999993179
 30
0.0
 11
72.849999999999909
 21
21.999999999994088
 31
0.0
  0
LINE
  5
1720E
  8
0
 10
67.535898384880056
 20
20.0
 30
0.0
 11
72.464101615119944
 21
20.0
 31
0.0
  0
LINE
  5
1720F
  8
0
 10
72.849999999999454
 20
21.44019237888082
 30
0.0
 11
72.849999999999909
 21
27.999999999993179
 31
0.0
  0
CIRCLE
  5
17210
  8
0
 10
70.0
 20
54.999999999993172
 30
0.0
 40
6.0
  0
CIRCLE
  5
17211
  8
3
 10
70.0
 20
54.999999999993172
 30
0.0
 40
5.0530000000002806
  0
LINE
  5
17212
  8
0
 10
50.5
 20
72.87895062137045
 30
0.0
 11
89.500000000000014
 21
72.878950621370663
 31
0.0
  0
POLYLINE
  5
17213
  8
0
 66
     1
 10
0.0
 20
0.0
 30
0.0
 70
   128
  0
VERTEX
  5
177C4
  8
0
 10
89.500000000000014
 20
72.878950621370663
 30
0.0
  0
VERTEX
  5
177C5
  8
0
 10
89.664069214074516
 20
72.902415665273793
 30
0.0
  0
VERTEX
  5
177C6
  8
0
 10
89.809826483754478
 20
72.965687646171091
 30
0.0
  0
VERTEX
  5
177C7
  8
0
 10
89.914944336775065
 20
73.043257962617417
 30
0.0
  0
VERTEX
  5
177C8
  8
0
 10
89.969060830389026
 20
73.098844482465893
 30
0.0
  0
VERTEX
  5
177C9
  8
0
 10
89.992239839393733
 20
73.123986470834552
 30
0.0
  0
VERTEX
  5
177CA
  8
0
 10
89.993960495452939
 20
73.121436043085851
 30
0.0
  0
SEQEND
  5
177CB
  8
0
  0
POLYLINE
  5
17217
  8
0
 66
     1
 10
0.0
 20
0.0
 30
0.0
 70
   128
  0
VERTEX
  5
177CC
  8
0
 10
50.007257164466409
 20
73.118470296924443
 30
0.0
  0
VERTEX
  5
177CD
  8
0
 10
50.011706638515079
 20
73.120566253529205
 30
0.0
  0
VERTEX
  5
177CE
  8
0
 10
50.05150996466454
 20
73.076145565128627
 30
0.0
  0
VERTEX
  5
177CF
  8
0
 10
50.121620569717379
 20
73.012441420143432
 30
0.0
  0
VERTEX
  5
177D0
  8
0
 10
50.217070036220321
 20
72.950619402085522
 30
0.0
  0
VERTEX
  5
177D1
  8
0
 10
50.345281446320762
 20
72.899789208545599
 30
0.0
  0
VERTEX
  5
177D2
  8
0
 10
50.5
 20
72.87895062137045
 30
0.0
  0
SEQEND
  5
177D3
  8
0
  0
POLYLINE
  5
17218
  8
0
 66
     1
 10
0.0
 20
0.0
 30
0.0
 70
   128
  0
VERTEX
  5
177D4
  8
0
 10
89.992742835533136
 20
36.881529703062149
 30
0.0
  0
VERTEX
  5
177D5
  8
0
 10
89.988293361484466
 20
36.87943374645738
 30
0.0
  0
VERTEX
  5
177D6
  8
0
 10
89.948490035334999
 20
36.923854434857958
 30
0.0
  0
VERTEX
  5
177D7
  8
0
 10
89.878379430282166
 20
36.987558579843153
 30
0.0
  0
VERTEX
  5
177D8
  8
0
 10
89.782929963779225
 20
37.049380597901063
 30
0.0
  0
VERTEX
  5
177D9
  8
0
 10
89.654718553678777
 20
37.100210791440993
 30
0.0
  0
VERTEX
  5
177DA
  8
0
 10
89.499999999999545
 20
37.121049378616142
 30
0.0
  0
SEQEND
  5
177DB
  8
0
  0
LINE
  5
17219
  8
0
 10
89.499999999999545
 20
37.121049378616142
 30
0.0
 11
50.499999999999538
 21
37.121049378616142
 31
0.0
  0
POLYLINE
  5
1721A
  8
0
 66
     1
 10
0.0
 20
0.0
 30
0.0
 70
   128
  0
VERTEX
  5
177DC
  8
0
 10
50.499999999999538
 20
37.121049378616142
 30
0.0
  0
VERTEX
  5
177DD
  8
0
 10
50.335930785925022
 20
37.097584334712792
 30
0.0
  0
VERTEX
  5
177DE
  8
0
 10
50.190173516245068
 20
37.034312353815722
 30
0.0
  0
VERTEX
  5
177DF
  8
0
 10
50.085055663224473
 20
36.956742037369168
 30
0.0
  0
VERTEX
  5
177E0
  8
0
 10
50.030939169610519
 20
36.901155517520692
 30
0.0
  0
VERTEX
  5
177E1
  8
0
 10
50.007760160605812
 20
36.87601352915226
 30
0.0
  0
VERTEX
  5
177E2
  8
0
 10
50.0060395045466
 20
36.878563956900742
 30
0.0
  0
SEQEND
  5
177E3
  8
0
  0
LINE
  5
17222
  8
0
 10
20.0
 20
27.999999999993179
 30
0.0
 11
120.0
 21
27.999999999993179
 31
0.0
  0
LINE
  5
17223
  8
0
 10
20.0
 20
34.999999999993179
 30
0.0
 11
120.0
 21
34.999999999993179
 31
0.0
  0
LINE
  5
17225
  8
0
 10
20.0
 20
36.499999999993179
 30
0.0
 11
120.0
 21
36.499999999993179
 31
0.0
  0
LINE
  5
1722B
  8
0
 10
120.0
 20
74.834314575043891
 30
0.0
 11
20.0
 21
74.834314575043891
 31
0.0
  0
LINE
  5
1722E
  8
0
 10
20.0
 20
73.499999999993179
 30
0.0
 11
120.0
 21
73.499999999993179
 31
0.0
  0
LINE
  5
17231
  8
0
 10
20.0
 20
76.165685424942467
 30
0.0
 11
120.0
 21
76.165685424942467
 31
0.0
  0
LINE
  5
17235
  8
0
 10
20.0
 20
90.999999999993165
 30
0.0
 11
120.0
 21
90.999999999993165
 31
0.0
  0
LINE
  5
17236
  8
0
 10
120.0
 20
90.999999999993165
 30
0.0
 11
120.0
 21
27.999999999993211
 31
0.0
  0
LINE
  5
17237
  8
0
 10
20.0
 20
90.999999999993165
 30
0.0
 11
20.0
 21
27.999999999993211
 31
0.0
  0
LINE
  5
17242
  8
0
 10
344.9999999999996
 20
21.999999999993179
 30
0.0
 11
344.9999999999996
 21
27.999999999993179
 31
0.0
  0
LINE
  5
17243
  8
0
 10
339.14999999999969
 20
21.440192378881651
 30
0.0
 11
339.5358983848796
 21
20.0
 31
0.0
  0
LINE
  5
17244
  8
0
 10
344.46410161511949
 20
20.0
 30
0.0
 11
344.99999999999858
 21
21.999999999993179
 31
0.0
  0
LINE
  5
17245
  8
0
 10
322.00725716446641
 20
73.125181439889957
 30
0.0
 11
292.0
 21
73.125181439889957
 31
0.0
  0
LINE
  5
17246
  8
0
 10
391.9999999999996
 20
73.125181439889957
 30
0.0
 11
361.993960495453
 21
73.125181439889957
 31
0.0
  0
LINE
  5
17247
  8
0
 10
361.99274283553308
 20
36.874818560096401
 30
0.0
 11
391.9999999999996
 21
36.874818560096401
 31
0.0
  0
LINE
  5
17248
  8
0
 10
292.0
 20
36.874818560096401
 30
0.0
 11
322.00603950454661
 21
36.874818560096401
 31
0.0
  0
LINE
  5
17249
  8
0
 10
339.14999999999969
 20
27.999999999993179
 30
0.0
 11
339.14999999999969
 21
21.440192378884039
 31
0.0
  0
LINE
  5
1724A
  8
0
 10
339.14999999999969
 20
21.99999999999272
 30
0.0
 11
344.9999999999996
 21
21.999999999993179
 31
0.0
  0
LINE
  5
1724C
  8
0
 10
339.5358983848796
 20
20.0
 30
0.0
 11
344.46410161511949
 21
20.0
 31
0.0
  0
CIRCLE
  5
1724D
  8
0
 10
342.0
 20
54.999999999993172
 30
0.0
 40
9.0
  0
LINE
  5
1724E
  8
0
 10
342.0
 20
60.773502691889462
 30
0.0
 11
336.9999999999996
 21
57.88675134594132
 31
0.0
  0
LINE
  5
1724F
  8
0
 10
336.9999999999996
 20
57.88675134594132
 30
0.0
 11
336.9999999999996
 21
52.11324865404503
 31
0.0
  0
LINE
  5
17250
  8
0
 10
336.9999999999996
 20
52.11324865404503
 30
0.0
 11
342.0
 21
49.226497308096889
 31
0.0
  0
LINE
  5
17251
  8
0
 10
342.0
 20
49.226497308096889
 30
0.0
 11
347.0
 21
52.11324865404503
 31
0.0
  0
LINE
  5
17252
  8
0
 10
347.0
 20
52.11324865404503
 30
0.0
 11
347.0
 21
57.88675134594132
 31
0.0
  0
LINE
  5
17253
  8
0
 10
347.0
 20
57.88675134594132
 30
0.0
 11
342.0
 21
60.773502691889462
 31
0.0
  0
LINE
  5
17259
  8
0
 10
322.4999999999996
 20
72.878950621370223
 30
0.0
 11
361.5
 21
72.878950621370223
 31
0.0
  0
POLYLINE
  5
1725A
  8
0
 66
     1
 10
0.0
 20
0.0
 30
0.0
 70
   128
  0
VERTEX
  5
177E4
  8
0
 10
361.5
 20
72.878950621370223
 30
0.0
  0
VERTEX
  5
177E5
  8
0
 10
361.66406921407452
 20
72.902415665273566
 30
0.0
  0
VERTEX
  5
177E6
  8
0
 10
361.80982648375448
 20
72.965687646170863
 30
0.0
  0
VERTEX
  5
177E7
  8
0
 10
361.91494433677508
 20
73.04325796261719
 30
0.0
  0
VERTEX
  5
177E8
  8
0
 10
361.96906083038903
 20
73.098844482465665
 30
0.0
  0
VERTEX
  5
177E9
  8
0
 10
361.99223983939368
 20
73.123986470834325
 30
0.0
  0
VERTEX
  5
177EA
  8
0
 10
361.993960495453
 20
73.121436043085623
 30
0.0
  0
SEQEND
  5
177EB
  8
0
  0
POLYLINE
  5
1725C
  8
0
 66
     1
 10
0.0
 20
0.0
 30
0.0
 70
   128
  0
VERTEX
  5
177EC
  8
0
 10
322.00725716446641
 20
73.118470296924443
 30
0.0
  0
VERTEX
  5
177ED
  8
0
 10
322.01170663851508
 20
73.120566253529205
 30
0.0
  0
VERTEX
  5
177EE
  8
0
 10
322.05150996466449
 20
73.076145565128627
 30
0.0
  0
VERTEX
  5
177EF
  8
0
 10
322.12162056971738
 20
73.012441420143205
 30
0.0
  0
VERTEX
  5
177F0
  8
0
 10
322.21707003622078
 20
72.950619402085522
 30
0.0
  0
VERTEX
  5
177F1
  8
0
 10
322.34528144632083
 20
72.899789208545599
 30
0.0
  0
VERTEX
  5
177F2
  8
0
 10
322.4999999999996
 20
72.878950621370223
 30
0.0
  0
SEQEND
  5
177F3
  8
0
  0
POLYLINE
  5
1725E
  8
0
 66
     1
 10
0.0
 20
0.0
 30
0.0
 70
   128
  0
VERTEX
  5
177F4
  8
0
 10
361.99274283553308
 20
36.881529703061908
 30
0.0
  0
VERTEX
  5
177F5
  8
0
 10
361.98829336148452
 20
36.879433746457153
 30
0.0
  0
VERTEX
  5
177F6
  8
0
 10
361.948490035335
 20
36.923854434857731
 30
0.0
  0
VERTEX
  5
177F7
  8
0
 10
361.87837943028222
 20
36.987558579842933
 30
0.0
  0
VERTEX
  5
177F8
  8
0
 10
361.78292996377922
 20
37.049380597900843
 30
0.0
  0
VERTEX
  5
177F9
  8
0
 10
361.65471855367878
 20
37.100210791440759
 30
0.0
  0
VERTEX
  5
177FA
  8
0
 10
361.5
 20
37.121049378615908
 30
0.0
  0
SEQEND
  5
177FB
  8
0
  0
LINE
  5
1725F
  8
0
 10
361.5
 20
37.121049378615908
 30
0.0
 11
322.4999999999996
 21
37.121049378615908
 31
0.0
  0
POLYLINE
  5
17260
  8
0
 66
     1
 10
0.0
 20
0.0
 30
0.0
 70
   128
  0
VERTEX
  5
177FC
  8
0
 10
322.4999999999996
 20
37.121049378615908
 30
0.0
  0
VERTEX
  5
177FD
  8
0
 10
322.33593078592497
 20
37.097584334712792
 30
0.0
  0
VERTEX
  5
177FE
  8
0
 10
322.19017351624512
 20
37.034312353815487
 30
0.0
  0
VERTEX
  5
177FF
  8
0
 10
322.08505566322452
 20
36.956742037369168
 30
0.0
  0
VERTEX
  5
17800
  8
0
 10
322.03093916961052
 20
36.901155517520692
 30
0.0
  0
VERTEX
  5
17801
  8
0
 10
322.00776016060581
 20
36.87601352915204
 30
0.0
  0
VERTEX
  5
17802
  8
0
 10
322.00603950454661
 20
36.878563956900507
 30
0.0
  0
SEQEND
  5
17803
  8
0
  0
CIRCLE
  5
17263
  8
0
 10
342.0
 20
54.999999999993172
 30
0.0
 40
10.0
  0
LINE
  5
17267
  8
0
 10
291.9999999999996
 20
32.165685424942467
 30
0.0
 11
391.9999999999996
 21
32.165685424942467
 31
0.0
  0
LINE
  5
1726A
  8
0
 10
391.9999999999996
 20
34.999999999993179
 30
0.0
 11
291.9999999999996
 21
34.999999999993179
 31
0.0
  0
LINE
  5
1726C
  8
0
 10
391.9999999999996
 20
30.834314575043891
 30
0.0
 11
291.9999999999996
 21
30.834314575043891
 31
0.0
  0
LINE
  5
17271
  8
0
 10
391.9999999999996
 20
27.999999999993179
 30
0.0
 11
291.9999999999996
 21
27.999999999993179
 31
0.0
  0
LINE
  5
1727B
  8
0
 10
391.9999999999996
 20
90.999999999993165
 30
0.0
 11
292.0
 21
90.999999999993165
 31
0.0
  0
LINE
  5
1727C
  8
0
 10
292.0
 20
76.165685424942467
 30
0.0
 11
391.9999999999996
 21
76.165685424942467
 31
0.0
  0
LINE
  5
1727D
  8
0
 10
292.00000000000051
 20
27.999999999993211
 30
0.0
 11
292.0
 21
90.999999999993165
 31
0.0
  0
LINE
  5
1727E
  8
0
 10
391.9999999999996
 20
27.999999999993211
 30
0.0
 11
391.9999999999996
 21
90.999999999993165
 31
0.0
  0
LINE
  5
17282
  8
0
 10
391.9999999999996
 20
74.834314575043891
 30
0.0
 11
292.0
 21
74.834314575043891
 31
0.0
  0
LINE
  5
17286
  8
0
 10
391.9999999999996
 20
73.499999999993179
 30
0.0
 11
292.0
 21
73.499999999993179
 31
0.0
  0
LINE
  5
17289
  8
0
 10
391.9999999999996
 20
36.499999999993179
 30
0.0
 11
292.0
 21
36.499999999993179
 31
0.0
  0
ARC
  5
1731B
  8
0
 10
237.0
 20
190.99999999999309
 30
0.0
 40
1.6209999999432509
 50
270.0
 51
90.0
  0
CIRCLE
  5
17343
  8
3
 10
206.0
 20
219.99999999999301
 30
0.0
 40
1.5
  0
CIRCLE
  5
17344
  8
0
 10
206.0
 20
219.99999999999301
 30
0.0
 40
1.2295
  0
CIRCLE
  5
17345
  8
0
 10
206.0
 20
219.99999999999301
 30
0.0
 40
5.5
  0
CIRCLE
  5
17346
  8
3
 10
206.0
 20
161.99999999999289
 30
0.0
 40
1.5
  0
CIRCLE
  5
17347
  8
0
 10
206.0
 20
161.99999999999289
 30
0.0
 40
1.2295
  0
CIRCLE
  5
17348
  8
0
 10
206.0
 20
161.99999999999289
 30
0.0
 40
5.5
  0
LINE
  5
173CA
  8
3
 10
204.5
 20
196.0529999999932
 30
0.0
 11
207.5
 21
196.0529999999932
 31
0.0
  0
LINE
  5
173CB
  8
3
 10
204.5
 20
185.9469999999931
 30
0.0
 11
207.5
 21
185.9469999999931
 31
0.0
  0
LINE
  5
173EE
  8
3
 10
197.30000000000021
 20
60.052999999993432
 30
0.0
 11
198.5
 21
60.05299999999346
 31
0.0
  0
LINE
  5
173EF
  8
3
 10
197.30000000000021
 20
49.94699999999338
 30
0.0
 11
198.5
 21
49.94699999999338
 31
0.0
  0
LINE
  5
173F2
  8
3
 10
213.5
 20
49.946999999993402
 30
0.0
 11
214.69999999999979
 21
49.94699999999338
 31
0.0
  0
LINE
  5
173F3
  8
3
 10
213.5
 20
60.052999999993489
 30
0.0
 11
214.69999999999979
 21
60.05299999999346
 31
0.0
  0
LINE
  5
173F4
  8
3
 10
204.5000000000004
 20
49.946999999993402
 30
0.0
 11
207.50000000000051
 21
49.946999999993402
 31
0.0
  0
LINE
  5
173F5
  8
3
 10
204.5000000000004
 20
60.052999999993489
 30
0.0
 11
207.50000000000051
 21
60.052999999993489
 31
0.0
  0
LINE
  5
17668
  8
1
 10
206.0
 20
22.999999999993179
 30
0.0
 11
206.0
 21
95.99999999999315
 31
0.0
  0
LINE
  5
17669
  8
1
 10
70.0
 20
95.999999999993165
 30
0.0
 11
70.0
 21
17.0
 31
0.0
  0
LINE
  5
1766A
  8
1
 10
342.0
 20
95.999999999993165
 30
0.0
 11
342.0
 21
17.0
 31
0.0
  0
LINE
  5
1766B
  8
1
 10
175.0
 20
17.0
 30
0.0
 11
175.0
 21
37.999999999993179
 31
0.0
  0
LINE
  5
1766C
  8
1
 10
237.0
 20
17.0
 30
0.0
 11
236.9999999999996
 21
37.999999999993207
 31
0.0
  0
LINE
  5
1767B
  8
1
 10
206.0
 20
135.99999999999309
 30
0.0
 11
206.0
 21
245.99999999999321
 31
0.0
  0
LINE
  5
1767C
  8
1
 10
237.0
 20
156.24999999999321
 30
0.0
 11
237.0
 21
167.74999999999309
 31
0.0
  0
LINE
  5
1767D
  8
1
 10
175.0
 20
156.24999999999321
 30
0.0
 11
175.0
 21
167.74999999999309
 31
0.0
  0
LINE
  5
1767E
  8
1
 10
237.0
 20
184.99999999999321
 30
0.0
 11
237.0
 21
196.99999999999321
 31
0.0
  0
LINE
  5
1767F
  8
1
 10
175.0
 20
184.99999999999321
 30
0.0
 11
175.0
 21
196.99999999999321
 31
0.0
  0
LINE
  5
17680
  8
1
 10
175.0
 20
214.24999999999329
 30
0.0
 11
175.0
 21
225.74999999999309
 31
0.0
  0
LINE
  5
17681
  8
1
 10
237.0
 20
214.24999999999321
 30
0.0
 11
237.0
 21
225.74999999999321
 31
0.0
  0
LINE
  5
17682
  8
1
 10
242.75
 20
219.99999999999301
 30
0.0
 11
231.25
 21
219.99999999999301
 31
0.0
  0
LINE
  5
17683
  8
1
 10
243.0
 20
190.99999999999309
 30
0.0
 11
169.0
 21
190.99999999999309
 31
0.0
  0
LINE
  5
17684
  8
1
 10
242.75
 20
161.99999999999309
 30
0.0
 11
231.25
 21
161.99999999999309
 31
0.0
  0
LINE
  5
17685
  8
1
 10
214.5
 20
219.99999999999301
 30
0.0
 11
197.5
 21
219.99999999999301
 31
0.0
  0
LINE
  5
17686
  8
1
 10
180.75
 20
219.99999999999301
 30
0.0
 11
169.25
 21
219.99999999999301
 31
0.0
  0
LINE
  5
17687
  8
1
 10
214.5
 20
161.99999999999309
 30
0.0
 11
197.5
 21
161.99999999999309
 31
0.0
  0
LINE
  5
17688
  8
1
 10
180.75
 20
161.99999999999309
 30
0.0
 11
169.25
 21
161.99999999999309
 31
0.0
  0
LINE
  5
17697
  8
1
 10
61.0
 20
54.999999999993172
 30
0.0
 11
79.0
 21
54.999999999993172
 31
0.0
  0
LINE
  5
1769C
  8
1
 10
178.0
 20
54.999999999993172
 30
0.0
 11
240.0
 21
54.999999999993172
 31
0.0
  0
LINE
  5
1769D
  8
1
 10
329.0
 20
54.999999999993172
 30
0.0
 11
355.0
 21
54.999999999993172
 31
0.0
  0
TEXT
  5
17753
  8
0
 62
     3
 10
0.0
 20
0.0
 30
0.0
 40
10.0
  1
CP124-05002
  7
STANDARD1
  0
ENDSEC
  0
EOF
