  0
SECTION
  2
HEADER
  9
$ACADVER
  1
AC1009
  9
$INSBASE
 10
0.0
 20
0.0
 30
0.0
  9
$EXTMIN
 10
0.0
 20
-2.960436562073669
 30
0.0
  9
$EXTMAX
 10
429.52639780994139
 20
402.47252239757307
 30
0.0
  9
$LIMMIN
 10
0.0
 20
0.0
  9
$LIMMAX
 10
12.0
 20
9.0
  9
$ORTHOMODE
 70
     1
  9
$REGENMODE
 70
     1
  9
$FILLMODE
 70
     1
  9
$QTEXTMODE
 70
     0
  9
$MIRRTEXT
 70
     0
  9
$DRAGMODE
 70
     2
  9
$LTSCALE
 40
5.0
  9
$OSMODE
 70
  3071
  9
$ATTMODE
 70
     1
  9
$TEXTSIZE
 40
0.2
  9
$TRACEWID
 40
0.05
  9
$TEXTSTYLE
  7
STANDARD
  9
$CLAYER
  8
0
  9
$CELTYPE
  6
BYLAYER
  9
$CECOLOR
 62
   256
  9
$DIMSCALE
 40
1.0
  9
$DIMASZ
 40
0.18
  9
$DIMEXO
 40
0.0625
  9
$DIMDLI
 40
0.38
  9
$DIMRND
 40
0.0
  9
$DIMDLE
 40
0.0
  9
$DIMEXE
 40
0.18
  9
$DIMTP
 40
0.0
  9
$DIMTM
 40
0.0
  9
$DIMTXT
 40
2.6000000000000001
  9
$DIMCEN
 40
0.09
  9
$DIMTSZ
 40
0.0
  9
$DIMTOL
 70
     0
  9
$DIMLIM
 70
     0
  9
$DIMTIH
 70
     0
  9
$DIMTOH
 70
     0
  9
$DIMSE1
 70
     0
  9
$DIMSE2
 70
     0
  9
$DIMTAD
 70
     1
  9
$DIMZIN
 70
     8
  9
$DIMBLK
  1

  9
$DIMASO
 70
     1
  9
$DIMSHO
 70
     1
  9
$DIMPOST
  1

  9
$DIMAPOST
  1

  9
$DIMALT
 70
     0
  9
$DIMALTD
 70
     2
  9
$DIMALTF
 40
25.399999999999999
  9
$DIMLFAC
 40
1.0
  9
$DIMTOFL
 70
     0
  9
$DIMTVP
 40
0.0
  9
$DIMTIX
 70
     0
  9
$DIMSOXD
 70
     0
  9
$DIMSAH
 70
     0
  9
$DIMBLK1
  1

  9
$DIMBLK2
  1

  9
$DIMSTYLE
  2
STANDARD
  9
$DIMCLRD
 70
     0
  9
$DIMCLRE
 70
     0
  9
$DIMCLRT
 70
     0
  9
$DIMTFAC
 40
1.0
  9
$DIMGAP
 40
0.09
  9
$LUNITS
 70
     2
  9
$LUPREC
 70
     4
  9
$SKETCHINC
 40
0.1
  9
$FILLETRAD
 40
0.0
  9
$AUNITS
 70
     0
  9
$AUPREC
 70
     0
  9
$MENU
  1
.
  9
$ELEVATION
 40
0.0
  9
$PELEVATION
 40
0.0
  9
$THICKNESS
 40
0.0
  9
$LIMCHECK
 70
     0
  9
$BLIPMODE
 70
     0
  9
$CHAMFERA
 40
0.0
  9
$CHAMFERB
 40
0.0
  9
$SKPOLY
 70
     0
  9
$TDCREATE
 40
2453083.4120647679
  9
$TDUPDATE
 40
2456598.4974150229
  9
$TDINDWG
 40
0.3461894329
  9
$TDUSRTIMER
 40
0.3461893171
  9
$USRTIMER
 70
     1
  9
$ANGBASE
 50
0.0
  9
$ANGDIR
 70
     0
  9
$PDMODE
 70
     0
  9
$PDSIZE
 40
0.0
  9
$PLINEWID
 40
0.0
  9
$COORDS
 70
     1
  9
$SPLFRAME
 70
     0
  9
$SPLINETYPE
 70
     6
  9
$SPLINESEGS
 70
     8
  9
$ATTDIA
 70
     0
  9
$ATTREQ
 70
     1
  9
$HANDLING
 70
     1
  9
$HANDSEED
  5
20D9
  9
$SURFTAB1
 70
     6
  9
$SURFTAB2
 70
     6
  9
$SURFTYPE
 70
     6
  9
$SURFU
 70
     6
  9
$SURFV
 70
     6
  9
$UCSNAME
  2

  9
$UCSORG
 10
0.0
 20
0.0
 30
0.0
  9
$UCSXDIR
 10
1.0
 20
0.0
 30
0.0
  9
$UCSYDIR
 10
0.0
 20
1.0
 30
0.0
  9
$PUCSNAME
  2

  9
$PUCSORG
 10
0.0
 20
0.0
 30
0.0
  9
$PUCSXDIR
 10
1.0
 20
0.0
 30
0.0
  9
$PUCSYDIR
 10
0.0
 20
1.0
 30
0.0
  9
$USERI1
 70
     0
  9
$USERI2
 70
     1
  9
$USERI3
 70
     0
  9
$USERI4
 70
     0
  9
$USERI5
 70
     0
  9
$USERR1
 40
0.0
  9
$USERR2
 40
0.0
  9
$USERR3
 40
0.0
  9
$USERR4
 40
0.0
  9
$USERR5
 40
0.0
  9
$WORLDVIEW
 70
     1
  9
$SHADEDGE
 70
     3
  9
$SHADEDIF
 70
    70
  9
$TILEMODE
 70
     1
  9
$MAXACTVP
 70
    64
  9
$PLIMCHECK
 70
     0
  9
$PEXTMIN
 10
0.0
 20
0.0
 30
0.0
  9
$PEXTMAX
 10
0.0
 20
0.0
 30
0.0
  9
$PLIMMIN
 10
0.0
 20
0.0
  9
$PLIMMAX
 10
12.0
 20
9.0
  9
$UNITMODE
 70
     0
  9
$VISRETAIN
 70
     1
  9
$PLINEGEN
 70
     0
  9
$PSLTSCALE
 70
     1
  0
ENDSEC
  0
SECTION
  2
TABLES
  0
TABLE
  2
VPORT
 70
     1
  0
VPORT
  2
*ACTIVE
 70
     0
 10
0.0
 20
0.0
 11
1.0
 21
1.0
 12
225.9984906556175
 22
199.74701062837329
 13
0.0
 23
0.0
 14
0.5
 24
0.5
 15
0.5
 25
0.5
 16
0.0
 26
0.0
 36
1.0
 17
0.0
 27
0.0
 37
0.0
 40
409.11214276601999
 41
1.831871345029239
 42
50.0
 43
0.0
 44
0.0
 50
0.0
 51
0.0
 71
     0
 72
  1000
 73
     1
 74
     2
 75
     0
 76
     0
 77
     0
 78
     0
  0
ENDTAB
  0
TABLE
  2
LTYPE
 70
     3
  0
LTYPE
  2
CONTINUOUS
 70
     0
  3
Solid Line
 72
    65
 73
     0
 40
0.0
  0
LTYPE
  2
CENTER
 70
     0
  3
____ _ ____ _ ____ _ ____ _ ____ _ ____ _ ____
 72
    65
 73
     4
 40
2.0
 49
1.25
 49
-0.25
 49
0.25
 49
-0.25
  0
LTYPE
  2
PHANTOM2
 70
     0
  3
___ _ _ ___ _ _ ___ _ _ ___ _ _
 72
    65
 73
     6
 40
1.25
 49
0.625
 49
-0.125
 49
0.125
 49
-0.125
 49
0.125
 49
-0.125
  0
ENDTAB
  0
TABLE
  2
LAYER
 70
     3
  0
LAYER
  2
0
 70
     0
 62
     7
  6
CONTINUOUS
  0
LAYER
  2
1
 70
     0
 62
     1
  6
CENTER
  0
LAYER
  2
DEFPOINTS
 70
     0
 62
     7
  6
CONTINUOUS
  0
ENDTAB
  0
TABLE
  2
STYLE
 70
     2
  0
STYLE
  2
STANDARD
 70
     0
 40
0.0
 41
1.0
 50
0.0
 71
     0
 42
0.2
  3
simplex.shx
  4
bigfont.shx
  0
STYLE
  2
STANDARD1
 70
     0
 40
0.0
 41
1.0
 50
0.0
 71
     0
 42
3.0
  3
txt
  4

  0
ENDTAB
  0
TABLE
  2
VIEW
 70
     0
  0
ENDTAB
  0
TABLE
  2
UCS
 70
     0
  0
ENDTAB
  0
TABLE
  2
APPID
 70
     3
  0
APPID
  2
ACAD
 70
     0
  0
APPID
  2
ACAD_MLEADERVER
 70
     0
  0
APPID
  2
ACAD_NAV_VCDISPLAY
 70
     0
  0
ENDTAB
  0
TABLE
  2
DIMSTYLE
 70
     1
  0
DIMSTYLE
  2
STANDARD
 70
     0
  3

  4

  5

  6

  7

 40
1.0
 41
0.18
 42
0.0625
 43
0.38
 44
0.18
 45
0.0
 46
0.0
 47
0.0
 48
0.0
140
2.6000000000000001
141
0.09
142
0.0
143
25.399999999999999
144
1.0
145
0.0
146
1.0
147
0.09
 71
     0
 72
     0
 73
     0
 74
     0
 75
     0
 76
     0
 77
     1
 78
     8
170
     0
171
     2
172
     0
173
     0
174
     0
175
     0
176
     0
177
     0
178
     0
  0
ENDTAB
  0
ENDSEC
  0
SECTION
  2
BLOCKS
  0
BLOCK
  8
0
  2
$MODEL_SPACE
 70
     0
 10
0.0
 20
0.0
 30
0.0
  3
$MODEL_SPACE
  1

  0
ENDBLK
  5
21
  8
0
  0
BLOCK
 67
     1
  8
0
  2
$PAPER_SPACE
 70
     0
 10
0.0
 20
0.0
 30
0.0
  3
$PAPER_SPACE
  1

  0
ENDBLK
  5
5B
 67
     1
  8
0
  0
ENDSEC
  0
SECTION
  2
ENTITIES
  0
CIRCLE
  5
1A80
  8
0
 10
264.51184128840549
 20
108.4372180641828
 30
0.0
 40
14.792893218813459
  0
CIRCLE
  5
1A81
  8
0
 10
249.66259888348799
 20
93.587975659265226
 30
0.0
 40
3.3000000000000109
  0
CIRCLE
  5
1A82
  8
0
 10
249.6625988834879
 20
123.28646046910021
 30
0.0
 40
3.3000000000000109
  0
CIRCLE
  5
1A83
  8
0
 10
264.51184128840549
 20
108.4372180641828
 30
0.0
 40
15.146446609406739
  0
CIRCLE
  5
1A84
  8
0
 10
279.36108369332322
 20
93.587975659265453
 30
0.0
 40
3.2999999999999972
  0
CIRCLE
  5
1A85
  8
0
 10
279.36108369332283
 20
123.2864604691004
 30
0.0
 40
3.2999999999999972
  0
ARC
  5
1A86
  8
0
 10
290.51184128840538
 20
108.4372180641828
 30
0.0
 40
3.0000000000000182
 50
288.69391600461751
 51
0.0
  0
ARC
  5
1A87
  8
0
 10
290.51184128840538
 20
108.4372180641828
 30
0.0
 40
3.0000000000000262
 50
108.4264379497139
 51
252.5393961226255
  0
ARC
  5
1A88
  8
0
 10
290.51184128840538
 20
108.4372180641828
 30
0.0
 40
3.0
 50
0.0
 51
72.001099658993994
  0
CIRCLE
  5
1A89
  8
0
 10
279.36108369332283
 20
123.2864604691004
 30
0.0
 40
3.7999999999999972
  0
CIRCLE
  5
1A8A
  8
0
 10
279.36108369332322
 20
93.587975659265453
 30
0.0
 40
3.7999999999999972
  0
CIRCLE
  5
1A8B
  8
0
 10
249.66259888348799
 20
93.587975659265226
 30
0.0
 40
3.8000000000000109
  0
CIRCLE
  5
1A8C
  8
0
 10
249.6625988834879
 20
123.28646046910021
 30
0.0
 40
3.8000000000000109
  0
CIRCLE
  5
1A8D
  8
0
 10
290.51184128840538
 20
108.4372180641828
 30
0.0
 40
3.5
  0
CIRCLE
  5
1A8E
  8
0
 10
264.51184128840549
 20
108.4372180641828
 30
0.0
 40
15.5
  0
CIRCLE
  5
1A8F
  8
0
 10
264.51184128840549
 20
108.4372180641828
 30
0.0
 40
35.000000000000021
  0
CIRCLE
  5
1A91
  8
0
 10
264.51184128840549
 20
108.4372180641828
 30
0.0
 40
10.000000000000011
  0
CIRCLE
  5
1A92
  8
0
 10
264.51184128840549
 20
108.4372180641828
 30
0.0
 40
10.500000000000011
  0
CIRCLE
  5
1A93
  8
0
 10
264.51184128840549
 20
108.4372180641828
 30
0.0
 40
14.0
  0
CIRCLE
  5
1A94
  8
0
 10
264.51184128840549
 20
108.4372180641828
 30
0.0
 40
13.196152422706639
  0
CIRCLE
  5
1A95
  8
0
 10
264.51184128840549
 20
108.4372180641828
 30
0.0
 40
3.3999999999999768
  0
CIRCLE
  5
1A96
  8
0
 10
264.51184128840549
 20
108.4372180641828
 30
0.0
 40
3.8999999999999768
  0
CIRCLE
  5
1A97
  8
0
 10
264.51184128840549
 20
108.4372180641828
 30
0.0
 40
9.4641016151377357
  0
CIRCLE
  5
1A98
  8
0
 10
290.51184128840538
 20
108.4372180641828
 30
0.0
 40
1.5
  0
CIRCLE
  5
1A99
  8
0
 10
290.51184128840538
 20
108.4372180641828
 30
0.0
 40
1.8452994616207541
  0
POLYLINE
  5
1A9A
  8
0
 66
     1
 10
0.0
 20
0.0
 30
0.0
 70
   128
  0
VERTEX
  5
1F5D
  8
0
 10
287.95957093556501
 20
108.4372180641828
 30
0.0
  0
VERTEX
  5
1F5E
  8
0
 10
288.3179345490513
 20
109.0579237800291
 30
0.0
  0
VERTEX
  5
1F5F
  8
0
 10
288.54602662344553
 20
109.45299134004991
 30
0.0
  0
VERTEX
  5
1F60
  8
0
 10
288.78145379443743
 20
109.86076278027279
 30
0.0
  0
VERTEX
  5
1F61
  8
0
 10
289.05765613039119
 20
110.3391583903892
 30
0.0
  0
VERTEX
  5
1F62
  8
0
 10
289.35221483429052
 20
110.84934912037239
 30
0.0
  0
VERTEX
  5
1F63
  8
0
 10
289.61184149106123
 20
111.2990356643884
 30
0.0
  0
SEQEND
  5
1F64
  8
0
  0
POLYLINE
  5
1A9B
  8
0
 66
     1
 10
0.0
 20
0.0
 30
0.0
 70
   128
  0
VERTEX
  5
1F65
  8
0
 10
287.95957093556501
 20
108.4372180641828
 30
0.0
  0
VERTEX
  5
1F66
  8
0
 10
288.3179345490513
 20
107.8165123483366
 30
0.0
  0
VERTEX
  5
1F67
  8
0
 10
288.54602662344553
 20
107.4214447883157
 30
0.0
  0
VERTEX
  5
1F68
  8
0
 10
288.78145379443743
 20
107.01367334809289
 30
0.0
  0
VERTEX
  5
1F69
  8
0
 10
289.05765613039119
 20
106.5352777379764
 30
0.0
  0
VERTEX
  5
1F6A
  8
0
 10
289.35221483429052
 20
106.02508700799331
 30
0.0
  0
VERTEX
  5
1F6B
  8
0
 10
289.61184149106123
 20
105.5754004639773
 30
0.0
  0
SEQEND
  5
1F6C
  8
0
  0
ARC
  5
1A9C
  8
0
 10
290.51184128840538
 20
108.4372180641828
 30
0.0
 40
2.999999999999968
 50
252.54239687628041
 51
287.45760312372579
  0
POLYLINE
  5
1A9D
  8
0
 66
     1
 10
0.0
 20
0.0
 30
0.0
 70
   128
  0
VERTEX
  5
1F6D
  8
0
 10
293.06411271412952
 20
108.4372180641828
 30
0.0
  0
VERTEX
  5
1F6E
  8
0
 10
292.70574723799803
 20
107.8165123483366
 30
0.0
  0
VERTEX
  5
1F6F
  8
0
 10
292.4776551636038
 20
107.4214447883157
 30
0.0
  0
VERTEX
  5
1F70
  8
0
 10
292.2422279926119
 20
107.01367334809289
 30
0.0
  0
VERTEX
  5
1F71
  8
0
 10
291.9660275193034
 20
106.5352777379764
 30
0.0
  0
VERTEX
  5
1F72
  8
0
 10
291.67146881540401
 20
106.02508700799331
 30
0.0
  0
VERTEX
  5
1F73
  8
0
 10
291.41184215863331
 20
105.5754004639773
 30
0.0
  0
SEQEND
  5
1F74
  8
0
  0
POLYLINE
  5
1A9E
  8
0
 66
     1
 10
0.0
 20
0.0
 30
0.0
 70
   128
  0
VERTEX
  5
1F75
  8
0
 10
293.06411271412952
 20
108.4372180641828
 30
0.0
  0
VERTEX
  5
1F76
  8
0
 10
292.70574723799803
 20
109.0579237800291
 30
0.0
  0
VERTEX
  5
1F77
  8
0
 10
292.4776551636038
 20
109.45299134004991
 30
0.0
  0
VERTEX
  5
1F78
  8
0
 10
292.2422279926119
 20
109.86076278027279
 30
0.0
  0
VERTEX
  5
1F79
  8
0
 10
291.9660275193034
 20
110.3391583903892
 30
0.0
  0
VERTEX
  5
1F7A
  8
0
 10
291.67146881540401
 20
110.84934912037239
 30
0.0
  0
VERTEX
  5
1F7B
  8
0
 10
291.41184215863331
 20
111.2990356643884
 30
0.0
  0
SEQEND
  5
1F7C
  8
0
  0
ARC
  5
1A9F
  8
0
 10
290.51184128840538
 20
108.4372180641828
 30
0.0
 40
3.0000000000000231
 50
72.542396876280336
 51
107.45760312371959
  0
CIRCLE
  5
1AA0
  8
0
 10
264.51184128840549
 20
108.4372180641828
 30
0.0
 40
2.7999999999999972
  0
LINE
  5
1AB4
  8
0
 10
277.70799392332418
 20
199.12312921874471
 30
0.0
 11
251.31568865348689
 21
199.12312921874471
 31
0.0
  0
LINE
  5
1AB5
  8
0
 10
250.5118408562719
 20
202.123129710483
 30
0.0
 11
278.51184172053922
 21
202.123129710483
 31
0.0
  0
LINE
  5
1AB7
  8
0
 10
299.0118404241382
 20
211.12312932305281
 30
0.0
 11
230.0118421526729
 21
211.12312932305281
 31
0.0
  0
LINE
  5
1AB9
  8
0
 10
229.71184079964749
 20
213.12312941804771
 30
0.0
 11
299.31184177716358
 21
213.12312941804771
 31
0.0
  0
LINE
  5
1ABB
  8
0
 10
230.51183944066159
 20
250.1231301277156
 30
0.0
 11
298.51184313614959
 21
250.1231301277156
 31
0.0
  0
POLYLINE
  5
1ABD
  8
0
 66
     1
 10
0.0
 20
0.0
 30
0.0
 70
   128
  0
VERTEX
  5
1F7D
  8
0
 10
229.51191191990961
 20
233.04224756352841
 30
0.0
  0
VERTEX
  5
1F7E
  8
0
 10
229.51184113939391
 20
233.0426145046228
 30
0.0
  0
VERTEX
  5
1F7F
  8
0
 10
229.53825344761
 20
232.9094018488401
 30
0.0
  0
VERTEX
  5
1F80
  8
0
 10
229.61442818363301
 20
232.50884373478829
 30
0.0
  0
VERTEX
  5
1F81
  8
0
 10
229.72874989231221
 20
231.86949078731479
 30
0.0
  0
VERTEX
  5
1F82
  8
0
 10
229.86235742886649
 20
231.01565052561699
 30
0.0
  0
VERTEX
  5
1F83
  8
0
 10
229.99619593341939
 20
229.97373339526601
 30
0.0
  0
VERTEX
  5
1F84
  8
0
 10
230.11078586299999
 20
228.7725787311071
 30
0.0
  0
VERTEX
  5
1F85
  8
0
 10
230.189206949073
 20
227.464927330541
 30
0.0
  0
VERTEX
  5
1F86
  8
0
 10
230.2163717659293
 20
226.12312898777671
 30
0.0
  0
SEQEND
  5
1F87
  8
0
  0
LINE
  5
1ABE
  8
0
 10
230.21457990129579
 20
226.03469804667179
 30
0.0
 11
230.216368040639
 21
226.12337020032351
 31
0.0
  0
POLYLINE
  5
1ABF
  8
0
 66
     1
 10
0.0
 20
0.0
 30
0.0
 70
   128
  0
VERTEX
  5
1F88
  8
0
 10
230.2163717659293
 20
226.12312898777671
 30
0.0
  0
VERTEX
  5
1F89
  8
0
 10
230.1891361685573
 20
224.78046730898561
 30
0.0
  0
VERTEX
  5
1F8A
  8
0
 10
230.1107188077747
 20
223.47284477941929
 30
0.0
  0
VERTEX
  5
1F8B
  8
0
 10
229.9960879000007
 20
222.27155973010011
 30
0.0
  0
VERTEX
  5
1F8C
  8
0
 10
229.862163713771
 20
221.22926075749339
 30
0.0
  0
VERTEX
  5
1F8D
  8
0
 10
229.7286306830226
 20
220.37605379514639
 30
0.0
  0
VERTEX
  5
1F8E
  8
0
 10
229.61435367782701
 20
219.73692622773589
 30
0.0
  0
VERTEX
  5
1F8F
  8
0
 10
229.53825344761
 20
219.3368514701003
 30
0.0
  0
VERTEX
  5
1F90
  8
0
 10
229.51184113939391
 20
219.2036444022531
 30
0.0
  0
VERTEX
  5
1F91
  8
0
 10
229.51190819461931
 20
219.20397688441221
 30
0.0
  0
SEQEND
  5
1F92
  8
0
  0
POLYLINE
  5
1AC0
  8
0
 66
     1
 10
0.0
 20
0.0
 30
0.0
 70
   128
  0
VERTEX
  5
1F93
  8
0
 10
299.51085423548813
 20
218.7520204744512
 30
0.0
  0
VERTEX
  5
1F94
  8
0
 10
299.51132362206567
 20
218.76213370628901
 30
0.0
  0
VERTEX
  5
1F95
  8
0
 10
299.50440575798137
 20
218.6070684976155
 30
0.0
  0
VERTEX
  5
1F96
  8
0
 10
299.49222778399582
 20
218.28497524179761
 30
0.0
  0
VERTEX
  5
1F97
  8
0
 10
299.48010568936462
 20
217.83162743591009
 30
0.0
  0
VERTEX
  5
1F98
  8
0
 10
299.47336663921459
 20
217.29828321181481
 30
0.0
  0
VERTEX
  5
1F99
  8
0
 10
299.47496478875269
 20
216.74566992365061
 30
0.0
  0
VERTEX
  5
1F9A
  8
0
 10
299.48418488224138
 20
216.23583228133859
 30
0.0
  0
VERTEX
  5
1F9B
  8
0
 10
299.49699615557779
 20
215.8255716487044
 30
0.0
  0
VERTEX
  5
1F9C
  8
0
 10
299.50779577215297
 20
215.56128651641549
 30
0.0
  0
VERTEX
  5
1F9D
  8
0
 10
299.51172967870821
 20
215.47559366368
 30
0.0
  0
SEQEND
  5
1F9E
  8
0
  0
CIRCLE
  5
1AC1
  8
0
 10
264.5118412521731
 20
217.12312962893199
 30
0.0
 40
1.6500000272916591
  0
LINE
  5
1AC3
  8
0
 10
299.51184143741722
 20
249.1231281011577
 30
0.0
 11
229.51184113939391
 21
249.1231281011577
 31
0.0
  0
ARC
  5
1AC6
  8
0
 10
288.80304298511533
 20
257.62313042573879
 30
0.0
 40
0.5128310188142271
 50
146.52782872619071
 51
213.4721712738102
  0
LINE
  5
1AC8
  8
0
 10
288.52898155768492
 20
267.62312833957623
 30
0.0
 11
288.1750454517184
 21
268.12312935285519
 31
0.0
  0
LINE
  5
1ACA
  8
0
 10
288.52898155768492
 20
258.12312771372751
 30
0.0
 11
288.52898155768492
 21
267.62312833957623
 31
0.0
  0
LINE
  5
1ACB
  8
0
 10
297.0118400963126
 20
267.62312833957623
 30
0.0
 11
288.52898155768492
 21
267.62312833957623
 31
0.0
  0
LINE
  5
1ACC
  8
0
 10
288.52898155768492
 20
258.12312771372751
 30
0.0
 11
288.37526304145428
 21
257.90597309164951
 31
0.0
  0
LINE
  5
1ACD
  8
0
 10
297.0118400963126
 20
258.12312771372751
 30
0.0
 11
288.52898155768492
 21
258.12312771372751
 31
0.0
  0
LINE
  5
1ACE
  8
0
 10
288.37526304145428
 20
257.34028775982807
 30
0.0
 11
288.52898155768492
 21
257.12312941245978
 31
0.0
  0
LINE
  5
1AD0
  8
0
 10
240.49470101912601
 20
267.62312833957623
 30
0.0
 11
232.01184248049839
 21
267.62312833957623
 31
0.0
  0
LINE
  5
1AD1
  8
0
 10
240.49470101912601
 20
258.12312771372751
 30
0.0
 11
232.01184248049839
 21
258.12312771372751
 31
0.0
  0
LINE
  5
1AD2
  8
0
 10
240.49470101912601
 20
257.12312941245978
 30
0.0
 11
240.6484195353566
 21
257.34028775982807
 31
0.0
  0
LINE
  5
1AD4
  8
0
 10
240.84863712509249
 20
268.12312935285519
 30
0.0
 11
240.49470101912601
 21
267.62312833957623
 31
0.0
  0
LINE
  5
1AD5
  8
0
 10
240.49470101912601
 20
267.62312833957623
 30
0.0
 11
240.49470101912601
 21
258.12312771372751
 31
0.0
  0
LINE
  5
1AD6
  8
0
 10
240.6484195353566
 20
257.90597309164951
 30
0.0
 11
240.49470101912601
 21
258.12312771372751
 31
0.0
  0
ARC
  5
1AD7
  8
0
 10
240.22063812628829
 20
257.62313042573879
 30
0.0
 40
0.5128322411898455
 50
326.52791902380062
 51
33.472080976199393
  0
ARC
  5
1AD8
  8
0
 10
286.68171480092388
 20
257.62313042573879
 30
0.0
 40
0.5128241872305497
 50
146.52732406338859
 51
213.47267593661141
  0
ARC
  5
1AD9
  8
0
 10
242.341969241258
 20
257.62313042573879
 30
0.0
 40
0.5128229648933855
 50
326.52723376516622
 51
33.472766234840101
  0
LINE
  5
1ADA
  8
0
 10
242.61602101345619
 20
267.62312833957623
 30
0.0
 11
242.96995711942279
 21
268.12312935285519
 31
0.0
  0
LINE
  5
1ADB
  8
0
 10
286.05372545738783
 20
268.12312935285519
 30
0.0
 11
286.4076615633544
 21
267.62312833957623
 31
0.0
  0
LINE
  5
1ADD
  8
0
 10
286.4076615633544
 20
257.12312941245978
 30
0.0
 11
286.25394304712381
 21
257.34028775982807
 31
0.0
  0
LINE
  5
1ADF
  8
0
 10
242.7697395296868
 20
257.34028775982807
 30
0.0
 11
242.61602101345619
 21
257.12312941245978
 31
0.0
  0
LINE
  5
1AE0
  8
0
 10
242.61602101345619
 20
258.12312771372751
 30
0.0
 11
242.61602101345619
 21
267.62312833957623
 31
0.0
  0
LINE
  5
1AE1
  8
0
 10
286.4076615633544
 20
267.62312833957623
 30
0.0
 11
286.4076615633544
 21
258.12312771372751
 31
0.0
  0
LINE
  5
1AE2
  8
0
 10
286.4076615633544
 20
267.62312833957623
 30
0.0
 11
242.61602101345619
 21
267.62312833957623
 31
0.0
  0
LINE
  5
1AE3
  8
0
 10
286.25394304712381
 20
257.90597309164951
 30
0.0
 11
286.4076615633544
 21
258.12312771372751
 31
0.0
  0
LINE
  5
1AE4
  8
0
 10
286.4076615633544
 20
258.12312771372751
 30
0.0
 11
242.61602101345619
 21
258.12312771372751
 31
0.0
  0
LINE
  5
1AE5
  8
0
 10
242.61602101345619
 20
258.12312771372751
 30
0.0
 11
242.7697395296868
 21
257.90597309164951
 31
0.0
  0
LINE
  5
1AE7
  8
0
 10
297.0118400963126
 20
257.12312941245978
 30
0.0
 11
288.52898155768492
 21
257.12312941245978
 31
0.0
  0
LINE
  5
1AE8
  8
0
 10
288.52898155768492
 20
250.1231301277156
 30
0.0
 11
288.52898155768492
 21
257.12312941245978
 31
0.0
  0
LINE
  5
1AE9
  8
0
 10
286.4076615633544
 20
257.12312941245978
 30
0.0
 11
286.4076615633544
 21
250.1231301277156
 31
0.0
  0
LINE
  5
1AEA
  8
0
 10
286.4076615633544
 20
257.12312941245978
 30
0.0
 11
242.61602101345619
 21
257.12312941245978
 31
0.0
  0
LINE
  5
1AEB
  8
0
 10
242.61602101345619
 20
250.1231301277156
 30
0.0
 11
242.61602101345619
 21
257.12312941245978
 31
0.0
  0
LINE
  5
1AEC
  8
0
 10
240.49470101912601
 20
257.12312941245978
 30
0.0
 11
240.49470101912601
 21
250.1231301277156
 31
0.0
  0
LINE
  5
1AED
  8
0
 10
240.49470101912601
 20
257.12312941245978
 30
0.0
 11
232.01184248049839
 21
257.12312941245978
 31
0.0
  0
LINE
  5
1AEE
  8
0
 10
287.95957093556513
 20
211.12312932305281
 30
0.0
 11
287.95957093556513
 21
207.3476402721578
 31
0.0
  0
LINE
  5
1AEF
  8
0
 10
293.06411271412958
 20
211.12312932305281
 30
0.0
 11
293.06411271412958
 21
207.3476402721578
 31
0.0
  0
LINE
  5
1AF0
  8
0
 10
292.35714015980352
 20
206.12312943481149
 30
0.0
 11
290.51184182484729
 21
206.12312943481149
 31
0.0
  0
LINE
  5
1AF1
  8
0
 10
290.51184182484729
 20
206.12312943481149
 30
0.0
 11
288.66654162724598
 21
206.12312943481149
 31
0.0
  0
POLYLINE
  5
1AF2
  8
0
 66
     1
 10
0.0
 20
0.0
 30
0.0
 70
   128
  0
VERTEX
  5
1F9F
  8
0
 10
287.95957093556513
 20
207.3476402721578
 30
0.0
  0
VERTEX
  5
1FA0
  8
0
 10
288.31793454905142
 20
206.8760911635334
 30
0.0
  0
VERTEX
  5
1FA1
  8
0
 10
288.54602662344558
 20
206.7595561667556
 30
0.0
  0
VERTEX
  5
1FA2
  8
0
 10
288.78145379443748
 20
206.80797655873241
 30
0.0
  0
VERTEX
  5
1FA3
  8
0
 10
289.05765613039119
 20
207.07379464797921
 30
0.0
  0
VERTEX
  5
1FA4
  8
0
 10
289.34885275979627
 20
207.55607981041311
 30
0.0
  0
VERTEX
  5
1FA5
  8
0
 10
289.61184149106128
 20
208.1231292969758
 30
0.0
  0
SEQEND
  5
1FA6
  8
0
  0
POLYLINE
  5
1AF3
  8
0
 66
     1
 10
0.0
 20
0.0
 30
0.0
 70
   128
  0
VERTEX
  5
1FA7
  8
0
 10
293.06411271412958
 20
207.3476402721578
 30
0.0
  0
VERTEX
  5
1FA8
  8
0
 10
292.70574723799808
 20
206.8760911635334
 30
0.0
  0
VERTEX
  5
1FA9
  8
0
 10
292.47765516360391
 20
206.7595561667556
 30
0.0
  0
VERTEX
  5
1FAA
  8
0
 10
292.24222799261202
 20
206.80797655873241
 30
0.0
  0
VERTEX
  5
1FAB
  8
0
 10
291.9660275193034
 20
207.07379464797921
 30
0.0
  0
VERTEX
  5
1FAC
  8
0
 10
291.67482902725328
 20
207.55607981041311
 30
0.0
  0
VERTEX
  5
1FAD
  8
0
 10
291.41184215863342
 20
208.1231292969758
 30
0.0
  0
SEQEND
  5
1FAE
  8
0
  0
LINE
  5
1AF4
  8
0
 10
289.61184149106128
 20
211.12312932305281
 30
0.0
 11
289.61184149106128
 21
208.1231292969758
 31
0.0
  0
LINE
  5
1AF5
  8
0
 10
291.41184215863342
 20
208.1231292969758
 30
0.0
 11
289.61184149106128
 21
208.1231292969758
 31
0.0
  0
LINE
  5
1AF6
  8
0
 10
291.41184215863342
 20
211.12312932305281
 30
0.0
 11
291.41184215863342
 21
208.1231292969758
 31
0.0
  0
CIRCLE
  5
1AF7
  8
0
 10
264.51184128840532
 20
217.12312932305289
 30
0.0
 40
1.5
  0
LINE
  5
1AF8
  8
0
 10
264.51184128840532
 20
215.96842861540861
 30
0.0
 11
265.51184133590277
 21
216.5457792281384
 31
0.0
  0
LINE
  5
1AF9
  8
0
 10
263.51184124090793
 20
216.5457792281384
 30
0.0
 11
264.51184128840532
 21
215.96842861540861
 31
0.0
  0
LINE
  5
1AFA
  8
0
 10
263.51184124090793
 20
217.7004795222754
 30
0.0
 11
263.51184124090793
 21
216.5457792281384
 31
0.0
  0
LINE
  5
1AFB
  8
0
 10
264.51184128840532
 20
218.2778296693439
 30
0.0
 11
263.51184124090793
 21
217.7004795222754
 31
0.0
  0
LINE
  5
1AFC
  8
0
 10
265.51184133590277
 20
217.7004795222754
 30
0.0
 11
264.51184128840532
 21
218.2778296693439
 31
0.0
  0
LINE
  5
1AFD
  8
0
 10
265.51184133590277
 20
216.5457792281384
 30
0.0
 11
265.51184133590277
 21
217.7004795222754
 31
0.0
  0
POLYLINE
  5
1B01
  8
0
 66
     1
 10
0.0
 20
0.0
 30
0.0
 70
   128
  0
VERTEX
  5
1FAF
  8
0
 10
275.60524636377659
 20
234.6231285183901
 30
0.0
  0
VERTEX
  5
1FB0
  8
0
 10
275.54836676885452
 20
234.9244914650196
 30
0.0
  0
VERTEX
  5
1FB1
  8
0
 10
275.38621233274313
 20
235.17997559897839
 30
0.0
  0
VERTEX
  5
1FB2
  8
0
 10
275.14304866512379
 20
235.35068330161511
 30
0.0
  0
VERTEX
  5
1FB3
  8
0
 10
274.85549350698562
 20
235.41062881045281
 30
0.0
  0
VERTEX
  5
1FB4
  8
0
 10
274.56717373301348
 20
235.35068330161511
 30
0.0
  0
VERTEX
  5
1FB5
  8
0
 10
274.32216418405142
 20
235.17997559897839
 30
0.0
  0
VERTEX
  5
1FB6
  8
0
 10
274.1581629352745
 20
234.9244914650196
 30
0.0
  0
VERTEX
  5
1FB7
  8
0
 10
274.10051872451868
 20
234.6231285183901
 30
0.0
  0
VERTEX
  5
1FB8
  8
0
 10
274.1581629352745
 20
234.32176557176061
 30
0.0
  0
VERTEX
  5
1FB9
  8
0
 10
274.32216418405142
 20
234.06628330044691
 30
0.0
  0
VERTEX
  5
1FBA
  8
0
 10
274.56717373301348
 20
233.89557373516499
 30
0.0
  0
VERTEX
  5
1FBB
  8
0
 10
274.85549350698562
 20
233.83562822632729
 30
0.0
  0
VERTEX
  5
1FBC
  8
0
 10
275.14304866512379
 20
233.89557373516499
 30
0.0
  0
VERTEX
  5
1FBD
  8
0
 10
275.38621233274313
 20
234.06628330044691
 30
0.0
  0
VERTEX
  5
1FBE
  8
0
 10
275.54836676885452
 20
234.32176557176061
 30
0.0
  0
VERTEX
  5
1FBF
  8
0
 10
275.60524636377659
 20
234.6231285183901
 30
0.0
  0
SEQEND
  5
1FC0
  8
0
  0
LINE
  5
1B04
  8
0
 10
255.0681055845794
 20
233.43850855522101
 30
0.0
 11
255.06271322687229
 21
233.43850855522101
 31
0.0
  0
ARC
  5
1B08
  8
0
 10
254.77285192761721
 20
234.61001429308249
 30
0.0
 40
1.2081392369225881
 50
284.14561675618262
 51
0.6219519202907442
  0
LINE
  5
1B0D
  8
0
 10
256.0391527922925
 20
236.0859103202099
 30
0.0
 11
256.03431550283989
 21
236.0859103202099
 31
0.0
  0
LINE
  5
1B0E
  8
0
 10
257.3795047910985
 20
234.132237702536
 30
0.0
 11
257.26246641446909
 21
233.6948755829805
 31
0.0
  0
LINE
  5
1B0F
  8
0
 10
257.26246641446909
 20
233.6948755829805
 30
0.0
 11
257.3795047910985
 21
233.7095960675949
 31
0.0
  0
LINE
  5
1B11
  8
0
 10
257.38357467074962
 20
234.89312824599691
 30
0.0
 11
257.3795047910985
 21
234.89312824599691
 31
0.0
  0
LINE
  5
1B12
  8
0
 10
257.3795047910985
 20
233.21153593056141
 30
0.0
 11
256.97650940586891
 21
233.1199682950253
 31
0.0
  0
LINE
  5
1B13
  8
0
 10
256.62012671549883
 20
232.68280734114589
 30
0.0
 11
257.3795047910985
 21
232.43472163371979
 31
0.0
  0
LINE
  5
1B14
  8
0
 10
256.97650940586891
 20
233.1199682950253
 30
0.0
 11
256.62012671549883
 21
232.68280734114589
 31
0.0
  0
LINE
  5
1B17
  8
0
 10
257.3795047910985
 20
232.43472163371979
 30
0.0
 11
257.3795047910985
 21
233.21153593056141
 31
0.0
  0
POLYLINE
  5
1B18
  8
0
 66
     1
 10
0.0
 20
0.0
 30
0.0
 70
   128
  0
VERTEX
  5
1FC1
  8
0
 10
256.39997323473062
 20
236.4231291859621
 30
0.0
  0
VERTEX
  5
1FC2
  8
0
 10
256.86553207655521
 20
236.16690744452421
 30
0.0
  0
VERTEX
  5
1FC3
  8
0
 10
257.3795047910985
 20
236.03472296886389
 30
0.0
  0
SEQEND
  5
1FC4
  8
0
  0
POLYLINE
  5
1B19
  8
0
 66
     1
 10
0.0
 20
0.0
 30
0.0
 70
   128
  0
VERTEX
  5
1FC5
  8
0
 10
257.3795047910985
 20
236.8115354030603
 30
0.0
  0
VERTEX
  5
1FC6
  8
0
 10
256.86553207655521
 20
236.67935092740001
 30
0.0
  0
VERTEX
  5
1FC7
  8
0
 10
256.39997323473062
 20
236.4231291859621
 30
0.0
  0
SEQEND
  5
1FC8
  8
0
  0
LINE
  5
1B1C
  8
0
 10
257.3795047910985
 20
233.7095960675949
 30
0.0
 11
257.3795047910985
 21
234.132237702536
 31
0.0
  0
LINE
  5
1B1F
  8
0
 10
257.3795047910985
 20
236.03472296886389
 30
0.0
 11
257.3795047910985
 21
236.8115354030603
 31
0.0
  0
LINE
  5
1B20
  8
0
 10
270.25746687744822
 20
233.44187994294111
 30
0.0
 11
270.26074746121731
 21
233.44187994294111
 31
0.0
  0
LINE
  5
1B21
  8
0
 10
271.0360660540041
 20
234.49187909059469
 30
0.0
 11
270.26074746121731
 21
234.49187909059469
 31
0.0
  0
LINE
  5
1B22
  8
0
 10
271.0360660540041
 20
234.49187909059469
 30
0.0
 11
271.0360660540041
 21
235.01687866442151
 31
0.0
  0
LINE
  5
1B24
  8
0
 10
270.26074746121731
 20
234.49187909059469
 30
0.0
 11
270.25746687744822
 21
234.49187909059469
 31
0.0
  0
ARC
  5
1B26
  8
0
 10
270.6484067576107
 20
235.0217448648643
 30
0.0
 40
0.387689837353226
 50
359.28081666753468
 51
180.71918333246529
  0
LINE
  5
1B27
  8
0
 10
257.90903198962178
 20
233.21153593056141
 30
0.0
 11
257.90903198962178
 21
232.43472163371979
 31
0.0
  0
LINE
  5
1B28
  8
0
 10
257.90903198962178
 20
236.8115354030603
 30
0.0
 11
257.90903198962178
 21
236.03472296886389
 31
0.0
  0
POLYLINE
  5
1B2A
  8
0
 66
     1
 10
0.0
 20
0.0
 30
0.0
 70
   128
  0
VERTEX
  5
1FC9
  8
0
 10
257.90903198962178
 20
232.43472163371979
 30
0.0
  0
VERTEX
  5
1FCA
  8
0
 10
258.42613720764479
 20
232.56690797202529
 30
0.0
  0
VERTEX
  5
1FCB
  8
0
 10
258.89722251762709
 20
232.8231297134632
 30
0.0
  0
SEQEND
  5
1FCC
  8
0
  0
POLYLINE
  5
1B2C
  8
0
 66
     1
 10
0.0
 20
0.0
 30
0.0
 70
   128
  0
VERTEX
  5
1FCD
  8
0
 10
258.89722251762709
 20
236.4231291859621
 30
0.0
  0
VERTEX
  5
1FCE
  8
0
 10
258.42613720764479
 20
236.67935092740001
 30
0.0
  0
VERTEX
  5
1FCF
  8
0
 10
257.90903198962178
 20
236.8115354030603
 30
0.0
  0
SEQEND
  5
1FD0
  8
0
  0
POLYLINE
  5
1B2F
  8
0
 66
     1
 10
0.0
 20
0.0
 30
0.0
 70
   128
  0
VERTEX
  5
1FD1
  8
0
 10
257.90903198962178
 20
236.03472296886389
 30
0.0
  0
VERTEX
  5
1FD2
  8
0
 10
258.42613720764479
 20
236.16690744452421
 30
0.0
  0
VERTEX
  5
1FD3
  8
0
 10
258.89722251762709
 20
236.4231291859621
 30
0.0
  0
SEQEND
  5
1FD4
  8
0
  0
POLYLINE
  5
1B32
  8
0
 66
     1
 10
0.0
 20
0.0
 30
0.0
 70
   128
  0
VERTEX
  5
1FD5
  8
0
 10
258.89722251762709
 20
232.8231297134632
 30
0.0
  0
VERTEX
  5
1FD6
  8
0
 10
258.42613720764479
 20
233.07934959225599
 30
0.0
  0
VERTEX
  5
1FD7
  8
0
 10
257.90903198962178
 20
233.21153593056141
 30
0.0
  0
SEQEND
  5
1FD8
  8
0
  0
POLYLINE
  5
1B33
  8
0
 66
     1
 10
0.0
 20
0.0
 30
0.0
 70
   128
  0
VERTEX
  5
1FD9
  8
0
 10
257.90903198962178
 20
233.7095960675949
 30
0.0
  0
VERTEX
  5
1FDA
  8
0
 10
258.62584163864221
 20
233.53172276906909
 30
0.0
  0
VERTEX
  5
1FDB
  8
0
 10
259.26902977247801
 20
233.16034857921539
 30
0.0
  0
SEQEND
  5
1FDC
  8
0
  0
LINE
  5
1B34
  8
0
 10
259.8020382547852
 20
234.3531287907833
 30
0.0
 11
257.90903198962178
 21
234.3531287907833
 31
0.0
  0
LINE
  5
1B35
  8
0
 10
257.90903198962178
 20
234.3531287907833
 30
0.0
 11
257.90903198962178
 21
233.7095960675949
 31
0.0
  0
POLYLINE
  5
1B38
  8
0
 66
     1
 10
0.0
 20
0.0
 30
0.0
 70
   128
  0
VERTEX
  5
1FDD
  8
0
 10
259.26902977247801
 20
233.16034857921539
 30
0.0
  0
VERTEX
  5
1FDE
  8
0
 10
259.62501665075388
 20
233.71586945645751
 30
0.0
  0
VERTEX
  5
1FDF
  8
0
 10
259.8020382547852
 20
234.3531287907833
 30
0.0
  0
SEQEND
  5
1FE0
  8
0
  0
LINE
  5
1B39
  8
0
 10
259.8020382547852
 20
234.89312824599691
 30
0.0
 11
257.90903198962178
 21
234.89312824599691
 31
0.0
  0
LINE
  5
1B3A
  8
0
 10
257.90903198962178
 20
235.5366628318304
 30
0.0
 11
257.90903198962178
 21
234.89312824599691
 31
0.0
  0
POLYLINE
  5
1B3B
  8
0
 66
     1
 10
0.0
 20
0.0
 30
0.0
 70
   128
  0
VERTEX
  5
1FE1
  8
0
 10
259.26902977247801
 20
236.0859103202099
 30
0.0
  0
VERTEX
  5
1FE2
  8
0
 10
258.62584163864221
 20
235.71453613035621
 30
0.0
  0
VERTEX
  5
1FE3
  8
0
 10
257.90903198962178
 20
235.5366628318304
 30
0.0
  0
SEQEND
  5
1FE4
  8
0
  0
POLYLINE
  5
1B3E
  8
0
 66
     1
 10
0.0
 20
0.0
 30
0.0
 70
   128
  0
VERTEX
  5
1FE5
  8
0
 10
259.8020382547852
 20
234.89312824599691
 30
0.0
  0
VERTEX
  5
1FE6
  8
0
 10
259.62501665075388
 20
235.53038944296779
 30
0.0
  0
VERTEX
  5
1FE7
  8
0
 10
259.26902977247801
 20
236.0859103202099
 30
0.0
  0
SEQEND
  5
1FE8
  8
0
  0
LINE
  5
1B40
  8
0
 10
270.25746687744822
 20
235.01687866442151
 30
0.0
 11
270.25746687744822
 21
234.49187909059469
 31
0.0
  0
LINE
  5
1B43
  8
0
 10
272.31629652400579
 20
235.01687866442151
 30
0.0
 11
272.32075243686398
 21
235.01687866442151
 31
0.0
  0
ARC
  5
1B52
  8
0
 10
254.75672899830309
 20
234.59968191113921
 30
0.0
 40
2.1872376142716878
 50
278.18447047203171
 51
0.6142073274231629
  0
LINE
  5
1B53
  8
0
 10
255.0681055845794
 20
232.43472163371979
 30
0.0
 11
255.0681055845794
 21
231.9366633593315
 31
0.0
  0
ARC
  5
1B54
  8
0
 10
254.91236269740389
 20
234.61803668159229
 30
0.0
 40
2.7058095886709039
 50
95.973499073167432
 51
262.29391443763262
  0
LINE
  5
1B55
  8
0
 10
254.88748581578099
 20
237.30800111584611
 30
0.0
 11
254.7616492347893
 21
237.30856735997139
 31
0.0
  0
LINE
  5
1B56
  8
0
 10
253.17858060319989
 20
234.89312824599691
 30
0.0
 11
253.17858060319989
 21
234.6231285183901
 31
0.0
  0
ARC
  5
1B57
  8
0
 10
254.86094946385299
 20
234.58824307251959
 30
0.0
 40
1.682730512479254
 50
178.81209022759251
 51
259.33514209100679
  0
LINE
  5
1B5A
  8
0
 10
256.22104195375999
 20
232.35352706901969
 30
0.0
 11
256.21630804111328
 21
232.35352706901969
 31
0.0
  0
LINE
  5
1B5B
  8
0
 10
256.22104195375999
 20
236.89273183040561
 30
0.0
 11
256.21630804111328
 21
236.89273183040561
 31
0.0
  0
LINE
  5
1B60
  8
0
 10
266.34745165669437
 20
232.52312836043779
 30
0.0
 11
266.34745165669437
 21
235.01687866442151
 31
0.0
  0
LINE
  5
1B62
  8
0
 10
268.43882252891632
 20
232.52312836043779
 30
0.0
 11
268.43882252891632
 21
235.01687866442151
 31
0.0
  0
LINE
  5
1B63
  8
0
 10
262.93826970235523
 20
235.01687866442151
 30
0.0
 11
262.93826970235523
 21
232.52312836043779
 31
0.0
  0
LINE
  5
1B65
  8
0
 10
268.44106468801459
 20
235.01687866442151
 30
0.0
 11
268.43882252891632
 21
235.01687866442151
 31
0.0
  0
LINE
  5
1B67
  8
0
 10
262.93737132531669
 20
235.01687866442151
 30
0.0
 11
262.93826970235523
 21
235.01687866442151
 31
0.0
  0
ARC
  5
1B68
  8
0
 10
264.57390326553661
 20
235.0677095270743
 30
0.0
 40
1.6364232122539291
 50
92.122298711857397
 51
181.78001779861719
  0
ARC
  5
1B69
  8
0
 10
264.74062185107232
 20
235.2391077875983
 30
0.0
 40
1.4717029846185199
 50
49.71584733627985
 51
93.799763370292723
  0
LINE
  5
1B6A
  8
0
 10
265.69286774342032
 20
236.36179228119789
 30
0.0
 11
265.69219381512221
 21
236.36179228119789
 31
0.0
  0
POLYLINE
  5
1B6B
  8
0
 66
     1
 10
0.0
 20
0.0
 30
0.0
 70
   128
  0
VERTEX
  5
1FE9
  8
0
 10
276.8422057243165
 20
234.6231285183901
 30
0.0
  0
VERTEX
  5
1FEA
  8
0
 10
276.6922888668355
 20
235.42624895267431
 30
0.0
  0
VERTEX
  5
1FEB
  8
0
 10
276.26435173173508
 20
236.10823225967829
 30
0.0
  0
VERTEX
  5
1FEC
  8
0
 10
275.62034775932398
 20
236.56292442970221
 30
0.0
  0
VERTEX
  5
1FED
  8
0
 10
274.85538174827661
 20
236.7229666262144
 30
0.0
  0
VERTEX
  5
1FEE
  8
0
 10
274.08483338971701
 20
236.56317029886191
 30
0.0
  0
VERTEX
  5
1FEF
  8
0
 10
273.42767262329431
 20
236.1078150271648
 30
0.0
  0
VERTEX
  5
1FF0
  8
0
 10
272.98691397030922
 20
235.42637002460901
 30
0.0
  0
VERTEX
  5
1FF1
  8
0
 10
272.83195865769949
 20
234.62278951697289
 30
0.0
  0
VERTEX
  5
1FF2
  8
0
 10
272.98721199353298
 20
233.81928910307829
 30
0.0
  0
VERTEX
  5
1FF3
  8
0
 10
273.42815597971048
 20
233.13802477710189
 30
0.0
  0
VERTEX
  5
1FF4
  8
0
 10
274.08539404590692
 20
232.68281292908131
 30
0.0
  0
VERTEX
  5
1FF5
  8
0
 10
274.8560131849822
 20
232.523230805921
 30
0.0
  0
VERTEX
  5
1FF6
  8
0
 10
275.6209559129652
 20
232.6835691630119
 30
0.0
  0
VERTEX
  5
1FF7
  8
0
 10
276.26477268953892
 20
233.1384792625183
 30
0.0
  0
VERTEX
  5
1FF8
  8
0
 10
276.69247885664072
 20
233.82086862616481
 30
0.0
  0
VERTEX
  5
1FF9
  8
0
 10
276.8422057243165
 20
234.6231285183901
 30
0.0
  0
SEQEND
  5
1FFA
  8
0
  0
LINE
  5
1B6C
  8
0
 10
251.09878735114901
 20
236.12312969558181
 30
0.0
 11
251.09878735114901
 21
233.12312920384349
 31
0.0
  0
ARC
  5
1B6D
  8
0
 10
253.01999374865909
 20
233.0452219324408
 30
0.0
 40
1.9227853662774601
 50
177.6778582849615
 51
268.46242781232559
  0
LINE
  5
1B6E
  8
0
 10
252.96840065588319
 20
231.123128876018
 30
0.0
 11
276.05528192092743
 21
231.123128876018
 31
0.0
  0
ARC
  5
1B6F
  8
0
 10
275.982671863402
 20
233.06486872768099
 30
0.0
 40
1.9430969795638351
 50
272.1415393653723
 51
1.718174537341717
  0
LINE
  5
1B70
  8
0
 10
277.92489522566171
 20
236.12312969558181
 30
0.0
 11
277.92489522566171
 21
233.12312920384349
 31
0.0
  0
ARC
  5
1B71
  8
0
 10
276.00368882815178
 20
236.2010369669847
 30
0.0
 40
1.922785366277469
 50
357.67785828496147
 51
88.462427812325643
  0
LINE
  5
1B72
  8
0
 10
252.96840065588319
 20
238.12313002340741
 30
0.0
 11
276.05528192092743
 21
238.12313002340741
 31
0.0
  0
ARC
  5
1B73
  8
0
 10
253.0410107134087
 20
236.1813901717444
 30
0.0
 40
1.9430969795638351
 50
92.141539365372296
 51
181.7181745373417
  0
LINE
  5
1B74
  8
0
 10
272.32075243686398
 20
232.52312836043779
 30
0.0
 11
271.0360660540041
 21
232.52312836043779
 31
0.0
  0
LINE
  5
1B75
  8
0
 10
271.0360660540041
 20
233.44187994294111
 30
0.0
 11
271.0360660540041
 21
232.52312836043779
 31
0.0
  0
LINE
  5
1B76
  8
0
 10
271.0360660540041
 20
233.44187994294111
 30
0.0
 11
270.26074746121731
 21
233.44187994294111
 31
0.0
  0
LINE
  5
1B77
  8
0
 10
270.26074746121731
 20
232.52312836043779
 30
0.0
 11
270.26074746121731
 21
233.44187994294111
 31
0.0
  0
LINE
  5
1B78
  8
0
 10
270.26074746121731
 20
232.52312836043779
 30
0.0
 11
268.96229473372068
 21
232.52312836043779
 31
0.0
  0
LINE
  5
1B79
  8
0
 10
268.96229473372068
 20
235.01687866442151
 30
0.0
 11
268.96229473372068
 21
232.52312836043779
 31
0.0
  0
ARC
  5
1B7A
  8
0
 10
270.64152358529242
 20
235.03713575869861
 30
0.0
 40
1.6793510311484281
 50
359.3088555437219
 51
180.6911444562781
  0
LINE
  5
1B7B
  8
0
 10
272.32075243686398
 20
232.52312836043779
 30
0.0
 11
272.32075243686398
 21
235.01687866442151
 31
0.0
  0
LINE
  5
1B7C
  8
0
 10
262.41309748460623
 20
232.52312836043779
 30
0.0
 11
261.10472989698019
 21
232.52312836043779
 31
0.0
  0
LINE
  5
1B7D
  8
0
 10
261.10472989698019
 20
236.72312867634241
 30
0.0
 11
261.10472989698019
 21
232.52312836043779
 31
0.0
  0
LINE
  5
1B7E
  8
0
 10
262.41309748460623
 20
236.72312867634241
 30
0.0
 11
261.10472989698019
 21
236.72312867634241
 31
0.0
  0
LINE
  5
1B7F
  8
0
 10
262.41309748460623
 20
232.52312836043779
 30
0.0
 11
262.41309748460623
 21
236.72312867634241
 31
0.0
  0
LINE
  5
1B80
  8
0
 10
257.3795047910985
 20
234.89312824599691
 30
0.0
 11
256.93952006717291
 21
234.89312824599691
 31
0.0
  0
LINE
  5
1B81
  8
0
 10
257.3795047910985
 20
235.5366628318304
 30
0.0
 11
257.3795047910985
 21
234.89312824599691
 31
0.0
  0
POLYLINE
  5
1B82
  8
0
 66
     1
 10
0.0
 20
0.0
 30
0.0
 70
   128
  0
VERTEX
  5
1FFB
  8
0
 10
256.03431550283989
 20
236.0859103202099
 30
0.0
  0
VERTEX
  5
1FFC
  8
0
 10
256.66786072273823
 20
235.71453613035621
 30
0.0
  0
VERTEX
  5
1FFD
  8
0
 10
257.3795047910985
 20
235.5366628318304
 30
0.0
  0
SEQEND
  5
1FFE
  8
0
  0
POLYLINE
  5
1B83
  8
0
 66
     1
 10
0.0
 20
0.0
 30
0.0
 70
   128
  0
VERTEX
  5
1FFF
  8
0
 10
255.49681944270699
 20
234.6231285183901
 30
0.0
  0
VERTEX
  5
2000
  8
0
 10
255.6354961680349
 20
235.40539850287379
 30
0.0
  0
VERTEX
  5
2001
  8
0
 10
256.03431550283989
 20
236.0859103202099
 30
0.0
  0
SEQEND
  5
2002
  8
0
  0
ARC
  5
1B84
  8
0
 10
254.80504188184699
 20
234.6008494891496
 30
0.0
 40
0.6921362213128283
 50
178.15539940857141
 51
1.8446005914285499
  0
LINE
  5
1B85
  8
0
 10
254.1132643209871
 20
234.89312824599691
 30
0.0
 11
254.1132643209871
 21
234.6231285183901
 31
0.0
  0
LINE
  5
1B86
  8
0
 10
254.1132643209871
 20
234.89312824599691
 30
0.0
 11
253.64160252233111
 21
234.89312824599691
 31
0.0
  0
LINE
  5
1B87
  8
0
 10
253.64160252233111
 20
234.6231285183901
 30
0.0
 11
253.64160252233111
 21
234.89312824599691
 31
0.0
  0
ARC
  5
1B88
  8
0
 10
254.84346340020849
 20
234.60260566964979
 30
0.0
 40
1.2020360880991181
 50
179.02171842960561
 51
255.56653477886749
  0
LINE
  5
1B89
  8
0
 10
254.5438492061671
 20
232.93457922332229
 30
0.0
 11
254.5438492061671
 21
233.43850855522101
 31
0.0
  0
LINE
  5
1B8C
  8
0
 10
253.17210977395141
 20
234.89312824599691
 30
0.0
 11
252.70487827678289
 21
234.89312824599691
 31
0.0
  0
LINE
  5
1B8D
  8
0
 10
252.70487827678289
 20
234.6231285183901
 30
0.0
 11
252.70487827678289
 21
234.89312824599691
 31
0.0
  0
ARC
  5
1B8E
  8
0
 10
254.8665713391899
 20
234.57278199154001
 30
0.0
 40
2.162279276324953
 50
178.66580406794151
 51
261.41648224265532
  0
LINE
  5
1B8F
  8
0
 10
254.5438492061671
 20
231.9366633593315
 30
0.0
 11
254.5438492061671
 21
232.43472163371979
 31
0.0
  0
ARC
  5
1B91
  8
0
 10
254.8226898810189
 20
234.7661470564577
 30
0.0
 40
2.5425448623244962
 50
56.761908742644849
 51
88.664357472185202
  0
ARC
  5
1B92
  8
0
 10
257.64636910839158
 20
234.62312944971271
 30
0.0
 40
2.6825677293578818
 50
237.7852489786508
 51
122.2147510213493
  0
POLYLINE
  5
1B93
  8
0
 66
     1
 10
0.0
 20
0.0
 30
0.0
 70
   128
  0
VERTEX
  5
2003
  8
0
 10
255.06271322687229
 20
231.9366633593315
 30
0.0
  0
VERTEX
  5
2004
  8
0
 10
255.6620891528305
 20
232.0745382159227
 30
0.0
  0
VERTEX
  5
2005
  8
0
 10
256.21630804111328
 20
232.35352706901969
 30
0.0
  0
SEQEND
  5
2006
  8
0
  0
LINE
  5
1B97
  8
0
 10
262.93737132531669
 20
235.01687866442151
 30
0.0
 11
262.93737132531669
 21
232.52312836043779
 31
0.0
  0
ARC
  5
1B99
  8
0
 10
266.74043954855392
 20
235.02211076942811
 30
0.0
 40
1.7006331879300129
 50
359.82372565119692
 51
128.02383801688589
  0
LINE
  5
1B9B
  8
0
 10
268.44106468801459
 20
232.52312836043779
 30
0.0
 11
267.13438814935353
 21
232.52312836043779
 31
0.0
  0
LINE
  5
1B9C
  8
0
 10
267.13438814935353
 20
235.01687866442151
 30
0.0
 11
267.13438814935353
 21
232.52312836043779
 31
0.0
  0
ARC
  5
1B9D
  8
0
 10
266.74144394659521
 20
235.01752927859329
 30
0.0
 40
0.3929447413825675
 50
359.9051330651921
 51
180.09486693480801
  0
LINE
  5
1B9E
  8
0
 10
266.34849974383678
 20
232.52312836043779
 30
0.0
 11
266.34849974383678
 21
235.01687866442151
 31
0.0
  0
LINE
  5
1B9F
  8
0
 10
266.34849974383678
 20
232.52312836043779
 30
0.0
 11
265.03682165370401
 21
232.52312836043779
 31
0.0
  0
LINE
  5
1BA0
  8
0
 10
265.03682165370401
 20
235.01687866442151
 30
0.0
 11
265.03682165370401
 21
232.52312836043779
 31
0.0
  0
ARC
  5
1BA1
  8
0
 10
264.64308269809538
 20
235.01689034498111
 30
0.0
 40
0.3937389557818253
 50
359.99830027800601
 51
180.00169972199399
  0
LINE
  5
1BA2
  8
0
 10
264.24934374248687
 20
232.52312836043779
 30
0.0
 11
264.24934374248687
 21
235.01687866442151
 31
0.0
  0
LINE
  5
1BA3
  8
0
 10
264.24934374248687
 20
232.52312836043779
 30
0.0
 11
262.93737132531669
 21
232.52312836043779
 31
0.0
  0
LINE
  5
1BA5
  8
0
 10
256.45698135216799
 20
234.89312824599691
 30
0.0
 11
255.97604916860431
 21
234.89312824599691
 31
0.0
  0
LINE
  5
1BA6
  8
0
 10
256.45698135216799
 20
234.6231285183901
 30
0.0
 11
256.45698135216799
 21
234.89312824599691
 31
0.0
  0
ARC
  5
1BA7
  8
0
 10
254.7597723795279
 20
234.6046352525328
 30
0.0
 40
1.6973097235601939
 50
280.28140842036697
 51
0.6242862067045213
  0
LINE
  5
1BA8
  8
0
 10
255.06271322687229
 20
233.43850855522101
 30
0.0
 11
255.06271322687229
 21
232.93457922332229
 31
0.0
  0
LINE
  5
1BAA
  8
0
 10
251.01184093822829
 20
211.12312932305281
 30
0.0
 11
251.01184093822829
 21
210.33023609120639
 31
0.0
  0
LINE
  5
1BAB
  8
0
 10
278.01184163858278
 20
210.33023609120639
 30
0.0
 11
278.01184163858278
 21
211.12312932305281
 31
0.0
  0
ARC
  5
1BAC
  8
0
 10
250.51184128840549
 20
210.3302361042395
 30
0.0
 40
0.500000000000004
 50
315.0
 51
0.0
  0
ARC
  5
1BAD
  8
0
 10
278.51184128840561
 20
210.3302361042395
 30
0.0
 40
0.5000000000000443
 50
180.0
 51
224.99999999999309
  0
LINE
  5
1BAE
  8
0
 10
277.70799392332418
 20
199.12312921874471
 30
0.0
 11
278.51184172053922
 21
202.123129710483
 31
0.0
  0
LINE
  5
1BAF
  8
0
 10
250.5118408562719
 20
202.123129710483
 30
0.0
 11
251.31568865348689
 21
199.12312921874471
 31
0.0
  0
LINE
  5
1BB0
  8
0
 10
250.5118408562719
 20
209.62312931001429
 30
0.0
 11
250.5118408562719
 21
202.123129710483
 31
0.0
  0
LINE
  5
1BB1
  8
0
 10
278.51184172053922
 20
202.123129710483
 30
0.0
 11
278.51184172053922
 21
209.62312931001429
 31
0.0
  0
LINE
  5
1BB2
  8
0
 10
250.86539511998279
 20
209.97668275881799
 30
0.0
 11
250.5118408562719
 21
209.62312931001429
 31
0.0
  0
LINE
  5
1BB3
  8
0
 10
278.51184172053922
 20
209.62312931001429
 30
0.0
 11
278.15828745682819
 21
209.97668275881799
 31
0.0
  0
LINE
  5
1BB4
  8
0
 10
299.0118404241382
 20
211.12312932305281
 30
0.0
 11
299.51184143741722
 21
211.62312934680151
 31
0.0
  0
LINE
  5
1BB5
  8
0
 10
229.51184113939391
 20
211.62312934680151
 30
0.0
 11
230.0118421526729
 21
211.12312932305281
 31
0.0
  0
LINE
  5
1BB6
  8
0
 10
229.51184113939391
 20
212.9231292921329
 30
0.0
 11
229.51184113939391
 21
211.62312934680151
 31
0.0
  0
LINE
  5
1BB7
  8
0
 10
299.51184143741722
 20
211.62312934680151
 30
0.0
 11
299.51184143741722
 21
212.9231292921329
 31
0.0
  0
LINE
  5
1BB8
  8
0
 10
229.71184079964749
 20
213.12312941804771
 30
0.0
 11
229.51184113939391
 21
212.9231292921329
 31
0.0
  0
LINE
  5
1BB9
  8
0
 10
299.51184143741722
 20
212.9231292921329
 30
0.0
 11
299.31184177716358
 21
213.12312941804771
 31
0.0
  0
LINE
  5
1BBA
  8
0
 10
230.51183944066159
 20
250.1231301277156
 30
0.0
 11
229.51184113939391
 21
249.1231281011577
 31
0.0
  0
LINE
  5
1BBB
  8
0
 10
299.51184143741722
 20
249.1231281011577
 30
0.0
 11
298.51184313614948
 21
250.1231301277156
 31
0.0
  0
LINE
  5
1BBC
  8
0
 10
229.51184113939391
 20
249.1231281011577
 30
0.0
 11
229.51184113939391
 21
233.04224756352841
 31
0.0
  0
LINE
  5
1BBD
  8
0
 10
229.51184113939391
 20
219.20397688441221
 30
0.0
 11
229.51184113939391
 21
213.32312931113191
 31
0.0
  0
LINE
  5
1BBE
  8
0
 10
299.51184143741722
 20
213.32312931113191
 30
0.0
 11
299.51184143741722
 21
215.47559366368
 31
0.0
  0
LINE
  5
1BBF
  8
0
 10
299.51184143741722
 20
218.7520204744512
 30
0.0
 11
299.51184143741722
 21
249.1231281011577
 31
0.0
  0
LINE
  5
1BC0
  8
0
 10
299.31184177716358
 20
213.12312941804771
 30
0.0
 11
299.51184143741722
 21
213.32312931113191
 31
0.0
  0
LINE
  5
1BC1
  8
0
 10
229.51184113939391
 20
213.32312931113191
 30
0.0
 11
229.71184079964749
 21
213.12312941804771
 31
0.0
  0
ARC
  5
1BC2
  8
0
 10
297.0775267133547
 20
257.62312932305292
 30
0.0
 40
0.4000000000000193
 50
135.0
 51
225.0
  0
ARC
  5
1BC3
  8
0
 10
231.94615586345631
 20
257.62312932305292
 30
0.0
 40
0.4000000000000193
 50
315.00000000000699
 51
45.0
  0
LINE
  5
1BC4
  8
0
 10
297.0118400963126
 20
267.62312833957623
 30
0.0
 11
296.51184280832399
 21
268.12312935285519
 31
0.0
  0
LINE
  5
1BC5
  8
0
 10
297.0118400963126
 20
258.12312771372751
 30
0.0
 11
297.0118400963126
 21
267.62312833957623
 31
0.0
  0
LINE
  5
1BC6
  8
0
 10
296.79468547423471
 20
257.90597309164951
 30
0.0
 11
297.0118400963126
 21
258.12312771372751
 31
0.0
  0
LINE
  5
1BC7
  8
0
 10
297.0118400963126
 20
257.12312941245978
 30
0.0
 11
296.79468547423471
 21
257.34028775982807
 31
0.0
  0
LINE
  5
1BC8
  8
0
 10
232.51183976848711
 20
268.12312935285519
 30
0.0
 11
232.01184248049839
 21
267.62312833957623
 31
0.0
  0
LINE
  5
1BC9
  8
0
 10
232.01184248049839
 20
267.62312833957623
 30
0.0
 11
232.01184248049839
 21
258.12312771372751
 31
0.0
  0
LINE
  5
1BCA
  8
0
 10
232.01184248049839
 20
258.12312771372751
 30
0.0
 11
232.22899710257639
 21
257.90597309164951
 31
0.0
  0
LINE
  5
1BCB
  8
0
 10
232.22899710257639
 20
257.34028775982807
 30
0.0
 11
232.01184248049839
 21
257.12312941245978
 31
0.0
  0
LINE
  5
1BCC
  8
0
 10
297.0118400963126
 20
250.1231301277156
 30
0.0
 11
297.0118400963126
 21
257.12312941245978
 31
0.0
  0
LINE
  5
1BCD
  8
0
 10
232.01184248049839
 20
257.12312941245978
 30
0.0
 11
232.01184248049839
 21
250.1231301277156
 31
0.0
  0
LINE
  5
1BCE
  8
0
 10
292.35714015980352
 20
206.12312943481149
 30
0.0
 11
293.06411271412958
 21
207.3476402721578
 31
0.0
  0
LINE
  5
1BCF
  8
0
 10
287.95957093556513
 20
207.3476402721578
 30
0.0
 11
288.66654162724598
 21
206.12312943481149
 31
0.0
  0
LINE
  5
1BD6
  8
0
 10
403.49857390838531
 20
199.12312921874471
 30
0.0
 11
377.10626863854787
 21
199.12312921874471
 31
0.0
  0
LINE
  5
1BD7
  8
0
 10
376.30242084133289
 20
202.123129710483
 30
0.0
 11
404.3024217056003
 21
202.123129710483
 31
0.0
  0
LINE
  5
1BD9
  8
0
 10
355.50242078470848
 20
213.12312941804771
 30
0.0
 11
425.10242176222471
 21
213.12312941804771
 31
0.0
  0
LINE
  5
1BDC
  8
0
 10
424.80242040919933
 20
211.12312932305281
 30
0.0
 11
355.80242213773403
 21
211.12312932305281
 31
0.0
  0
LINE
  5
1BDD
  8
0
 10
356.30241942572258
 20
250.1231301277156
 30
0.0
 11
424.30242312121061
 21
250.1231301277156
 31
0.0
  0
ARC
  5
1BE0
  8
0
 10
459.16335244403228
 20
226.12312133941961
 30
0.0
 40
34.56069661833979
 50
168.45121876908871
 51
191.54881207918689
  0
POLYLINE
  5
1BE1
  8
0
 66
     1
 10
0.0
 20
0.0
 30
0.0
 70
   128
  0
VERTEX
  5
2007
  8
0
 10
355.30253288316402
 20
215.47559366368
 30
0.0
  0
VERTEX
  5
2008
  8
0
 10
355.30242484974531
 20
215.47319643937291
 30
0.0
  0
VERTEX
  5
2009
  8
0
 10
355.30689519810352
 20
215.57095690436901
 30
0.0
  0
VERTEX
  5
200A
  8
0
 10
355.31791833209661
 20
215.8433324358636
 30
0.0
  0
VERTEX
  5
200B
  8
0
 10
355.33068490194938
 20
216.26011186085881
 30
0.0
  0
VERTEX
  5
200C
  8
0
 10
355.3395957963433
 20
216.77446222670619
 30
0.0
  0
VERTEX
  5
200D
  8
0
 10
355.34133550691269
 20
217.1231293752069
 30
0.0
  0
SEQEND
  5
200E
  8
0
  0
ARC
  5
1BE2
  8
0
 10
320.31820229598549
 20
217.12253611648029
 30
0.0
 40
35.023133215951802
 50
0.0009705362726266
 51
2.6667029436068921
  0
LINE
  5
1BE5
  8
0
 10
425.30242142247818
 20
249.1231281011577
 30
0.0
 11
355.30242112445501
 21
249.1231281011577
 31
0.0
  0
LINE
  5
1BE6
  8
0
 10
422.80242008137373
 20
267.62312833957623
 30
0.0
 11
414.31956154274621
 21
267.62312833957623
 31
0.0
  0
LINE
  5
1BE8
  8
0
 10
422.80242008137373
 20
258.12312771372751
 30
0.0
 11
414.31956154274621
 21
258.12312771372751
 31
0.0
  0
LINE
  5
1BE9
  8
0
 10
414.16584302651557
 20
257.34028775982807
 30
0.0
 11
414.31956154274621
 21
257.12312941245978
 31
0.0
  0
ARC
  5
1BEA
  8
0
 10
414.59362297017651
 20
257.62313042573879
 30
0.0
 40
0.5128310188141798
 50
146.5278287261834
 51
213.4721712738166
  0
LINE
  5
1BEB
  8
0
 10
414.31956154274621
 20
258.12312771372751
 30
0.0
 11
414.16584302651557
 21
257.90597309164951
 31
0.0
  0
LINE
  5
1BEC
  8
0
 10
414.31956154274621
 20
258.12312771372751
 30
0.0
 11
414.31956154274621
 21
267.62312833957623
 31
0.0
  0
LINE
  5
1BED
  8
0
 10
414.31956154274621
 20
267.62312833957623
 30
0.0
 11
413.96562543677959
 21
268.12312935285519
 31
0.0
  0
ARC
  5
1BF0
  8
0
 10
366.01121811134971
 20
257.62313042573879
 30
0.0
 40
0.5128322411898219
 50
326.52791902380062
 51
33.472080976200303
  0
LINE
  5
1BF1
  8
0
 10
366.63921711015382
 20
268.12312935285519
 30
0.0
 11
366.28528100418731
 21
267.62312833957623
 31
0.0
  0
LINE
  5
1BF2
  8
0
 10
358.30241975354818
 20
268.12312935285519
 30
0.0
 11
422.30242279338512
 21
268.12312935285519
 31
0.0
  0
LINE
  5
1BF3
  8
0
 10
366.28528100418731
 20
257.12312941245978
 30
0.0
 11
366.43899952041778
 21
257.34028775982807
 31
0.0
  0
LINE
  5
1BF4
  8
0
 10
366.28528100418731
 20
267.62312833957623
 30
0.0
 11
366.28528100418731
 21
258.12312771372751
 31
0.0
  0
LINE
  5
1BF5
  8
0
 10
366.28528100418731
 20
267.62312833957623
 30
0.0
 11
357.80242246555952
 21
267.62312833957623
 31
0.0
  0
LINE
  5
1BF6
  8
0
 10
366.43899952041778
 20
257.90597309164951
 30
0.0
 11
366.28528100418731
 21
258.12312771372751
 31
0.0
  0
LINE
  5
1BF7
  8
0
 10
366.28528100418731
 20
258.12312771372751
 30
0.0
 11
357.80242246555952
 21
258.12312771372751
 31
0.0
  0
ARC
  5
1BF8
  8
0
 10
412.4722947859853
 20
257.62313042573879
 30
0.0
 40
0.5128241872305734
 50
146.52732406338859
 51
213.47267593661141
  0
ARC
  5
1BF9
  8
0
 10
368.13254922631933
 20
257.62313042573879
 30
0.0
 40
0.5128229648933618
 50
326.52723376515991
 51
33.472766234841004
  0
LINE
  5
1BFA
  8
0
 10
412.19824154841581
 20
257.12312941245978
 30
0.0
 11
412.04452303218523
 21
257.34028775982807
 31
0.0
  0
LINE
  5
1BFC
  8
0
 10
368.5603195147483
 20
257.34028775982807
 30
0.0
 11
368.40660099851772
 21
257.12312941245978
 31
0.0
  0
LINE
  5
1BFD
  8
0
 10
368.40660099851772
 20
258.12312771372751
 30
0.0
 11
368.40660099851772
 21
267.62312833957623
 31
0.0
  0
LINE
  5
1BFE
  8
0
 10
412.19824154841581
 20
267.62312833957623
 30
0.0
 11
412.19824154841581
 21
258.12312771372751
 31
0.0
  0
LINE
  5
1BFF
  8
0
 10
412.04452303218523
 20
257.90597309164951
 30
0.0
 11
412.19824154841581
 21
258.12312771372751
 31
0.0
  0
LINE
  5
1C00
  8
0
 10
412.19824154841581
 20
258.12312771372751
 30
0.0
 11
368.40660099851772
 21
258.12312771372751
 31
0.0
  0
LINE
  5
1C01
  8
0
 10
368.40660099851772
 20
258.12312771372751
 30
0.0
 11
368.5603195147483
 21
257.90597309164951
 31
0.0
  0
LINE
  5
1C03
  8
0
 10
368.40660099851772
 20
267.62312833957623
 30
0.0
 11
368.76053710448417
 21
268.12312935285519
 31
0.0
  0
LINE
  5
1C04
  8
0
 10
412.19824154841581
 20
267.62312833957623
 30
0.0
 11
368.40660099851772
 21
267.62312833957623
 31
0.0
  0
LINE
  5
1C05
  8
0
 10
411.84430544244918
 20
268.12312935285519
 30
0.0
 11
412.19824154841581
 21
267.62312833957623
 31
0.0
  0
LINE
  5
1C07
  8
0
 10
366.28528100418731
 20
257.12312941245978
 30
0.0
 11
366.28528100418731
 21
250.1231301277156
 31
0.0
  0
LINE
  5
1C08
  8
0
 10
366.28528100418731
 20
257.12312941245978
 30
0.0
 11
357.80242246555952
 21
257.12312941245978
 31
0.0
  0
LINE
  5
1C09
  8
0
 10
422.80242008137373
 20
257.12312941245978
 30
0.0
 11
414.31956154274621
 21
257.12312941245978
 31
0.0
  0
LINE
  5
1C0A
  8
0
 10
414.31956154274621
 20
250.1231301277156
 30
0.0
 11
414.31956154274621
 21
257.12312941245978
 31
0.0
  0
LINE
  5
1C0B
  8
0
 10
412.19824154841581
 20
257.12312941245978
 30
0.0
 11
412.19824154841581
 21
250.1231301277156
 31
0.0
  0
LINE
  5
1C0C
  8
0
 10
412.19824154841581
 20
257.12312941245978
 30
0.0
 11
368.40660099851772
 21
257.12312941245978
 31
0.0
  0
LINE
  5
1C0D
  8
0
 10
368.40660099851772
 20
250.1231301277156
 30
0.0
 11
368.40660099851772
 21
257.12312941245978
 31
0.0
  0
LINE
  5
1C0E
  8
0
 10
366.85469162630699
 20
211.12312932305281
 30
0.0
 11
366.85469162630699
 21
207.3476402721578
 31
0.0
  0
LINE
  5
1C0F
  8
0
 10
361.75014984774259
 20
211.12312932305281
 30
0.0
 11
361.75014984774259
 21
207.3476402721578
 31
0.0
  0
LINE
  5
1C10
  8
0
 10
366.14772093462608
 20
206.12312943481149
 30
0.0
 11
362.45712240206859
 21
206.12312943481149
 31
0.0
  0
POLYLINE
  5
1C11
  8
0
 66
     1
 10
0.0
 20
0.0
 30
0.0
 70
   128
  0
VERTEX
  5
200F
  8
0
 10
366.85469162630699
 20
207.3476402721578
 30
0.0
  0
VERTEX
  5
2010
  8
0
 10
366.4963280128207
 20
206.8760911635334
 30
0.0
  0
VERTEX
  5
2011
  8
0
 10
366.26823593842653
 20
206.7595561667556
 30
0.0
  0
VERTEX
  5
2012
  8
0
 10
366.03280876743457
 20
206.80797655873241
 30
0.0
  0
VERTEX
  5
2013
  8
0
 10
365.75660643148092
 20
207.07379464797921
 30
0.0
  0
VERTEX
  5
2014
  8
0
 10
365.4654098020759
 20
207.55607981041311
 30
0.0
  0
VERTEX
  5
2015
  8
0
 10
365.20242107081077
 20
208.1231292969758
 30
0.0
  0
SEQEND
  5
2016
  8
0
  0
POLYLINE
  5
1C12
  8
0
 66
     1
 10
0.0
 20
0.0
 30
0.0
 70
   128
  0
VERTEX
  5
2017
  8
0
 10
361.75014984774259
 20
207.3476402721578
 30
0.0
  0
VERTEX
  5
2018
  8
0
 10
362.10851532387397
 20
206.8760911635334
 30
0.0
  0
VERTEX
  5
2019
  8
0
 10
362.3366073982682
 20
206.7595561667556
 30
0.0
  0
VERTEX
  5
201A
  8
0
 10
362.5720345692601
 20
206.80797655873241
 30
0.0
  0
VERTEX
  5
201B
  8
0
 10
362.84823504256872
 20
207.07379464797921
 30
0.0
  0
VERTEX
  5
201C
  8
0
 10
363.13943353461889
 20
207.55607981041311
 30
0.0
  0
VERTEX
  5
201D
  8
0
 10
363.40242040323881
 20
208.1231292969758
 30
0.0
  0
SEQEND
  5
201E
  8
0
  0
LINE
  5
1C13
  8
0
 10
363.40242040323881
 20
211.12312932305281
 30
0.0
 11
363.40242040323881
 21
208.1231292969758
 31
0.0
  0
LINE
  5
1C14
  8
0
 10
365.20242107081077
 20
208.1231292969758
 30
0.0
 11
363.40242040323881
 21
208.1231292969758
 31
0.0
  0
LINE
  5
1C15
  8
0
 10
365.20242107081077
 20
211.12312932305281
 30
0.0
 11
365.20242107081077
 21
208.1231292969758
 31
0.0
  0
LINE
  5
1C16
  8
0
 10
376.80242092328928
 20
211.12312932305281
 30
0.0
 11
376.80242092328928
 21
210.33023609120639
 31
0.0
  0
LINE
  5
1C17
  8
0
 10
403.80242162364391
 20
210.33023609120639
 30
0.0
 11
403.80242162364391
 21
211.12312932305281
 31
0.0
  0
ARC
  5
1C18
  8
0
 10
376.30242127346662
 20
210.3302361042395
 30
0.0
 40
0.5000000000000285
 50
315.0
 51
0.0
  0
ARC
  5
1C19
  8
0
 10
404.30242127346662
 20
210.3302361042395
 30
0.0
 40
0.5000000000000285
 50
180.0
 51
225.0
  0
LINE
  5
1C1A
  8
0
 10
403.49857390838531
 20
199.12312921874471
 30
0.0
 11
404.3024217056003
 21
202.123129710483
 31
0.0
  0
LINE
  5
1C1B
  8
0
 10
376.30242084133289
 20
202.123129710483
 30
0.0
 11
377.10626863854787
 21
199.12312921874471
 31
0.0
  0
LINE
  5
1C1C
  8
0
 10
376.65597510504392
 20
209.97668275881799
 30
0.0
 11
376.30242084133289
 21
209.62312931001429
 31
0.0
  0
LINE
  5
1C1D
  8
0
 10
404.3024217056003
 20
209.62312931001429
 30
0.0
 11
403.94886744188932
 21
209.97668275881799
 31
0.0
  0
LINE
  5
1C1E
  8
0
 10
376.30242084133289
 20
209.62312931001429
 30
0.0
 11
376.30242084133289
 21
202.123129710483
 31
0.0
  0
LINE
  5
1C1F
  8
0
 10
404.3024217056003
 20
202.123129710483
 30
0.0
 11
404.3024217056003
 21
209.62312931001429
 31
0.0
  0
LINE
  5
1C20
  8
0
 10
355.30242112445501
 20
212.9231292921329
 30
0.0
 11
355.30242112445501
 21
211.62312934680151
 31
0.0
  0
LINE
  5
1C21
  8
0
 10
425.30242142247818
 20
211.62312934680151
 30
0.0
 11
425.30242142247818
 21
212.9231292921329
 31
0.0
  0
LINE
  5
1C22
  8
0
 10
355.50242078470848
 20
213.12312941804771
 30
0.0
 11
355.30242112445501
 21
212.9231292921329
 31
0.0
  0
LINE
  5
1C23
  8
0
 10
425.30242142247818
 20
212.9231292921329
 30
0.0
 11
425.10242176222471
 21
213.12312941804771
 31
0.0
  0
LINE
  5
1C24
  8
0
 10
424.80242040919933
 20
211.12312932305281
 30
0.0
 11
425.30242142247818
 21
211.62312934680151
 31
0.0
  0
LINE
  5
1C25
  8
0
 10
355.30242112445501
 20
211.62312934680151
 30
0.0
 11
355.80242213773403
 21
211.12312932305281
 31
0.0
  0
LINE
  5
1C26
  8
0
 10
356.30241942572258
 20
250.1231301277156
 30
0.0
 11
355.30242112445501
 21
249.1231281011577
 31
0.0
  0
LINE
  5
1C27
  8
0
 10
425.30242142247818
 20
249.1231281011577
 30
0.0
 11
424.30242312121061
 21
250.1231301277156
 31
0.0
  0
LINE
  5
1C28
  8
0
 10
425.10242176222471
 20
213.12312941804771
 30
0.0
 11
425.30242142247818
 21
213.32312931113191
 31
0.0
  0
LINE
  5
1C29
  8
0
 10
355.30242112445501
 20
213.32312931113191
 30
0.0
 11
355.50242078470848
 21
213.12312941804771
 31
0.0
  0
LINE
  5
1C2A
  8
0
 10
355.30242112445501
 20
249.1231281011577
 30
0.0
 11
355.30242112445501
 21
218.7520204744512
 31
0.0
  0
LINE
  5
1C2B
  8
0
 10
355.30242112445501
 20
215.47559366368
 30
0.0
 11
355.30242112445501
 21
213.32312931113191
 31
0.0
  0
LINE
  5
1C2C
  8
0
 10
425.30242142247818
 20
213.32312931113191
 30
0.0
 11
425.30242142247818
 21
219.20397688441221
 31
0.0
  0
LINE
  5
1C2D
  8
0
 10
425.30242142247818
 20
233.04224756352841
 30
0.0
 11
425.30242142247818
 21
249.1231281011577
 31
0.0
  0
ARC
  5
1C2E
  8
0
 10
422.86810669841577
 20
257.62312932305292
 30
0.0
 40
0.4000000000000193
 50
135.0
 51
225.0
  0
ARC
  5
1C2F
  8
0
 10
357.73673584851741
 20
257.62312932305292
 30
0.0
 40
0.4000000000000193
 50
315.00000000000699
 51
45.0
  0
LINE
  5
1C30
  8
0
 10
422.80242008137373
 20
258.12312771372751
 30
0.0
 11
422.80242008137373
 21
267.62312833957623
 31
0.0
  0
LINE
  5
1C31
  8
0
 10
422.80242008137373
 20
267.62312833957623
 30
0.0
 11
422.30242279338512
 21
268.12312935285519
 31
0.0
  0
LINE
  5
1C32
  8
0
 10
422.58526545929578
 20
257.90597309164951
 30
0.0
 11
422.80242008137373
 21
258.12312771372751
 31
0.0
  0
LINE
  5
1C33
  8
0
 10
422.80242008137373
 20
257.12312941245978
 30
0.0
 11
422.58526545929578
 21
257.34028775982807
 31
0.0
  0
LINE
  5
1C34
  8
0
 10
358.30241975354818
 20
268.12312935285519
 30
0.0
 11
357.80242246555952
 21
267.62312833957623
 31
0.0
  0
LINE
  5
1C35
  8
0
 10
358.0195770876374
 20
257.34028775982807
 30
0.0
 11
357.80242246555952
 21
257.12312941245978
 31
0.0
  0
LINE
  5
1C36
  8
0
 10
357.80242246555952
 20
267.62312833957623
 30
0.0
 11
357.80242246555952
 21
258.12312771372751
 31
0.0
  0
LINE
  5
1C37
  8
0
 10
357.80242246555952
 20
258.12312771372751
 30
0.0
 11
358.0195770876374
 21
257.90597309164951
 31
0.0
  0
LINE
  5
1C38
  8
0
 10
422.80242008137373
 20
250.1231301277156
 30
0.0
 11
422.80242008137373
 21
257.12312941245978
 31
0.0
  0
LINE
  5
1C39
  8
0
 10
357.80242246555952
 20
257.12312941245978
 30
0.0
 11
357.80242246555952
 21
250.1231301277156
 31
0.0
  0
LINE
  5
1C3A
  8
0
 10
366.14772093462608
 20
206.12312943481149
 30
0.0
 11
366.85469162630699
 21
207.3476402721578
 31
0.0
  0
LINE
  5
1C3B
  8
0
 10
361.75014984774259
 20
207.3476402721578
 30
0.0
 11
362.45712240206859
 21
206.12312943481149
 31
0.0
  0
CIRCLE
  5
1C40
  8
0
 10
264.51184128840549
 20
357.14698696158388
 30
0.0
 40
34.0
  0
CIRCLE
  5
1C41
  8
0
 10
264.51184128840549
 20
357.14698696158388
 30
0.0
 40
35.0
  0
LINE
  5
1C55
  8
0
 10
242.61602101345639
 20
333.1298466923044
 30
0.0
 11
259.29755106066449
 21
349.81137673951253
 31
0.0
  0
LINE
  5
1C56
  8
0
 10
269.72613151614649
 20
349.81137673951253
 30
0.0
 11
286.40766156335468
 21
333.1298466923044
 31
0.0
  0
ARC
  5
1C57
  8
0
 10
264.51184128840549
 20
357.14698696158388
 30
0.0
 40
9.5000000000000284
 50
234.08472028739081
 51
305.91527971260928
  0
LINE
  5
1C5C
  8
0
 10
240.49470101912601
 20
379.04280723653301
 30
0.0
 11
257.17623106633408
 21
362.36127718932488
 31
0.0
  0
LINE
  5
1C5D
  8
0
 10
257.1762310663342
 20
351.93269673384282
 30
0.0
 11
240.49470101912601
 21
335.25116668663492
 31
0.0
  0
ARC
  5
1C5E
  8
0
 10
264.51184128840549
 20
357.14698696158388
 30
0.0
 40
9.5000000000000373
 50
144.08472028738899
 51
215.91527971261189
  0
LINE
  5
1C63
  8
0
 10
288.52898155768497
 20
335.2511666866348
 30
0.0
 11
271.84745151047701
 21
351.93269673384287
 31
0.0
  0
LINE
  5
1C65
  8
0
 10
271.84745151047701
 20
362.36127718932488
 30
0.0
 11
288.5289815576852
 21
379.04280723653301
 31
0.0
  0
ARC
  5
1C66
  8
0
 10
264.51184128840549
 20
357.14698696158388
 30
0.0
 40
9.5000000000000142
 50
324.08472028739442
 51
35.915279712610939
  0
LINE
  5
1C6A
  8
0
 10
286.40766156335468
 20
381.16412723086353
 30
0.0
 11
269.72613151614661
 21
364.48259718365529
 31
0.0
  0
LINE
  5
1C6C
  8
0
 10
259.29755106066449
 20
364.48259718365529
 30
0.0
 11
242.61602101345639
 21
381.16412723086341
 31
0.0
  0
ARC
  5
1C6D
  8
0
 10
264.51184128840549
 20
357.14698696158388
 30
0.0
 40
9.5000000000000053
 50
54.084720287390752
 51
125.91527971260921
  0
CIRCLE
  5
1C79
  8
0
 10
264.51184128840549
 20
357.14698696158388
 30
0.0
 40
1.6500000000000341
  0
CIRCLE
  5
1C7A
  8
0
 10
264.51184128840549
 20
357.14698696158388
 30
0.0
 40
2.3500000000000218
  0
LINE
  5
1C80
  8
0
 10
266.1618412794648
 20
392.10807272813793
 30
0.0
 11
266.1618412794648
 21
392.14698711059572
 31
0.0
  0
LINE
  5
1C81
  8
0
 10
262.86184129734619
 20
392.14698711059572
 30
0.0
 11
262.86184129734619
 21
392.10807272813793
 31
0.0
  0
LINE
  5
1C8A
  8
0
 10
157.78829552558631
 20
199.12312921874471
 30
0.0
 11
131.3959902557489
 21
199.12312921874471
 31
0.0
  0
LINE
  5
1C8B
  8
0
 10
130.59214245853391
 20
202.123129710483
 30
0.0
 11
158.59214332280129
 21
202.123129710483
 31
0.0
  0
LINE
  5
1C8C
  8
0
 10
158.59214332280129
 20
209.62312931001429
 30
0.0
 11
130.59214245853391
 21
209.62312931001429
 31
0.0
  0
LINE
  5
1C8D
  8
0
 10
109.7921424019094
 20
213.12312941804771
 30
0.0
 11
144.5921428906677
 21
213.12312941804771
 31
0.0
  0
LINE
  5
1C8E
  8
0
 10
144.5921428906677
 20
213.12312941804771
 30
0.0
 11
179.3921433794257
 21
213.12312941804771
 31
0.0
  0
LINE
  5
1C92
  8
0
 10
179.0921420264003
 20
211.12312932305281
 30
0.0
 11
110.0921437549349
 21
211.12312932305281
 31
0.0
  0
LINE
  5
1C93
  8
0
 10
140.5921427006779
 20
223.81372839950271
 30
0.0
 11
144.5921428906677
 21
221.5043268799061
 31
0.0
  0
LINE
  5
1C94
  8
0
 10
148.59214308065751
 20
223.81372839950271
 30
0.0
 11
148.59214308065751
 21
228.4325305073732
 31
0.0
  0
LINE
  5
1C95
  8
0
 10
140.5921427006779
 20
228.4325305073732
 30
0.0
 11
140.5921427006779
 21
223.81372839950271
 31
0.0
  0
LINE
  5
1C96
  8
0
 10
144.5921428906677
 20
221.5043268799061
 30
0.0
 11
148.59214308065751
 21
223.81372839950271
 31
0.0
  0
LINE
  5
1C97
  8
0
 10
144.5921428906677
 20
230.7419310956472
 30
0.0
 11
140.5921427006779
 21
228.4325305073732
 31
0.0
  0
LINE
  5
1C98
  8
0
 10
148.59214308065751
 20
228.4325305073732
 30
0.0
 11
144.5921428906677
 21
230.7419310956472
 31
0.0
  0
LINE
  5
1C99
  8
0
 10
110.5921410429235
 20
250.1231301277156
 30
0.0
 11
178.5921447384116
 21
250.1231301277156
 31
0.0
  0
CIRCLE
  5
1C9B
  8
0
 10
144.59214274542339
 20
226.12313042166991
 30
0.0
 40
6.5000002793548086
  0
CIRCLE
  5
1C9C
  8
0
 10
144.63595771366681
 20
226.10383130554581
 30
0.0
 40
6.9433995396730337
  0
POLYLINE
  5
1C9D
  8
0
 66
     1
 10
0.0
 20
0.0
 30
0.0
 70
   128
  0
VERTEX
  5
201F
  8
0
 10
179.59115583775019
 20
218.7520204744512
 30
0.0
  0
VERTEX
  5
2020
  8
0
 10
179.5916252243278
 20
218.76213370628901
 30
0.0
  0
VERTEX
  5
2021
  8
0
 10
179.5847073602435
 20
218.6070684976155
 30
0.0
  0
VERTEX
  5
2022
  8
0
 10
179.57252938625791
 20
218.28497524179761
 30
0.0
  0
VERTEX
  5
2023
  8
0
 10
179.56040729162669
 20
217.83162743591009
 30
0.0
  0
VERTEX
  5
2024
  8
0
 10
179.5536682414768
 20
217.29828321181481
 30
0.0
  0
VERTEX
  5
2025
  8
0
 10
179.55526639101481
 20
216.74566992365061
 30
0.0
  0
VERTEX
  5
2026
  8
0
 10
179.5644864845035
 20
216.23583228133859
 30
0.0
  0
VERTEX
  5
2027
  8
0
 10
179.57729775783989
 20
215.8255716487044
 30
0.0
  0
VERTEX
  5
2028
  8
0
 10
179.5880973744151
 20
215.56128651641549
 30
0.0
  0
VERTEX
  5
2029
  8
0
 10
179.5920312809703
 20
215.47559366368
 30
0.0
  0
SEQEND
  5
202A
  8
0
  0
LINE
  5
1C9F
  8
0
 10
179.59214303967931
 20
249.1231281011577
 30
0.0
 11
109.59214274165591
 21
249.1231281011577
 31
0.0
  0
LINE
  5
1CA0
  8
0
 10
177.09214169857481
 20
258.12312771372751
 30
0.0
 11
168.6092831599471
 21
258.12312771372751
 31
0.0
  0
LINE
  5
1CA1
  8
0
 10
177.09214169857481
 20
267.62312833957623
 30
0.0
 11
168.6092831599471
 21
267.62312833957623
 31
0.0
  0
LINE
  5
1CA2
  8
0
 10
112.5921413707491
 20
268.12312935285519
 30
0.0
 11
176.59214441058609
 21
268.12312935285519
 31
0.0
  0
LINE
  5
1CA3
  8
0
 10
168.4555646437166
 20
257.34028775982807
 30
0.0
 11
168.6092831599471
 21
257.12312941245978
 31
0.0
  0
ARC
  5
1CA4
  8
0
 10
168.88334458737731
 20
257.62313042573879
 30
0.0
 40
0.5128310188140849
 50
146.52782872617621
 51
213.47217127382379
  0
LINE
  5
1CA5
  8
0
 10
168.6092831599471
 20
258.12312771372751
 30
0.0
 11
168.4555646437166
 21
257.90597309164951
 31
0.0
  0
LINE
  5
1CA6
  8
0
 10
168.6092831599471
 20
258.12312771372751
 30
0.0
 11
168.6092831599471
 21
267.62312833957623
 31
0.0
  0
LINE
  5
1CA7
  8
0
 10
168.6092831599471
 20
267.62312833957623
 30
0.0
 11
168.25534705398061
 21
268.12312935285519
 31
0.0
  0
LINE
  5
1CAB
  8
0
 10
120.9289387273547
 20
268.12312935285519
 30
0.0
 11
120.57500262138809
 21
267.62312833957623
 31
0.0
  0
ARC
  5
1CAC
  8
0
 10
120.3009397285506
 20
257.62313042573879
 30
0.0
 40
0.5128322411898929
 50
326.5279190238079
 51
33.472080976198498
  0
LINE
  5
1CAD
  8
0
 10
120.57500262138809
 20
257.12312941245978
 30
0.0
 11
120.72872113761871
 21
257.34028775982807
 31
0.0
  0
LINE
  5
1CAE
  8
0
 10
120.57500262138809
 20
267.62312833957623
 30
0.0
 11
120.57500262138809
 21
258.12312771372751
 31
0.0
  0
LINE
  5
1CAF
  8
0
 10
120.57500262138809
 20
267.62312833957623
 30
0.0
 11
112.0921440827604
 21
267.62312833957623
 31
0.0
  0
LINE
  5
1CB0
  8
0
 10
120.72872113761871
 20
257.90597309164951
 30
0.0
 11
120.57500262138809
 21
258.12312771372751
 31
0.0
  0
LINE
  5
1CB1
  8
0
 10
120.57500262138809
 20
258.12312771372751
 30
0.0
 11
112.0921440827604
 21
258.12312771372751
 31
0.0
  0
ARC
  5
1CB2
  8
0
 10
166.76201640318621
 20
257.62313042573879
 30
0.0
 40
0.5128241872304549
 50
146.5273240633814
 51
213.4726759366186
  0
ARC
  5
1CB3
  8
0
 10
122.4222708435202
 20
257.62313042573879
 30
0.0
 40
0.5128229648933855
 50
326.52723376516622
 51
33.472766234840101
  0
LINE
  5
1CB4
  8
0
 10
122.6963226157185
 20
258.12312771372751
 30
0.0
 11
122.6963226157185
 21
267.62312833957623
 31
0.0
  0
LINE
  5
1CB5
  8
0
 10
166.48796316561669
 20
267.62312833957623
 30
0.0
 11
166.48796316561669
 21
258.12312771372751
 31
0.0
  0
LINE
  5
1CB6
  8
0
 10
166.48796316561669
 20
257.12312941245978
 30
0.0
 11
166.33424464938611
 21
257.34028775982807
 31
0.0
  0
LINE
  5
1CB8
  8
0
 10
122.8500411319491
 20
257.34028775982807
 30
0.0
 11
122.6963226157185
 21
257.12312941245978
 31
0.0
  0
LINE
  5
1CB9
  8
0
 10
122.6963226157185
 20
267.62312833957623
 30
0.0
 11
123.0502587216851
 21
268.12312935285519
 31
0.0
  0
LINE
  5
1CBA
  8
0
 10
166.48796316561669
 20
267.62312833957623
 30
0.0
 11
122.6963226157185
 21
267.62312833957623
 31
0.0
  0
LINE
  5
1CBB
  8
0
 10
166.13402705965021
 20
268.12312935285519
 30
0.0
 11
166.48796316561669
 21
267.62312833957623
 31
0.0
  0
LINE
  5
1CBD
  8
0
 10
177.09214169857481
 20
257.12312941245978
 30
0.0
 11
168.6092831599471
 21
257.12312941245978
 31
0.0
  0
LINE
  5
1CBE
  8
0
 10
168.6092831599471
 20
250.1231301277156
 30
0.0
 11
168.6092831599471
 21
257.12312941245978
 31
0.0
  0
LINE
  5
1CBF
  8
0
 10
166.48796316561669
 20
257.12312941245978
 30
0.0
 11
166.48796316561669
 21
250.1231301277156
 31
0.0
  0
LINE
  5
1CC0
  8
0
 10
166.48796316561669
 20
257.12312941245978
 30
0.0
 11
122.6963226157185
 21
257.12312941245978
 31
0.0
  0
LINE
  5
1CC1
  8
0
 10
122.6963226157185
 20
250.1231301277156
 30
0.0
 11
122.6963226157185
 21
257.12312941245978
 31
0.0
  0
LINE
  5
1CC2
  8
0
 10
120.57500262138809
 20
257.12312941245978
 30
0.0
 11
120.57500262138809
 21
250.1231301277156
 31
0.0
  0
LINE
  5
1CC3
  8
0
 10
120.57500262138809
 20
257.12312941245978
 30
0.0
 11
112.0921440827604
 21
257.12312941245978
 31
0.0
  0
LINE
  5
1CC4
  8
0
 10
166.33424464938611
 20
257.90597309164951
 30
0.0
 11
166.48796316561669
 21
258.12312771372751
 31
0.0
  0
LINE
  5
1CC5
  8
0
 10
166.48796316561669
 20
258.12312771372751
 30
0.0
 11
122.6963226157185
 21
258.12312771372751
 31
0.0
  0
LINE
  5
1CC6
  8
0
 10
122.6963226157185
 20
258.12312771372751
 30
0.0
 11
122.8500411319491
 21
257.90597309164951
 31
0.0
  0
LINE
  5
1CC8
  8
0
 10
179.64116040942639
 20
235.01687866442151
 30
0.0
 11
179.62115932581401
 21
235.01687866442151
 31
0.0
  0
ARC
  5
1CCA
  8
0
 10
303.11489378504302
 20
234.8828589467966
 30
0.0
 40
123.4938071806489
 50
179.76724943522919
 51
179.9378206415843
  0
POLYLINE
  5
1CCC
  8
0
 66
     1
 10
0.0
 20
0.0
 30
0.0
 70
   128
  0
VERTEX
  5
202B
  8
0
 10
179.18952111480209
 20
232.8231297134632
 30
0.0
  0
VERTEX
  5
202C
  8
0
 10
179.10977010009259
 20
233.07934959225599
 30
0.0
  0
VERTEX
  5
202D
  8
0
 10
179.01459638354751
 20
233.21153593056141
 30
0.0
  0
SEQEND
  5
202E
  8
0
  0
POLYLINE
  5
1CCD
  8
0
 66
     1
 10
0.0
 20
0.0
 30
0.0
 70
   128
  0
VERTEX
  5
202F
  8
0
 10
179.01459638354751
 20
232.43472163371979
 30
0.0
  0
VERTEX
  5
2030
  8
0
 10
179.10977010009259
 20
232.56690797202529
 30
0.0
  0
VERTEX
  5
2031
  8
0
 10
179.18952111480209
 20
232.8231297134632
 30
0.0
  0
SEQEND
  5
2032
  8
0
  0
LINE
  5
1CCE
  8
0
 10
179.32426486489749
 20
234.89312824599691
 30
0.0
 11
179.01459638354751
 21
234.89312824599691
 31
0.0
  0
POLYLINE
  5
1CCF
  8
0
 66
     1
 10
0.0
 20
0.0
 30
0.0
 70
   128
  0
VERTEX
  5
2033
  8
0
 10
179.32426486489749
 20
234.89312824599691
 30
0.0
  0
VERTEX
  5
2034
  8
0
 10
179.29980088350749
 20
235.53038944296779
 30
0.0
  0
VERTEX
  5
2035
  8
0
 10
179.2478107321021
 20
236.0859103202099
 30
0.0
  0
SEQEND
  5
2036
  8
0
  0
LINE
  5
1CD0
  8
0
 10
179.01459638354751
 20
233.21153593056141
 30
0.0
 11
179.01459638354751
 21
232.43472163371979
 31
0.0
  0
LINE
  5
1CD2
  8
0
 10
179.01459638354751
 20
235.5366628318304
 30
0.0
 11
179.01459638354751
 21
234.89312824599691
 31
0.0
  0
POLYLINE
  5
1CD5
  8
0
 66
     1
 10
0.0
 20
0.0
 30
0.0
 70
   128
  0
VERTEX
  5
2037
  8
0
 10
179.2478107321021
 20
236.0859103202099
 30
0.0
  0
VERTEX
  5
2038
  8
0
 10
179.1443854975459
 20
235.71453613035621
 30
0.0
  0
VERTEX
  5
2039
  8
0
 10
179.01459638354751
 20
235.5366628318304
 30
0.0
  0
SEQEND
  5
203A
  8
0
  0
POLYLINE
  5
1CD7
  8
0
 66
     1
 10
0.0
 20
0.0
 30
0.0
 70
   128
  0
VERTEX
  5
203B
  8
0
 10
179.2478107321021
 20
233.16034857921539
 30
0.0
  0
VERTEX
  5
203C
  8
0
 10
179.29980088350749
 20
233.71586945645751
 30
0.0
  0
VERTEX
  5
203D
  8
0
 10
179.32426486489749
 20
234.3531287907833
 30
0.0
  0
SEQEND
  5
203E
  8
0
  0
LINE
  5
1CD8
  8
0
 10
179.32426486489749
 20
234.3531287907833
 30
0.0
 11
179.01459638354751
 21
234.3531287907833
 31
0.0
  0
LINE
  5
1CD9
  8
0
 10
179.01459638354751
 20
234.3531287907833
 30
0.0
 11
179.01459638354751
 21
233.7095960675949
 31
0.0
  0
POLYLINE
  5
1CDC
  8
0
 66
     1
 10
0.0
 20
0.0
 30
0.0
 70
   128
  0
VERTEX
  5
203F
  8
0
 10
179.01459638354751
 20
233.7095960675949
 30
0.0
  0
VERTEX
  5
2040
  8
0
 10
179.1443854975459
 20
233.53172276906909
 30
0.0
  0
VERTEX
  5
2041
  8
0
 10
179.2478107321021
 20
233.16034857921539
 30
0.0
  0
SEQEND
  5
2042
  8
0
  0
LINE
  5
1CDD
  8
0
 10
179.01459638354751
 20
236.8115354030603
 30
0.0
 11
179.01459638354751
 21
236.03472296886389
 31
0.0
  0
POLYLINE
  5
1CDE
  8
0
 66
     1
 10
0.0
 20
0.0
 30
0.0
 70
   128
  0
VERTEX
  5
2043
  8
0
 10
179.01459638354751
 20
236.03472296886389
 30
0.0
  0
VERTEX
  5
2044
  8
0
 10
179.10977010009259
 20
236.16690744452421
 30
0.0
  0
VERTEX
  5
2045
  8
0
 10
179.18952111480209
 20
236.4231291859621
 30
0.0
  0
SEQEND
  5
2046
  8
0
  0
POLYLINE
  5
1CDF
  8
0
 66
     1
 10
0.0
 20
0.0
 30
0.0
 70
   128
  0
VERTEX
  5
2047
  8
0
 10
179.18952111480209
 20
236.4231291859621
 30
0.0
  0
VERTEX
  5
2048
  8
0
 10
179.10977010009259
 20
236.67935092740001
 30
0.0
  0
VERTEX
  5
2049
  8
0
 10
179.01459638354751
 20
236.8115354030603
 30
0.0
  0
SEQEND
  5
204A
  8
0
  0
LINE
  5
1CE0
  8
0
 10
178.8842559265849
 20
233.6948755829805
 30
0.0
 11
178.9087906884906
 21
233.7095960675949
 31
0.0
  0
LINE
  5
1CE1
  8
0
 10
178.9087906884906
 20
233.7095960675949
 30
0.0
 11
178.9087906884906
 21
234.132237702536
 31
0.0
  0
LINE
  5
1CE2
  8
0
 10
178.86469070193741
 20
233.6948755829805
 30
0.0
 11
178.8842559265849
 21
233.6948755829805
 31
0.0
  0
LINE
  5
1CE3
  8
0
 10
178.88920683739161
 20
234.132237702536
 30
0.0
 11
178.9087906884906
 21
234.132237702536
 31
0.0
  0
LINE
  5
1CE9
  8
0
 10
178.7421547281501
 20
232.68280734114589
 30
0.0
 11
178.9087906884906
 21
232.43472163371979
 31
0.0
  0
LINE
  5
1CEA
  8
0
 10
178.9087906884906
 20
232.43472163371979
 30
0.0
 11
178.9087906884906
 21
233.21153593056141
 31
0.0
  0
LINE
  5
1CEB
  8
0
 10
178.9087906884906
 20
233.21153593056141
 30
0.0
 11
178.8225576686618
 21
233.1199682950253
 31
0.0
  0
LINE
  5
1CEC
  8
0
 10
178.8225576686618
 20
233.1199682950253
 30
0.0
 11
178.7421547281501
 21
232.68280734114589
 31
0.0
  0
POLYLINE
  5
1CEE
  8
0
 66
     1
 10
0.0
 20
0.0
 30
0.0
 70
   128
  0
VERTEX
  5
204B
  8
0
 10
178.9087906884906
 20
236.8115354030603
 30
0.0
  0
VERTEX
  5
204C
  8
0
 10
178.79793722507929
 20
236.67935092740001
 30
0.0
  0
VERTEX
  5
204D
  8
0
 10
178.69052965519401
 20
236.4231291859621
 30
0.0
  0
SEQEND
  5
204E
  8
0
  0
LINE
  5
1CEF
  8
0
 10
178.9087906884906
 20
236.03472296886389
 30
0.0
 11
178.9087906884906
 21
236.8115354030603
 31
0.0
  0
POLYLINE
  5
1CF2
  8
0
 66
     1
 10
0.0
 20
0.0
 30
0.0
 70
   128
  0
VERTEX
  5
204F
  8
0
 10
178.69052965519401
 20
236.4231291859621
 30
0.0
  0
VERTEX
  5
2050
  8
0
 10
178.79793722507929
 20
236.16690744452421
 30
0.0
  0
VERTEX
  5
2051
  8
0
 10
178.9087906884906
 20
236.03472296886389
 30
0.0
  0
SEQEND
  5
2052
  8
0
  0
LINE
  5
1D04
  8
0
 10
178.88920683739161
 20
234.132237702536
 30
0.0
 11
178.86469070193741
 21
233.6948755829805
 31
0.0
  0
LINE
  5
1D14
  8
0
 10
178.62688307044479
 20
236.89273183040561
 30
0.0
 11
178.6463141846416
 21
236.89273183040561
 31
0.0
  0
POLYLINE
  5
1D15
  8
0
 66
     1
 10
0.0
 20
0.0
 30
0.0
 70
   128
  0
VERTEX
  5
2053
  8
0
 10
178.62688307044479
 20
236.89273183040561
 30
0.0
  0
VERTEX
  5
2054
  8
0
 10
178.53647027490109
 20
237.07382377974929
 30
0.0
  0
VERTEX
  5
2055
  8
0
 10
178.44241042015531
 20
237.2199259399647
 30
0.0
  0
VERTEX
  5
2056
  8
0
 10
178.34049392816991
 20
237.30694499604641
 30
0.0
  0
VERTEX
  5
2057
  8
0
 10
178.2365583288429
 20
237.30856735997139
 30
0.0
  0
SEQEND
  5
2058
  8
0
  0
LINE
  5
1D16
  8
0
 10
176.92792717692831
 20
236.12312969558181
 30
0.0
 11
176.92792717692831
 21
233.12312920384349
 31
0.0
  0
POLYLINE
  5
1D17
  8
0
 66
     1
 10
0.0
 20
0.0
 30
0.0
 70
   128
  0
VERTEX
  5
2059
  8
0
 10
177.64045600173449
 20
231.123128876018
 30
0.0
  0
VERTEX
  5
205A
  8
0
 10
177.41659213182899
 20
231.23559352748339
 30
0.0
  0
VERTEX
  5
205B
  8
0
 10
177.20805783150169
 20
231.56068098537861
 30
0.0
  0
VERTEX
  5
205C
  8
0
 10
177.04343725321269
 20
232.06144940845911
 30
0.0
  0
VERTEX
  5
205D
  8
0
 10
176.94674734351611
 20
232.68196170024811
 30
0.0
  0
VERTEX
  5
205E
  8
0
 10
176.92792717692831
 20
233.12312920384349
 30
0.0
  0
SEQEND
  5
205F
  8
0
  0
LINE
  5
1D18
  8
0
 10
177.68672783253169
 20
231.123128876018
 30
0.0
 11
177.64045600173449
 21
231.123128876018
 31
0.0
  0
POLYLINE
  5
1D1A
  8
0
 66
     1
 10
0.0
 20
0.0
 30
0.0
 70
   128
  0
VERTEX
  5
2060
  8
0
 10
176.92792717692831
 20
236.12312969558181
 30
0.0
  0
VERTEX
  5
2061
  8
0
 10
176.97090212581131
 20
236.78512123219909
 30
0.0
  0
VERTEX
  5
2062
  8
0
 10
177.09309537289121
 20
237.3724821656221
 30
0.0
  0
VERTEX
  5
2063
  8
0
 10
177.275861840224
 20
237.81890791647379
 30
0.0
  0
VERTEX
  5
2064
  8
0
 10
177.49273706552961
 20
238.0741033404345
 30
0.0
  0
VERTEX
  5
2065
  8
0
 10
177.64045600173449
 20
238.12313002340741
 30
0.0
  0
SEQEND
  5
2066
  8
0
  0
LINE
  5
1D1C
  8
0
 10
177.64045600173449
 20
238.12313002340741
 30
0.0
 11
177.68672783253169
 21
238.12313002340741
 31
0.0
  0
LINE
  5
1D1F
  8
0
 10
177.68672783253169
 20
231.123128876018
 30
0.0
 11
179.64214388606521
 21
231.123128876018
 31
0.0
  0
LINE
  5
1D20
  8
0
 10
177.68672783253169
 20
238.12313002340741
 30
0.0
 11
179.64214388606521
 21
238.12313002340741
 31
0.0
  0
LINE
  5
1D22
  8
0
 10
179.57924980995631
 20
232.52312836043779
 30
0.0
 11
179.4761524009464
 21
232.52312836043779
 31
0.0
  0
LINE
  5
1D23
  8
0
 10
179.4761524009464
 20
236.72312867634241
 30
0.0
 11
179.4761524009464
 21
232.52312836043779
 31
0.0
  0
LINE
  5
1D24
  8
0
 10
179.57924980995631
 20
236.72312867634241
 30
0.0
 11
179.4761524009464
 21
236.72312867634241
 31
0.0
  0
LINE
  5
1D25
  8
0
 10
179.57924980995631
 20
232.52312836043779
 30
0.0
 11
179.57924980995631
 21
236.72312867634241
 31
0.0
  0
LINE
  5
1D26
  8
0
 10
178.9087906884906
 20
234.89312824599691
 30
0.0
 11
178.8143955576179
 21
234.89312824599691
 31
0.0
  0
LINE
  5
1D27
  8
0
 10
178.9087906884906
 20
235.5366628318304
 30
0.0
 11
178.9087906884906
 21
234.89312824599691
 31
0.0
  0
POLYLINE
  5
1D28
  8
0
 66
     1
 10
0.0
 20
0.0
 30
0.0
 70
   128
  0
VERTEX
  5
2067
  8
0
 10
178.60146541473841
 20
236.0859103202099
 30
0.0
  0
VERTEX
  5
2068
  8
0
 10
178.75315178511121
 20
235.71453613035621
 30
0.0
  0
VERTEX
  5
2069
  8
0
 10
178.9087906884906
 20
235.5366628318304
 30
0.0
  0
SEQEND
  5
206A
  8
0
  0
POLYLINE
  5
1D29
  8
0
 66
     1
 10
0.0
 20
0.0
 30
0.0
 70
   128
  0
VERTEX
  5
206B
  8
0
 10
178.4629553961513
 20
234.6231285183901
 30
0.0
  0
VERTEX
  5
206C
  8
0
 10
178.49956009862399
 20
235.40539850287379
 30
0.0
  0
VERTEX
  5
206D
  8
0
 10
178.60146541473841
 20
236.0859103202099
 30
0.0
  0
SEQEND
  5
206E
  8
0
  0
POLYLINE
  5
1D2A
  8
0
 66
     1
 10
0.0
 20
0.0
 30
0.0
 70
   128
  0
VERTEX
  5
206F
  8
0
 10
178.06410346505621
 20
234.6231285183901
 30
0.0
  0
VERTEX
  5
2070
  8
0
 10
178.08032337901571
 20
234.34759673469009
 30
0.0
  0
VERTEX
  5
2071
  8
0
 10
178.1260624933002
 20
234.11401171975081
 30
0.0
  0
VERTEX
  5
2072
  8
0
 10
178.19327045557469
 20
233.9579350947613
 30
0.0
  0
VERTEX
  5
2073
  8
0
 10
178.27063355920291
 20
233.9031286238903
 30
0.0
  0
VERTEX
  5
2074
  8
0
 10
178.3459142255542
 20
233.9579350947613
 30
0.0
  0
VERTEX
  5
2075
  8
0
 10
178.40810049650639
 20
234.11401171975081
 30
0.0
  0
VERTEX
  5
2076
  8
0
 10
178.44881791946861
 20
234.34759673469009
 30
0.0
  0
VERTEX
  5
2077
  8
0
 10
178.4629553961513
 20
234.6231285183901
 30
0.0
  0
SEQEND
  5
2078
  8
0
  0
LINE
  5
1D2B
  8
0
 10
178.06410346505621
 20
234.89312824599691
 30
0.0
 11
178.06410346505621
 21
234.6231285183901
 31
0.0
  0
LINE
  5
1D2C
  8
0
 10
178.06410346505621
 20
234.89312824599691
 30
0.0
 11
177.91391466138339
 21
234.89312824599691
 31
0.0
  0
LINE
  5
1D2D
  8
0
 10
177.91391466138339
 20
234.6231285183901
 30
0.0
 11
177.91391466138339
 21
234.89312824599691
 31
0.0
  0
ARC
  5
1D2E
  8
0
 10
179.76355231588511
 20
234.43614715367821
 30
0.0
 40
1.8590646798054831
 50
174.22753368206779
 51
212.45484013168641
  0
LINE
  5
1D2F
  8
0
 10
178.194846253371
 20
232.93457922332229
 30
0.0
 11
178.194846253371
 21
233.43850855522101
 31
0.0
  0
ARC
  5
1D30
  8
0
 10
180.11719106526871
 20
234.33397978696709
 30
0.0
 40
2.3777576649774699
 50
173.01522258239029
 51
216.05332346951741
  0
LINE
  5
1D31
  8
0
 10
177.75707993981811
 20
234.89312824599691
 30
0.0
 11
177.75707993981811
 21
234.6231285183901
 31
0.0
  0
LINE
  5
1D32
  8
0
 10
177.75707993981811
 20
234.89312824599691
 30
0.0
 11
177.5936291026828
 21
234.89312824599691
 31
0.0
  0
LINE
  5
1D33
  8
0
 10
177.5936291026828
 20
234.6231285183901
 30
0.0
 11
177.5936291026828
 21
234.89312824599691
 31
0.0
  0
ARC
  5
1D34
  8
0
 10
180.46429122526089
 20
234.23499133896439
 30
0.0
 40
2.89678295563498
 50
172.2998347145768
 51
218.4237128290448
  0
LINE
  5
1D35
  8
0
 10
178.194846253371
 20
231.9366633593315
 30
0.0
 11
178.194846253371
 21
232.43472163371979
 31
0.0
  0
POLYLINE
  5
1D36
  8
0
 66
     1
 10
0.0
 20
0.0
 30
0.0
 70
   128
  0
VERTEX
  5
2079
  8
0
 10
178.25577710149261
 20
237.30856735997139
 30
0.0
  0
VERTEX
  5
207A
  8
0
 10
178.19116566655609
 20
237.30957505099721
 30
0.0
  0
VERTEX
  5
207B
  8
0
 10
178.0166544425247
 20
237.1751106976742
 30
0.0
  0
VERTEX
  5
207C
  8
0
 10
177.8473437237499
 20
236.91482838981091
 30
0.0
  0
VERTEX
  5
207D
  8
0
 10
177.69363079545471
 20
236.53687161199991
 30
0.0
  0
VERTEX
  5
207E
  8
0
 10
177.56660584685781
 20
236.06135320656239
 30
0.0
  0
VERTEX
  5
207F
  8
0
 10
177.47612972137901
 20
235.51302959017701
 30
0.0
  0
VERTEX
  5
2080
  8
0
 10
177.42935870168179
 20
234.9195703565353
 30
0.0
  0
VERTEX
  5
2081
  8
0
 10
177.42993984696841
 20
234.3108057677025
 30
0.0
  0
VERTEX
  5
2082
  8
0
 10
177.47799981710889
 20
233.7177730798
 30
0.0
  0
VERTEX
  5
2083
  8
0
 10
177.5695339250324
 20
233.17192491881789
 30
0.0
  0
VERTEX
  5
2084
  8
0
 10
177.69731883285019
 20
232.69885402910651
 30
0.0
  0
VERTEX
  5
2085
  8
0
 10
177.8516278075931
 20
232.31938292078911
 30
0.0
  0
VERTEX
  5
2086
  8
0
 10
177.96429921267011
 20
232.13433843843879
 30
0.0
  0
VERTEX
  5
2087
  8
0
 10
178.0773654985187
 20
232.01698993139209
 30
0.0
  0
VERTEX
  5
2088
  8
0
 10
178.194846253371
 20
231.9366633593315
 30
0.0
  0
VERTEX
  5
2089
  8
0
 10
178.194846253371
 20
231.9366633593315
 30
0.0
  0
SEQEND
  5
208A
  8
0
  0
POLYLINE
  5
1D38
  8
0
 66
     1
 10
0.0
 20
0.0
 30
0.0
 70
   128
  0
VERTEX
  5
208B
  8
0
 10
178.6463141846416
 20
232.35352706901969
 30
0.0
  0
VERTEX
  5
208C
  8
0
 10
178.79621614096141
 20
232.05618184797709
 30
0.0
  0
VERTEX
  5
208D
  8
0
 10
178.94273925898051
 20
231.9209444969172
 30
0.0
  0
VERTEX
  5
208E
  8
0
 10
179.07878313539001
 20
231.9959364532703
 30
0.0
  0
VERTEX
  5
208F
  8
0
 10
179.1926578092334
 20
232.2531696110243
 30
0.0
  0
VERTEX
  5
2090
  8
0
 10
179.28064916608309
 20
232.67967064671461
 30
0.0
  0
VERTEX
  5
2091
  8
0
 10
179.34196371910551
 20
233.2455441056961
 30
0.0
  0
VERTEX
  5
2092
  8
0
 10
179.37765945074531
 20
233.9093498586887
 30
0.0
  0
VERTEX
  5
2093
  8
0
 10
179.38929725763771
 20
234.62423492960869
 30
0.0
  0
VERTEX
  5
2094
  8
0
 10
179.37757004377821
 20
235.33900451652951
 30
0.0
  0
VERTEX
  5
2095
  8
0
 10
179.34181843278381
 20
236.00267057113589
 30
0.0
  0
VERTEX
  5
2096
  8
0
 10
179.2804554509876
 20
236.56795170896001
 30
0.0
  0
VERTEX
  5
2097
  8
0
 10
179.19228528020361
 20
236.99451048664989
 30
0.0
  0
VERTEX
  5
2098
  8
0
 10
179.0783882546184
 20
237.2510377018923
 30
0.0
  0
VERTEX
  5
2099
  8
0
 10
178.94277651188349
 20
237.32155372195189
 30
0.0
  0
VERTEX
  5
209A
  8
0
 10
178.7941076266525
 20
237.20034581415601
 30
0.0
  0
VERTEX
  5
209B
  8
0
 10
178.6463141846416
 20
236.89273183040561
 30
0.0
  0
SEQEND
  5
209C
  8
0
  0
POLYLINE
  5
1D39
  8
0
 66
     1
 10
0.0
 20
0.0
 30
0.0
 70
   128
  0
VERTEX
  5
209D
  8
0
 10
178.34442410943481
 20
231.9366633593315
 30
0.0
  0
VERTEX
  5
209E
  8
0
 10
178.50651149032089
 20
232.0745382159227
 30
0.0
  0
VERTEX
  5
209F
  8
0
 10
178.6463141846416
 20
232.35352706901969
 30
0.0
  0
SEQEND
  5
20A0
  8
0
  0
LINE
  5
1D3A
  8
0
 10
178.34442410943481
 20
232.43472163371979
 30
0.0
 11
178.34442410943481
 21
231.9366633593315
 31
0.0
  0
ARC
  5
1D3B
  8
0
 10
175.65765349499091
 20
234.1563870289846
 30
0.0
 40
3.1910606493596472
 50
327.3485115114965
 51
8.410557614511406
  0
LINE
  5
1D3C
  8
0
 10
178.8143955576179
 20
234.89312824599691
 30
0.0
 11
178.8143955576179
 21
234.6231285183901
 31
0.0
  0
LINE
  5
1D3D
  8
0
 10
179.60676107881039
 20
235.01687866442151
 30
0.0
 11
179.60676107881039
 21
232.52312836043779
 31
0.0
  0
ARC
  5
1D3E
  8
0
 10
207.03861101267299
 20
235.2964879101792
 30
0.0
 40
27.433274907022419
 50
177.06123153935599
 51
180.58398813627409
  0
LINE
  5
1D40
  8
0
 10
179.64116040942639
 20
232.52312836043779
 30
0.0
 11
179.64116040942639
 21
235.01687866442151
 31
0.0
  0
LINE
  5
1D41
  8
0
 10
179.64116040942639
 20
232.52312836043779
 30
0.0
 11
179.60676107881039
 21
232.52312836043779
 31
0.0
  0
LINE
  5
1D42
  8
0
 10
178.5868883538005
 20
234.89312824599691
 30
0.0
 11
178.5868883538005
 21
234.6231285183901
 31
0.0
  0
LINE
  5
1D43
  8
0
 10
178.70404128310651
 20
234.89312824599691
 30
0.0
 11
178.5868883538005
 21
234.89312824599691
 31
0.0
  0
ARC
  5
1D45
  8
0
 10
176.140710624002
 20
234.2864822081024
 30
0.0
 40
2.5853422996066762
 50
328.47230553540447
 51
7.4819262749802062
  0
LINE
  5
1D46
  8
0
 10
178.34442410943481
 20
233.43850855522101
 30
0.0
 11
178.34442410943481
 21
232.93457922332229
 31
0.0
  0
ARC
  5
1D47
  8
0
 10
176.6020197021387
 20
234.41226173119821
 30
0.0
 40
1.9960381675434691
 50
330.80109580685593
 51
6.0641943701092833
  0
LINE
  5
1D48
  8
0
 10
131.0921425404903
 20
211.12312932305281
 30
0.0
 11
131.0921425404903
 21
210.33023609120639
 31
0.0
  0
LINE
  5
1D49
  8
0
 10
158.0921432408449
 20
210.33023609120639
 30
0.0
 11
158.0921432408449
 21
211.12312932305281
 31
0.0
  0
ARC
  5
1D4A
  8
0
 10
130.5921428906675
 20
210.3302361042395
 30
0.0
 40
0.5000000000000443
 50
315.00000000000699
 51
0.0
  0
ARC
  5
1D4B
  8
0
 10
158.5921428906677
 20
210.3302361042395
 30
0.0
 40
0.500000000000004
 50
180.0
 51
225.0
  0
LINE
  5
1D4C
  8
0
 10
157.78829552558631
 20
199.12312921874471
 30
0.0
 11
158.59214332280129
 21
202.123129710483
 31
0.0
  0
LINE
  5
1D4D
  8
0
 10
130.59214245853391
 20
202.123129710483
 30
0.0
 11
131.3959902557489
 21
199.12312921874471
 31
0.0
  0
LINE
  5
1D4E
  8
0
 10
130.94569672224489
 20
209.97668275881799
 30
0.0
 11
130.59214245853391
 21
209.62312931001429
 31
0.0
  0
LINE
  5
1D4F
  8
0
 10
158.59214332280129
 20
209.62312931001429
 30
0.0
 11
158.2385890590904
 21
209.97668275881799
 31
0.0
  0
LINE
  5
1D50
  8
0
 10
130.59214245853391
 20
209.62312931001429
 30
0.0
 11
130.59214245853391
 21
202.123129710483
 31
0.0
  0
LINE
  5
1D51
  8
0
 10
158.59214332280129
 20
202.123129710483
 30
0.0
 11
158.59214332280129
 21
209.62312931001429
 31
0.0
  0
LINE
  5
1D52
  8
0
 10
109.59214274165591
 20
212.9231292921329
 30
0.0
 11
109.59214274165591
 21
211.62312934680151
 31
0.0
  0
LINE
  5
1D53
  8
0
 10
179.59214303967931
 20
211.62312934680151
 30
0.0
 11
179.59214303967931
 21
212.9231292921329
 31
0.0
  0
LINE
  5
1D54
  8
0
 10
109.7921424019094
 20
213.12312941804771
 30
0.0
 11
109.59214274165591
 21
212.9231292921329
 31
0.0
  0
LINE
  5
1D55
  8
0
 10
179.59214303967931
 20
212.9231292921329
 30
0.0
 11
179.3921433794257
 21
213.12312941804771
 31
0.0
  0
LINE
  5
1D56
  8
0
 10
179.0921420264003
 20
211.12312932305281
 30
0.0
 11
179.59214303967931
 21
211.62312934680151
 31
0.0
  0
LINE
  5
1D57
  8
0
 10
109.59214274165591
 20
211.62312934680151
 30
0.0
 11
110.0921437549349
 21
211.12312932305281
 31
0.0
  0
LINE
  5
1D58
  8
0
 10
110.5921410429235
 20
250.1231301277156
 30
0.0
 11
109.59214274165591
 21
249.1231281011577
 31
0.0
  0
LINE
  5
1D59
  8
0
 10
179.59214303967931
 20
249.1231281011577
 30
0.0
 11
178.5921447384116
 21
250.1231301277156
 31
0.0
  0
LINE
  5
1D5A
  8
0
 10
179.3921433794257
 20
213.12312941804771
 30
0.0
 11
179.59214303967931
 21
213.32312931113191
 31
0.0
  0
LINE
  5
1D5B
  8
0
 10
109.59214274165591
 20
213.32312931113191
 30
0.0
 11
109.7921424019094
 21
213.12312941804771
 31
0.0
  0
LINE
  5
1D5C
  8
0
 10
109.59214274165591
 20
249.1231281011577
 30
0.0
 11
109.59214274165591
 21
213.32312931113191
 31
0.0
  0
LINE
  5
1D5D
  8
0
 10
179.59214303967931
 20
213.32312931113191
 30
0.0
 11
179.59214303967931
 21
215.47559366368
 31
0.0
  0
LINE
  5
1D5E
  8
0
 10
179.59214303967931
 20
238.12313002340741
 30
0.0
 11
179.59214303967931
 21
249.1231281011577
 31
0.0
  0
LINE
  5
1D5F
  8
0
 10
179.59214303967931
 20
218.7520204744512
 30
0.0
 11
179.59214303967931
 21
231.123128876018
 31
0.0
  0
ARC
  5
1D60
  8
0
 10
177.1578283156168
 20
257.62312932305292
 30
0.0
 40
0.4000000000000193
 50
135.0
 51
225.0
  0
ARC
  5
1D61
  8
0
 10
112.02645746571829
 20
257.62312932305292
 30
0.0
 40
0.4000000000000193
 50
315.00000000000699
 51
45.0
  0
LINE
  5
1D62
  8
0
 10
177.09214169857481
 20
258.12312771372751
 30
0.0
 11
177.09214169857481
 21
267.62312833957623
 31
0.0
  0
LINE
  5
1D63
  8
0
 10
176.87498707649681
 20
257.90597309164951
 30
0.0
 11
177.09214169857481
 21
258.12312771372751
 31
0.0
  0
LINE
  5
1D64
  8
0
 10
177.09214169857481
 20
267.62312833957623
 30
0.0
 11
176.59214441058609
 21
268.12312935285519
 31
0.0
  0
LINE
  5
1D65
  8
0
 10
177.09214169857481
 20
257.12312941245978
 30
0.0
 11
176.87498707649681
 21
257.34028775982807
 31
0.0
  0
LINE
  5
1D66
  8
0
 10
112.5921413707491
 20
268.12312935285519
 30
0.0
 11
112.0921440827604
 21
267.62312833957623
 31
0.0
  0
LINE
  5
1D67
  8
0
 10
112.3092987048384
 20
257.34028775982807
 30
0.0
 11
112.0921440827604
 21
257.12312941245978
 31
0.0
  0
LINE
  5
1D68
  8
0
 10
112.0921440827604
 20
267.62312833957623
 30
0.0
 11
112.0921440827604
 21
258.12312771372751
 31
0.0
  0
LINE
  5
1D69
  8
0
 10
112.0921440827604
 20
258.12312771372751
 30
0.0
 11
112.3092987048384
 21
257.90597309164951
 31
0.0
  0
LINE
  5
1D6A
  8
0
 10
177.09214169857481
 20
250.1231301277156
 30
0.0
 11
177.09214169857481
 21
257.12312941245978
 31
0.0
  0
LINE
  5
1D6B
  8
0
 10
112.0921440827604
 20
257.12312941245978
 30
0.0
 11
112.0921440827604
 21
250.1231301277156
 31
0.0
  0
LINE
  5
1D6C
  8
0
 10
179.6221428024528
 20
235.38452197604121
 30
0.0
 11
179.6221428024528
 21
236.0896113961214
 31
0.0
  0
LINE
  5
1D6D
  8
0
 10
179.64214388606521
 20
231.123128876018
 30
0.0
 11
179.64214388606521
 21
236.70295622937621
 31
0.0
  0
LINE
  5
1D6E
  8
0
 10
179.64214388606521
 20
236.70295622937621
 30
0.0
 11
179.64214388606521
 21
238.12313002340741
 31
0.0
  0
LINE
  5
1D7A
  8
0
 10
178.70404128310651
 20
234.89312824599691
 30
0.0
 11
178.70404128310651
 21
234.6231285183901
 31
0.0
  0
LINE
  5
1D7B
  8
0
 10
256.93952006717291
 20
234.89312824599691
 30
0.0
 11
256.94396661257468
 21
234.59968191113921
 31
0.0
  0
LINE
  5
1D7C
  8
0
 10
255.97604916860431
 20
234.89312824599691
 30
0.0
 11
255.9809199856696
 21
234.6231285183901
 31
0.0
  0
LINE
  5
1D7D
  8
0
 10
254.63077326734631
 20
237.3091540931936
 30
0.0
 11
254.7616492347893
 21
237.30856735997139
 31
0.0
  0
LINE
  5
1D7F
  8
0
 10
264.51330220940378
 20
236.70301024608571
 30
0.0
 11
264.68280306279451
 21
236.70967457039231
 31
0.0
  0
LINE
  5
1D97
  8
0
 10
232.51183976848711
 20
268.12312935285519
 30
0.0
 11
296.51184280832388
 21
268.12312935285519
 31
0.0
  0
CIRCLE
  5
1DA7
  8
0
 10
264.51184128840549
 20
357.14698696158388
 30
0.0
 40
8.9999999949596585
  0
CIRCLE
  5
1DB3
  8
0
 10
264.51184128840549
 20
357.14698696158388
 30
0.0
 40
32.499999572724953
  0
LINE
  5
1DBF
  8
0
 10
250.5118408562719
 20
209.62312931001429
 30
0.0
 11
278.51184172053922
 21
209.62312931001429
 31
0.0
  0
LINE
  5
1DC0
  8
0
 10
376.30242084133289
 20
209.62312931001429
 30
0.0
 11
404.3024217056003
 21
209.62312931001429
 31
0.0
  0
LINE
  5
1DD1
  8
1
 10
264.51184128840549
 20
402.47252239757307
 30
0.0
 11
264.51184128840549
 21
311.82145152559468
 31
0.0
  0
LINE
  5
1DD2
  8
1
 10
219.1863058524163
 20
357.14698696158388
 30
0.0
 11
309.83737672439469
 21
357.14698696158388
 31
0.0
  0
LINE
  5
1DD3
  8
1
 10
219.1863058524163
 20
108.4372180641828
 30
0.0
 11
309.83737672439469
 21
108.4372180641828
 31
0.0
  0
LINE
  5
1DD4
  8
1
 10
264.51184128840549
 20
153.76275350017201
 30
0.0
 11
264.51184128840549
 21
63.111682628193641
 31
0.0
  0
LINE
  5
1DEB
  8
1
 10
264.51184128840549
 20
189.15070804710811
 30
0.0
 11
264.51184128840549
 21
280.87219777328482
 31
0.0
  0
LINE
  5
1DEC
  8
1
 10
390.30242127346662
 20
189.15070804710811
 30
0.0
 11
390.30242127346662
 21
280.87219777328482
 31
0.0
  0
LINE
  5
1DED
  8
1
 10
144.59214289066759
 20
189.15070804710811
 30
0.0
 11
144.59214289066759
 21
280.87219777328482
 31
0.0
  0
LINE
  5
1DEE
  8
1
 10
290.51184182484729
 20
201.84160551032389
 30
0.0
 11
290.51184182484729
 21
223.32305444543479
 31
0.0
  0
LINE
  5
1DEF
  8
1
 10
364.30242166834739
 20
201.84160551032389
 30
0.0
 11
364.30242166834739
 21
223.32305444543479
 31
0.0
  0
LINE
  5
1E34
  8
1
 10
133.2972320858207
 20
226.10383130554581
 30
0.0
 11
155.9746833415129
 21
226.10383130554581
 31
0.0
  0
LINE
  5
1E35
  8
1
 10
225.2878647519307
 20
226.08003329269579
 30
0.0
 11
242.16584637111069
 21
226.08003329269579
 31
0.0
  0
LINE
  5
1E36
  8
1
 10
290.51184128840538
 20
113.72708769272739
 30
0.0
 11
290.51184128840538
 21
103.14734843563819
 31
0.0
  0
CIRCLE
  5
1E38
  8
0
 10
264.51184128840549
 20
108.4372180641828
 30
0.0
 40
11.33872562784609
  0
CIRCLE
  5
1E39
  8
1
 10
264.51184128840549
 20
108.4372180641828
 30
0.0
 40
20.999999999999929
  0
LINE
  5
1E3A
  8
1
 10
275.82380962285731
 20
119.74918639863481
 30
0.0
 11
282.8983577637884
 21
126.8237345395661
 31
0.0
  0
LINE
  5
1E3C
  8
1
 10
253.1998729539539
 20
119.74918639863481
 30
0.0
 11
246.12532481302279
 21
126.8237345395661
 31
0.0
  0
LINE
  5
1E3D
  8
1
 10
275.82380962285731
 20
97.125249729730882
 30
0.0
 11
282.8983577637884
 21
90.050701588799569
 31
0.0
  0
LINE
  5
1E3E
  8
1
 10
253.1998729539539
 20
97.125249729730882
 30
0.0
 11
246.12532481302279
 21
90.050701588799569
 31
0.0
  0
LINE
  5
1E4D
  8
1
 10
429.52639780994139
 20
226.08003329269579
 30
0.0
 11
412.6484161907614
 21
226.08003329269579
 31
0.0
  0
TEXT
  5
1F01
  8
0
 62
     3
 10
0.0
 20
0.0
 30
0.0
 40
10.0
  1
CP120-06501
  7
STANDARD1
  0
ENDSEC
  0
EOF
