  0
SECTION
  2
HEADER
  9
$ACADVER
  1
AC1009
  9
$INSBASE
 10
798.67572335528303
 20
137.84630522417569
 30
0.0
  9
$EXTMIN
 10
0.0
 20
-2.960436562073669
 30
0.0
  9
$EXTMAX
 10
467.78457658716331
 20
312.73664962508627
 30
0.0
  9
$LIMMIN
 10
0.0
 20
0.0
  9
$LIMMAX
 10
375.0
 20
270.0
  9
$ORTHOMODE
 70
     0
  9
$REGENMODE
 70
     1
  9
$FILLMODE
 70
     1
  9
$QTEXTMODE
 70
     0
  9
$MIRRTEXT
 70
     0
  9
$DRAGMODE
 70
     2
  9
$LTSCALE
 40
5.0
  9
$OSMODE
 70
  3071
  9
$ATTMODE
 70
     1
  9
$TEXTSIZE
 40
0.2
  9
$TRACEWID
 40
0.05
  9
$TEXTSTYLE
  7
STANDARD
  9
$CLAYER
  8
0
  9
$CELTYPE
  6
BYLAYER
  9
$CECOLOR
 62
   256
  9
$DIMSCALE
 40
1.0
  9
$DIMASZ
 40
3.0
  9
$DIMEXO
 40
2.0
  9
$DIMDLI
 40
0.38
  9
$DIMRND
 40
0.0
  9
$DIMDLE
 40
0.0
  9
$DIMEXE
 40
2.0
  9
$DIMTP
 40
0.0
  9
$DIMTM
 40
0.0
  9
$DIMTXT
 40
3.2000000000000002
  9
$DIMCEN
 40
0.0
  9
$DIMTSZ
 40
0.0
  9
$DIMTOL
 70
     0
  9
$DIMLIM
 70
     0
  9
$DIMTIH
 70
     0
  9
$DIMTOH
 70
     0
  9
$DIMSE1
 70
     0
  9
$DIMSE2
 70
     0
  9
$DIMTAD
 70
     1
  9
$DIMZIN
 70
     0
  9
$DIMBLK
  1

  9
$DIMASO
 70
     0
  9
$DIMSHO
 70
     0
  9
$DIMPOST
  1

  9
$DIMAPOST
  1

  9
$DIMALT
 70
     0
  9
$DIMALTD
 70
     2
  9
$DIMALTF
 40
25.399999999999999
  9
$DIMLFAC
 40
1.0
  9
$DIMTOFL
 70
     1
  9
$DIMTVP
 40
1.6000000000000001
  9
$DIMTIX
 70
     1
  9
$DIMSOXD
 70
     0
  9
$DIMSAH
 70
     0
  9
$DIMBLK1
  1

  9
$DIMBLK2
  1

  9
$DIMSTYLE
  2
STANDARD
  9
$DIMCLRD
 70
     0
  9
$DIMCLRE
 70
     0
  9
$DIMCLRT
 70
     0
  9
$DIMTFAC
 40
1.0
  9
$DIMGAP
 40
0.09
  9
$LUNITS
 70
     2
  9
$LUPREC
 70
     4
  9
$SKETCHINC
 40
0.1
  9
$FILLETRAD
 40
0.0
  9
$AUNITS
 70
     0
  9
$AUPREC
 70
     4
  9
$MENU
  1
E:\r13\win\SUPPORT\ACAD
  9
$ELEVATION
 40
0.0
  9
$PELEVATION
 40
0.0
  9
$THICKNESS
 40
0.0
  9
$LIMCHECK
 70
     0
  9
$BLIPMODE
 70
     0
  9
$CHAMFERA
 40
0.0
  9
$CHAMFERB
 40
0.0
  9
$SKPOLY
 70
     0
  9
$TDCREATE
 40
2449840.6513888892
  9
$TDUPDATE
 40
2456598.4959917008
  9
$TDINDWG
 40
0.2290497222
  9
$TDUSRTIMER
 40
0.2290497222
  9
$USRTIMER
 70
     1
  9
$ANGBASE
 50
0.0
  9
$ANGDIR
 70
     0
  9
$PDMODE
 70
     0
  9
$PDSIZE
 40
0.0
  9
$PLINEWID
 40
0.0
  9
$COORDS
 70
     1
  9
$SPLFRAME
 70
     0
  9
$SPLINETYPE
 70
     6
  9
$SPLINESEGS
 70
     8
  9
$ATTDIA
 70
     0
  9
$ATTREQ
 70
     1
  9
$HANDLING
 70
     1
  9
$HANDSEED
  5
67D
  9
$SURFTAB1
 70
     6
  9
$SURFTAB2
 70
     6
  9
$SURFTYPE
 70
     6
  9
$SURFU
 70
     6
  9
$SURFV
 70
     6
  9
$UCSNAME
  2

  9
$UCSORG
 10
0.0
 20
0.0
 30
0.0
  9
$UCSXDIR
 10
1.0
 20
0.0
 30
0.0
  9
$UCSYDIR
 10
0.0
 20
1.0
 30
0.0
  9
$PUCSNAME
  2

  9
$PUCSORG
 10
0.0
 20
0.0
 30
0.0
  9
$PUCSXDIR
 10
1.0
 20
0.0
 30
0.0
  9
$PUCSYDIR
 10
0.0
 20
1.0
 30
0.0
  9
$USERI1
 70
     0
  9
$USERI2
 70
     1
  9
$USERI3
 70
     0
  9
$USERI4
 70
     0
  9
$USERI5
 70
     0
  9
$USERR1
 40
0.0
  9
$USERR2
 40
0.0
  9
$USERR3
 40
0.0
  9
$USERR4
 40
0.0
  9
$USERR5
 40
0.0
  9
$WORLDVIEW
 70
     1
  9
$SHADEDGE
 70
     3
  9
$SHADEDIF
 70
    70
  9
$TILEMODE
 70
     1
  9
$MAXACTVP
 70
    16
  9
$PLIMCHECK
 70
     0
  9
$PEXTMIN
 10
1.0000000000000000E+020
 20
1.0000000000000000E+020
 30
1.0000000000000000E+020
  9
$PEXTMAX
 10
-1.0000000000000000E+020
 20
-1.0000000000000000E+020
 30
-1.0000000000000000E+020
  9
$PLIMMIN
 10
0.0
 20
0.0
  9
$PLIMMAX
 10
12.0
 20
9.0
  9
$UNITMODE
 70
     0
  9
$VISRETAIN
 70
     0
  9
$PLINEGEN
 70
     0
  9
$PSLTSCALE
 70
     0
  0
ENDSEC
  0
SECTION
  2
TABLES
  0
TABLE
  2
VPORT
 70
     1
  0
VPORT
  2
*ACTIVE
 70
     0
 10
0.0
 20
0.0
 11
1.0
 21
1.0
 12
242.6403935564249
 22
154.88901094265771
 13
0.0
 23
0.0
 14
5.0
 24
5.0
 15
10.0
 25
10.0
 16
0.0
 26
0.0
 36
1.0
 17
0.0
 27
0.0
 37
0.0
 40
318.54588573576569
 41
1.8318713450292401
 42
50.0
 43
0.0
 44
0.0
 50
0.0
 51
0.0
 71
     0
 72
   500
 73
     1
 74
     0
 75
     0
 76
     0
 77
     0
 78
     2
  0
ENDTAB
  0
TABLE
  2
LTYPE
 70
     4
  0
LTYPE
  2
CONTINUOUS
 70
     0
  3
Solid Line
 72
    65
 73
     0
 40
0.0
  0
LTYPE
  2
CENTER
 70
     0
  3
____ _ ____ _ ____ _ ____ _ ____ _ ____ _ ____
 72
    65
 73
     4
 40
2.0
 49
1.25
 49
-0.25
 49
0.25
 49
-0.25
  0
LTYPE
  2
HIDDEN
 70
     0
  3
_ _ _ _ _ _ _ _ _ _ _ _ _ _ _ _ _ _ _ _ _ _ _
 72
    65
 73
     2
 40
0.375
 49
0.25
 49
-0.125
  0
LTYPE
  2
PHANTOM2
 70
     0
  3
Phantom (.5x) ___ _ _ ___ _ _ ___ _ _ ___ _ _
 72
    65
 73
     6
 40
1.25
 49
0.625
 49
-0.125
 49
0.125
 49
-0.125
 49
0.125
 49
-0.125
  0
ENDTAB
  0
TABLE
  2
LAYER
 70
     5
  0
LAYER
  2
0
 70
     0
 62
     7
  6
CONTINUOUS
  0
LAYER
  2
1
 70
     0
 62
     1
  6
CENTER
  0
LAYER
  2
2
 70
     0
 62
     2
  6
HIDDEN
  0
LAYER
  2
3
 70
     0
 62
     3
  6
CONTINUOUS
  0
LAYER
  2
5
 70
     0
 62
     3
  6
PHANTOM2
  0
ENDTAB
  0
TABLE
  2
STYLE
 70
     2
  0
STYLE
  2
STANDARD
 70
     0
 40
0.0
 41
1.0
 50
0.0
 71
     0
 42
0.2
  3
TXT
  4
BIGFONT
  0
STYLE
  2
STANDARD1
 70
     0
 40
0.0
 41
1.0
 50
0.0
 71
     0
 42
3.0
  3
txt
  4

  0
ENDTAB
  0
TABLE
  2
VIEW
 70
     1
  0
VIEW
  2
ALL
 70
     0
 40
270.0
 10
220.99159663865549
 20
135.0
 41
0.0
 11
0.0
 21
0.0
 31
1.0
 12
0.0
 22
0.0
 32
0.0
 42
0.0
 43
0.0
 44
0.0
 50
0.0
 71
     0
  0
ENDTAB
  0
TABLE
  2
UCS
 70
     0
  0
ENDTAB
  0
TABLE
  2
APPID
 70
     3
  0
APPID
  2
ACAD
 70
     0
  0
APPID
  2
ACAD_MLEADERVER
 70
     0
  0
APPID
  2
ACAD_NAV_VCDISPLAY
 70
     0
  0
ENDTAB
  0
TABLE
  2
DIMSTYLE
 70
     1
  0
DIMSTYLE
  2
STANDARD
 70
     0
  3

  4

  5

  6

  7

 40
1.0
 41
0.18
 42
0.0625
 43
0.38
 44
0.18
 45
0.0
 46
0.0
 47
0.0
 48
0.0
140
0.18
141
0.09
142
0.0
143
25.399999999999999
144
1.0
145
0.0
146
1.0
147
0.09
 71
     0
 72
     0
 73
     1
 74
     1
 75
     0
 76
     0
 77
     0
 78
     0
170
     0
171
     2
172
     0
173
     0
174
     0
175
     0
176
     0
177
     0
178
     0
  0
ENDTAB
  0
ENDSEC
  0
SECTION
  2
BLOCKS
  0
BLOCK
  8
0
  2
$MODEL_SPACE
 70
     0
 10
0.0
 20
0.0
 30
0.0
  3
$MODEL_SPACE
  1

  0
ENDBLK
  5
9
  8
0
  0
BLOCK
 67
     1
  8
0
  2
$PAPER_SPACE
 70
     0
 10
0.0
 20
0.0
 30
0.0
  3
$PAPER_SPACE
  1

  0
ENDBLK
  5
F
 67
     1
  8
0
  0
ENDSEC
  0
SECTION
  2
ENTITIES
  0
LINE
  5
3F7
  8
5
 10
301.78457777925701
 20
128.73664493211851
 30
0.0
 11
294.81766244472283
 21
128.73664493211851
 31
0.0
  0
LINE
  5
3F8
  8
5
 10
294.81766244472283
 20
128.73664493211851
 30
0.0
 11
294.81766244472283
 21
152.73664493211851
 31
0.0
  0
LINE
  5
3F9
  8
5
 10
294.81766244472283
 20
152.73664493211851
 30
0.0
 11
301.78457777925701
 21
152.73664493211851
 31
0.0
  0
LINE
  5
3FA
  8
5
 10
194.2348235669424
 20
151.4080123903907
 30
0.0
 11
223.67937239930549
 21
158.20581679916981
 31
0.0
  0
LINE
  5
3FB
  8
5
 10
206.78458100535789
 20
106.91367560675771
 30
0.0
 11
198.64651974502681
 21
142.16349161932831
 31
0.0
  0
LINE
  5
3FC
  8
5
 10
214.15690081972861
 20
154.10896504451259
 30
0.0
 11
213.74079426189931
 21
155.91132056088361
 31
0.0
  0
LINE
  5
3FD
  8
5
 10
193.63841418782539
 20
146.07432289100981
 30
0.0
 11
195.46253250711331
 21
144.94800740401359
 31
0.0
  0
LINE
  5
3FE
  8
5
 10
196.48433434540351
 20
141.66431178723931
 30
0.0
 11
206.78458100535789
 21
144.04231110177011
 31
0.0
  0
LINE
  5
3FF
  8
5
 10
194.35267462962469
 20
142.98052101940041
 30
0.0
 11
196.48433434540351
 21
141.66431178723931
 31
0.0
  0
LINE
  5
400
  8
5
 10
195.46253250711331
 20
144.94800740401359
 30
0.0
 11
194.32410421404779
 21
143.1042730851903
 31
0.0
  0
LINE
  5
401
  8
5
 10
194.32410421404779
 20
143.1042730851903
 30
0.0
 11
194.35267462962469
 21
142.98052101940041
 31
0.0
  0
LINE
  5
402
  8
5
 10
194.2348235669424
 20
151.4080123903907
 30
0.0
 11
192.89588886292111
 21
149.29055342187729
 31
0.0
  0
LINE
  5
403
  8
5
 10
193.61014935709611
 20
146.1967513234047
 30
0.0
 11
194.7559118370834
 21
148.00871778851871
 31
0.0
  0
LINE
  5
404
  8
5
 10
193.61014935709611
 20
146.1967513234047
 30
0.0
 11
193.63841418782539
 21
146.07432289100981
 31
0.0
  0
LINE
  5
405
  8
5
 10
194.7559118370834
 20
148.00871778851871
 30
0.0
 11
192.92445927849801
 21
149.1668013560874
 31
0.0
  0
LINE
  5
406
  8
5
 10
192.89588886292111
 20
149.29055342187729
 30
0.0
 11
192.92445927849801
 21
149.1668013560874
 31
0.0
  0
LINE
  5
407
  8
5
 10
226.03054172886439
 20
156.73664314397931
 30
0.0
 11
223.67936869716411
 21
158.20581911252449
 31
0.0
  0
LINE
  5
408
  8
5
 10
316.78457777925701
 20
152.73664493211851
 30
0.0
 11
320.83384196651582
 21
152.73664493211851
 31
0.0
  0
LINE
  5
409
  8
5
 10
320.83384196651582
 20
152.73664493211851
 30
0.0
 11
321.83384196651582
 21
151.00459412454961
 31
0.0
  0
LINE
  5
40A
  8
5
 10
320.83384196651582
 20
128.73664493211851
 30
0.0
 11
321.83384196651582
 21
130.46869573968729
 31
0.0
  0
LINE
  5
40B
  8
5
 10
321.83384196651582
 20
151.00459412454961
 30
0.0
 11
321.83384196651582
 21
130.46869573968729
 31
0.0
  0
LINE
  5
40C
  8
5
 10
320.83384196651582
 20
128.73664493211851
 30
0.0
 11
316.78457777925701
 21
128.73664493211851
 31
0.0
  0
LINE
  5
40D
  8
5
 10
210.5510516135559
 20
158.59920495934139
 30
0.0
 11
225.7203787750623
 21
156.73664314397931
 31
0.0
  0
LINE
  5
40E
  8
5
 10
208.16638087399909
 20
153.79116031653629
 30
0.0
 11
209.4952688137821
 21
152.10888475572321
 31
0.0
  0
LINE
  5
40F
  8
5
 10
207.7794235809281
 20
150.63964606893529
 30
0.0
 11
209.06285320022059
 21
149.0149174250046
 31
0.0
  0
LINE
  5
410
  8
5
 10
209.4952688137821
 20
152.10888475572321
 30
0.0
 11
207.794901871516
 21
150.76570662959551
 31
0.0
  0
LINE
  5
411
  8
5
 10
207.794901871516
 20
150.76570662959551
 30
0.0
 11
207.7794235809281
 21
150.63964606893529
 31
0.0
  0
LINE
  5
412
  8
5
 10
210.5510516135559
 20
158.59920495934139
 30
0.0
 11
208.56865093257559
 21
157.06738703118549
 31
0.0
  0
LINE
  5
413
  8
5
 10
208.1816936111297
 20
153.9158725524893
 30
0.0
 11
209.87808718884691
 21
155.226690221246
 31
0.0
  0
LINE
  5
414
  8
5
 10
208.1816936111297
 20
153.9158725524893
 30
0.0
 11
208.16638087399909
 21
153.79116031653629
 31
0.0
  0
LINE
  5
415
  8
5
 10
209.87808718884691
 20
155.226690221246
 30
0.0
 11
208.55317264198791
 21
156.9413264705253
 31
0.0
  0
LINE
  5
416
  8
5
 10
208.56865093257559
 20
157.06738703118549
 30
0.0
 11
208.55317264198791
 21
156.9413264705253
 31
0.0
  0
LINE
  5
417
  8
5
 10
222.679030263768
 20
157.11007431492271
 30
0.0
 11
222.20106016131899
 21
156.73664314397931
 31
0.0
  0
LINE
  5
418
  8
0
 10
94.784590410672322
 20
108.73665001251889
 30
0.0
 11
85.284590410671854
 21
108.73665001251889
 31
0.0
  0
LINE
  5
419
  8
0
 10
110.28459041067249
 20
108.73665001251889
 30
0.0
 11
100.7845904106714
 21
108.73665001251889
 31
0.0
  0
LINE
  5
41A
  8
0
 10
85.284590410672095
 20
146.7366487906236
 30
0.0
 11
78.284590008341183
 21
146.7366487906236
 31
0.0
  0
LINE
  5
41B
  8
0
 10
117.2845908130039
 20
146.7366487906236
 30
0.0
 11
110.28459041067229
 21
146.7366487906236
 31
0.0
  0
LINE
  5
41C
  8
0
 10
85.284590410671854
 20
156.73664670446101
 30
0.0
 11
85.284590410671854
 21
76.736648492600352
 31
0.0
  0
LINE
  5
41D
  8
0
 10
110.2845904106721
 20
156.7366467044609
 30
0.0
 11
110.28459041067229
 21
76.736648492600267
 31
0.0
  0
LINE
  5
41E
  8
0
 10
110.2845904106718
 20
84.736648872580048
 30
0.0
 11
85.284590410671626
 21
84.736648872580048
 31
0.0
  0
LINE
  5
41F
  8
1
 10
73.284590410672095
 20
86.736648492600608
 30
0.0
 11
57.284590410672102
 21
86.736648492600608
 31
0.0
  0
CIRCLE
  5
420
  8
3
 10
65.284590410671854
 20
86.736648492600466
 30
0.0
 40
2.458499999999999
  0
CIRCLE
  5
421
  8
0
 10
65.284590410671854
 20
86.736648492600466
 30
0.0
 40
3.0
  0
LINE
  5
422
  8
0
 10
64.418565007591965
 20
88.236648491379555
 30
0.0
 11
66.150615815160805
 21
88.236648491379555
 31
0.0
  0
LINE
  5
423
  8
0
 10
66.150615813751998
 20
88.236648491377736
 30
0.0
 11
67.016641217536531
 21
86.736648491379555
 31
0.0
  0
LINE
  5
424
  8
0
 10
67.016641216830536
 20
86.736648492600096
 30
0.0
 11
66.150615813046457
 21
85.236648492600096
 31
0.0
  0
LINE
  5
425
  8
0
 10
66.150615813751074
 20
85.236648493821548
 30
0.0
 11
64.418565006182249
 21
85.236648493821548
 31
0.0
  0
LINE
  5
426
  8
0
 10
64.418565007592193
 20
85.236648493821548
 30
0.0
 11
63.552539603807659
 21
86.736648493821534
 31
0.0
  0
LINE
  5
427
  8
0
 10
63.552539604513647
 20
86.736648492600096
 30
0.0
 11
64.418565008297733
 21
88.236648492600096
 31
0.0
  0
LINE
  5
428
  8
0
 10
128.55253960451361
 20
86.736648492599869
 30
0.0
 11
129.41856500829769
 21
88.236648492599869
 31
0.0
  0
LINE
  5
429
  8
0
 10
129.41856500759221
 20
85.23664849382132
 30
0.0
 11
128.55253960380759
 21
86.736648493821335
 31
0.0
  0
LINE
  5
42A
  8
0
 10
131.15061581375099
 20
85.23664849382132
 30
0.0
 11
129.41856500618221
 21
85.23664849382132
 31
0.0
  0
LINE
  5
42B
  8
0
 10
132.01664121683049
 20
86.736648492599869
 30
0.0
 11
131.15061581304639
 21
85.236648492599855
 31
0.0
  0
LINE
  5
42C
  8
0
 10
131.15061581375201
 20
88.236648491377508
 30
0.0
 11
132.01664121753649
 21
86.736648491379327
 31
0.0
  0
LINE
  5
42D
  8
0
 10
129.41856500759189
 20
88.236648491379313
 30
0.0
 11
131.15061581516079
 21
88.236648491379313
 31
0.0
  0
CIRCLE
  5
42E
  8
0
 10
130.2845904106718
 20
86.736648492600239
 30
0.0
 40
3.0
  0
CIRCLE
  5
42F
  8
3
 10
130.2845904106718
 20
86.736648492600239
 30
0.0
 40
2.458499999999999
  0
LINE
  5
430
  8
1
 10
138.28459041067211
 20
86.736648492600381
 30
0.0
 11
122.2845904106721
 21
86.736648492600381
 31
0.0
  0
LINE
  5
431
  8
1
 10
105.7845904106718
 20
108.73664849260039
 30
0.0
 11
89.784590410671868
 21
108.73664849260039
 31
0.0
  0
LINE
  5
432
  8
0
 10
117.784589963637
 20
96.736648045565374
 30
0.0
 11
117.7845904106718
 21
100.7366484926002
 31
0.0
  0
LINE
  5
433
  8
0
 10
77.784590410671854
 20
100.73664849260039
 30
0.0
 11
77.784590857706704
 21
96.736648045565545
 31
0.0
  0
LINE
  5
434
  8
0
 10
57.784591304742001
 20
76.736648492600438
 30
0.0
 11
57.784591304742221
 21
96.736648045565602
 31
0.0
  0
LINE
  5
435
  8
0
 10
137.78458951660281
 20
96.736648045565317
 30
0.0
 11
137.78458951660261
 21
76.736648492600153
 31
0.0
  0
LINE
  5
436
  8
0
 10
117.2845908130039
 20
156.7366467044609
 30
0.0
 11
78.284590008341183
 21
156.73664670446101
 31
0.0
  0
LINE
  5
437
  8
0
 10
142.7845904106718
 20
100.7366484926001
 30
0.0
 11
117.7845904106718
 21
100.7366484926002
 31
0.0
  0
LINE
  5
438
  8
0
 10
52.784590410671861
 20
100.73664849260039
 30
0.0
 11
77.784590410671854
 21
100.73664849260039
 31
0.0
  0
LINE
  5
439
  8
1
 10
130.28459041067211
 20
71.73664849260021
 30
0.0
 11
130.28459041067211
 21
105.7366484926001
 31
0.0
  0
LINE
  5
43A
  8
1
 10
65.284590410672095
 20
71.736648492600438
 30
0.0
 11
65.284590410672322
 21
105.73664849260039
 31
0.0
  0
LINE
  5
43B
  8
1
 10
97.784590410672095
 20
166.7366467044609
 30
0.0
 11
97.784590410671854
 21
66.736648492600352
 31
0.0
  0
LINE
  5
43C
  8
0
 10
142.78459219881159
 20
76.736648492600153
 30
0.0
 11
52.784588622532979
 21
76.736648492600494
 31
0.0
  0
LINE
  5
43D
  8
0
 10
52.784590410671861
 20
100.73664849260039
 30
0.0
 11
52.784588622532979
 21
76.736648492600494
 31
0.0
  0
LINE
  5
43E
  8
0
 10
142.7845904106718
 20
100.7366484926001
 30
0.0
 11
142.78459219881159
 21
76.736648492600153
 31
0.0
  0
LINE
  5
43F
  8
0
 10
142.78459070869499
 20
96.736648045565403
 30
0.0
 11
117.2845908130039
 21
96.736648045565445
 31
0.0
  0
LINE
  5
440
  8
0
 10
78.284590008341183
 20
96.736648045565445
 30
0.0
 11
52.784590112648189
 21
96.736648045565403
 31
0.0
  0
LINE
  5
441
  8
0
 10
78.284590008341183
 20
96.736648045565445
 30
0.0
 11
78.284590008341652
 21
156.73664670446101
 31
0.0
  0
LINE
  5
442
  8
0
 10
117.2845908130039
 20
156.7366467044609
 30
0.0
 11
117.2845908130039
 21
96.736648045565445
 31
0.0
  0
LINE
  5
443
  8
0
 10
403.28457439669228
 20
156.73664560123871
 30
0.0
 11
403.28457439669228
 21
96.736646942343313
 31
0.0
  0
LINE
  5
444
  8
0
 10
442.28457520135498
 20
96.736646942343313
 30
0.0
 11
442.28457520135458
 21
156.73664560123891
 31
0.0
  0
LINE
  5
445
  8
0
 10
442.28457520135498
 20
96.736646942343313
 30
0.0
 11
467.78457509704799
 21
96.73664694234327
 31
0.0
  0
LINE
  5
446
  8
0
 10
377.7845745010012
 20
96.73664694234327
 30
0.0
 11
403.28457439669228
 21
96.736646942343313
 31
0.0
  0
LINE
  5
447
  8
0
 10
377.78457479902443
 20
100.73664738937801
 30
0.0
 11
377.78457301088463
 21
76.736647389378049
 31
0.0
  0
LINE
  5
448
  8
0
 10
467.78457479902443
 20
100.73664738937831
 30
0.0
 11
467.78457658716331
 21
76.73664738937839
 31
0.0
  0
LINE
  5
449
  8
0
 10
377.78457301088463
 20
76.736647389378049
 30
0.0
 11
467.78457658716331
 21
76.73664738937839
 31
0.0
  0
LINE
  5
44A
  8
0
 10
222.7845784125559
 20
96.736644485083815
 30
0.0
 11
222.78457742907929
 21
100.73664493211859
 31
0.0
  0
LINE
  5
44B
  8
1
 10
209.78457742907929
 20
108.73664493211859
 30
0.0
 11
235.78457742907929
 21
108.73664493211869
 31
0.0
  0
LINE
  5
44C
  8
1
 10
222.78457742907929
 20
121.73664493211859
 30
0.0
 11
222.78457742907929
 21
95.736644932118637
 31
0.0
  0
LINE
  5
44D
  8
0
 10
216.78457891919541
 20
156.73664314397931
 30
0.0
 11
284.78457702674791
 21
156.73664314397931
 31
0.0
  0
LINE
  5
44E
  8
0
 10
204.56552100885941
 20
156.73664523945521
 30
0.0
 11
216.78457891919541
 21
156.73664314397931
 31
0.0
  0
LINE
  5
44F
  8
0
 10
206.78458100535769
 20
76.736644932118594
 30
0.0
 11
206.78458100535789
 21
146.73664523014179
 31
0.0
  0
LINE
  5
450
  8
0
 10
286.7845773545734
 20
76.736644932118594
 30
0.0
 11
206.78458100535769
 21
76.736644932118594
 31
0.0
  0
LINE
  5
451
  8
0
 10
286.7845773545734
 20
154.736646541444
 30
0.0
 11
286.7845773545734
 21
76.736644932118594
 31
0.0
  0
LINE
  5
452
  8
2
 10
286.78457735457368
 20
148.73664493211859
 30
0.0
 11
245.81566669250259
 21
148.73664493211871
 31
0.0
  0
LINE
  5
453
  8
2
 10
286.7845773545734
 20
147.6541449321185
 30
0.0
 11
243.94072169330931
 21
147.6541449321187
 31
0.0
  0
LINE
  5
454
  8
2
 10
286.7845773545734
 20
133.81914493211841
 30
0.0
 11
243.94072169330931
 21
133.81914493211849
 31
0.0
  0
LINE
  5
455
  8
2
 10
286.78457735457368
 20
132.73664493211859
 30
0.0
 11
245.81566669250259
 21
132.73664493211871
 31
0.0
  0
LINE
  5
456
  8
0
 10
110.28459059693699
 20
148.5621442972604
 30
0.0
 11
85.284590224408248
 21
148.56214429726029
 31
0.0
  0
LINE
  5
457
  8
0
 10
110.28459059693721
 20
154.91114921876371
 30
0.0
 11
85.284590224407808
 21
154.91114921876371
 31
0.0
  0
LINE
  5
458
  8
0
 10
110.28459059693721
 20
151.73664664159671
 30
0.0
 11
85.284590224407808
 21
151.73664664159659
 31
0.0
  0
LINE
  5
459
  8
0
 10
110.28459059693699
 20
150.16603680685299
 30
0.0
 11
85.284590224408035
 21
150.1660368068531
 31
0.0
  0
LINE
  5
45A
  8
0
 10
110.28459059693699
 20
153.3072564472366
 30
0.0
 11
85.284590224408035
 21
153.3072564472366
 31
0.0
  0
LINE
  5
45B
  8
0
 10
110.28459059693721
 20
146.73664669514781
 30
0.0
 11
85.284590224408035
 21
146.7366466951477
 31
0.0
  0
LINE
  5
45C
  8
0
 10
110.28459059693721
 20
156.73664670446109
 30
0.0
 11
85.284590224408035
 21
156.7366467044609
 31
0.0
  0
LINE
  5
45D
  8
0
 10
110.28459059693699
 20
156.73664670446101
 30
0.0
 11
110.28459059693699
 21
146.73664669514781
 31
0.0
  0
LINE
  5
45E
  8
0
 10
85.284590224408035
 20
156.73664670446101
 30
0.0
 11
85.284590224408248
 21
146.7366466951477
 31
0.0
  0
LINE
  5
45F
  8
0
 10
224.58457885959109
 20
146.7366452301419
 30
0.0
 11
224.58457885959109
 21
156.73664523945521
 31
0.0
  0
LINE
  5
460
  8
1
 10
215.28457867332639
 20
159.23664523945521
 30
0.0
 11
215.28457867332639
 21
144.23664523014199
 31
0.0
  0
LINE
  5
461
  8
0
 10
202.78457848706191
 20
151.67382077505209
 30
0.0
 11
204.30857891567891
 21
150.16603534184719
 31
0.0
  0
LINE
  5
462
  8
0
 10
227.78457885959071
 20
146.7366452301419
 30
0.0
 11
227.78457885959099
 21
156.7366452394551
 31
0.0
  0
LINE
  5
463
  8
0
 10
204.56552124791369
 20
146.73664523014199
 30
0.0
 11
227.78457885959071
 21
146.73664523014199
 31
0.0
  0
LINE
  5
464
  8
0
 10
202.78457848706191
 20
148.4986392055205
 30
0.0
 11
204.56552124791369
 21
146.73664523014199
 31
0.0
  0
LINE
  5
465
  8
0
 10
204.30857891567891
 20
150.16603534184719
 30
0.0
 11
202.78457848706191
 21
148.6256464589886
 31
0.0
  0
LINE
  5
466
  8
0
 10
202.78457848706191
 20
148.6256464589886
 30
0.0
 11
202.78457848706191
 21
148.4986392055205
 31
0.0
  0
LINE
  5
467
  8
0
 10
204.56552100885941
 20
156.73664523945521
 30
0.0
 11
202.78457848706191
 21
154.97465138049191
 31
0.0
  0
LINE
  5
468
  8
0
 10
202.78457848706191
 20
151.7994695781297
 30
0.0
 11
204.30857891567891
 21
153.30725498223069
 31
0.0
  0
LINE
  5
469
  8
0
 10
202.78457848706191
 20
151.7994695781297
 30
0.0
 11
202.78457848706191
 21
151.67382077505209
 31
0.0
  0
LINE
  5
46A
  8
0
 10
204.30857891567891
 20
153.30725498223069
 30
0.0
 11
202.78457848706191
 21
154.8476441270239
 31
0.0
  0
LINE
  5
46B
  8
0
 10
202.78457848706191
 20
154.97465138049191
 30
0.0
 11
202.78457848706191
 21
154.8476441270239
 31
0.0
  0
CIRCLE
  5
46C
  8
3
 10
97.784590410671854
 20
108.73664849260049
 30
0.0
 40
2.458499999999999
  0
CIRCLE
  5
46D
  8
0
 10
97.784590410671854
 20
108.73664849260049
 30
0.0
 40
3.0
  0
LINE
  5
46E
  8
0
 10
99.284590409450871
 20
109.6026738956806
 30
0.0
 11
99.284590409450871
 21
107.8706230881118
 31
0.0
  0
LINE
  5
46F
  8
0
 10
99.284590409449066
 20
107.87062308952061
 30
0.0
 11
97.784590409450871
 21
107.004597685736
 31
0.0
  0
LINE
  5
470
  8
0
 10
97.784590410671413
 20
107.004597686442
 30
0.0
 11
96.284590410671413
 21
107.8706230902261
 31
0.0
  0
LINE
  5
471
  8
0
 10
96.284590411892864
 20
107.8706230895215
 30
0.0
 11
96.284590411892864
 21
109.6026738970903
 31
0.0
  0
LINE
  5
472
  8
0
 10
96.284590411892864
 20
109.6026738956804
 30
0.0
 11
97.784590411892864
 21
110.4686992994649
 31
0.0
  0
LINE
  5
473
  8
0
 10
97.784590410671413
 20
110.46869929875891
 30
0.0
 11
99.284590410671413
 21
109.6026738949748
 31
0.0
  0
LINE
  5
474
  8
0
 10
244.4497283396951
 20
302.73664962508627
 30
0.0
 11
250.28457742907921
 21
302.73664849259808
 31
0.0
  0
LINE
  5
475
  8
0
 10
286.7845773545738
 20
281.23664889493028
 30
0.0
 11
206.78458100535789
 21
281.2366488949296
 31
0.0
  0
ARC
  5
476
  8
0
 10
250.28457742907941
 20
294.23664849259808
 30
0.0
 40
8.5000000000000284
 50
270.0
 51
90.0
  0
CIRCLE
  5
477
  8
0
 10
235.28457742907941
 20
294.23664849259802
 30
0.0
 40
8.5
  0
CIRCLE
  5
478
  8
0
 10
235.28457742907941
 20
294.23664849259802
 30
0.0
 40
12.5
  0
ARC
  5
479
  8
0
 10
235.28457742907941
 20
294.23664849259802
 30
0.0
 40
8.5
 50
90.0
 51
270.0
  0
LINE
  5
47A
  8
1
 10
250.28457742907941
 20
307.73664849259819
 30
0.0
 11
250.28457742907941
 21
280.73664849259802
 31
0.0
  0
LINE
  5
47B
  8
1
 10
235.28457742907941
 20
311.73664849259802
 30
0.0
 11
235.28457742907941
 21
276.73664849259802
 31
0.0
  0
LINE
  5
47C
  8
0
 10
250.28457742907941
 20
285.73664849259808
 30
0.0
 11
244.4497283396953
 21
285.73664870121428
 31
0.0
  0
LINE
  5
47D
  8
1
 10
263.78457742907938
 20
294.23664849259831
 30
0.0
 11
201.78458100535801
 21
294.23664849259768
 31
0.0
  0
LINE
  5
47E
  8
2
 10
209.78458100535781
 20
292.50459768643839
 30
0.0
 11
210.78458100454381
 21
294.23664849259762
 31
0.0
  0
LINE
  5
47F
  8
2
 10
209.78458100535781
 20
295.96869929875669
 30
0.0
 11
210.78458100454381
 21
294.23664849259762
 31
0.0
  0
LINE
  5
480
  8
2
 10
209.78458100535781
 20
292.5045976864393
 30
0.0
 11
209.78458100535781
 21
295.96869929875669
 31
0.0
  0
LINE
  5
481
  8
2
 10
206.78458100535789
 20
292.5045976864393
 30
0.0
 11
209.78458100535781
 21
292.5045976864393
 31
0.0
  0
LINE
  5
482
  8
2
 10
206.78458100535789
 20
293.37062308951857
 30
0.0
 11
209.78458100535781
 21
293.37062308951857
 31
0.0
  0
LINE
  5
483
  8
2
 10
206.78458100535789
 20
295.10267389567639
 30
0.0
 11
209.78458100535781
 21
295.10267389567639
 31
0.0
  0
LINE
  5
484
  8
2
 10
206.78458100535789
 20
295.96869929875669
 30
0.0
 11
209.78458100535781
 21
295.96869929875669
 31
0.0
  0
LINE
  5
485
  8
2
 10
207.28458100535781
 20
291.23664849259887
 30
0.0
 11
206.78458100535789
 21
292.10267389638329
 31
0.0
  0
LINE
  5
486
  8
2
 10
207.28458100535781
 20
297.23664849259649
 30
0.0
 11
206.78458100535789
 21
296.37062308881201
 31
0.0
  0
LINE
  5
487
  8
2
 10
207.28458100535781
 20
291.23664849259882
 30
0.0
 11
207.28458100535781
 21
297.23664849259637
 31
0.0
  0
LINE
  5
488
  8
2
 10
226.78458100535781
 20
296.23664849259649
 30
0.0
 11
225.78458100535781
 21
297.23664849259637
 31
0.0
  0
LINE
  5
489
  8
2
 10
225.78458100535781
 20
291.23664849259882
 30
0.0
 11
226.78458100535781
 21
292.23664849259882
 31
0.0
  0
LINE
  5
48A
  8
2
 10
225.78458100535781
 20
291.23664849259882
 30
0.0
 11
225.78458100535781
 21
297.23664849259649
 31
0.0
  0
LINE
  5
48B
  8
2
 10
226.78458100535781
 20
292.23664849259882
 30
0.0
 11
226.78458100535781
 21
296.23664849259649
 31
0.0
  0
LINE
  5
48C
  8
2
 10
207.28458100535781
 20
291.23664849259882
 30
0.0
 11
225.78458100535761
 21
291.23664849259882
 31
0.0
  0
LINE
  5
48D
  8
2
 10
206.97194583459131
 20
291.77814849259931
 30
0.0
 11
226.32608100535839
 21
291.77814849259931
 31
0.0
  0
LINE
  5
48E
  8
2
 10
206.97194583459111
 20
296.69514849259582
 30
0.0
 11
226.32608100535839
 21
296.69514849259582
 31
0.0
  0
LINE
  5
48F
  8
2
 10
207.28458100535781
 20
297.23664849259637
 30
0.0
 11
225.78458100535781
 21
297.23664849259637
 31
0.0
  0
LINE
  5
490
  8
2
 10
206.78458100535789
 20
292.10267389638329
 30
0.0
 11
206.78458100535789
 21
296.37062308881212
 31
0.0
  0
LINE
  5
491
  8
0
 10
286.78457735457403
 20
301.7366475985292
 30
0.0
 11
286.78457735457363
 21
221.7366493866686
 31
0.0
  0
LINE
  5
492
  8
1
 10
235.28457742907941
 20
211.7366484925993
 30
0.0
 11
235.28457742907941
 21
246.7366484925993
 31
0.0
  0
LINE
  5
493
  8
1
 10
250.28457742907941
 20
215.7366484925991
 30
0.0
 11
250.28457742907941
 21
242.7366484925993
 31
0.0
  0
LINE
  5
494
  8
1
 10
215.28457867332631
 20
276.7366486788635
 30
0.0
 11
215.28457867332631
 21
246.73664830633439
 31
0.0
  0
LINE
  5
495
  8
0
 10
227.78457885959091
 20
271.0366486788634
 30
0.0
 11
227.78457885959091
 21
252.4366483063344
 31
0.0
  0
LINE
  5
496
  8
0
 10
204.56552056946691
 20
249.23664830633439
 30
0.0
 11
204.56552056946691
 21
274.2366486788635
 31
0.0
  0
LINE
  5
497
  8
0
 10
202.78457848706179
 20
249.23664830633439
 30
0.0
 11
202.78457848706179
 21
274.23664867886339
 31
0.0
  0
LINE
  5
498
  8
0
 10
224.58457885959101
 20
249.23664830633439
 30
0.0
 11
202.78457848706179
 21
249.23664830633439
 31
0.0
  0
LINE
  5
499
  8
0
 10
202.78457848706179
 20
274.23664867886339
 30
0.0
 11
224.58457885959101
 21
274.23664867886339
 31
0.0
  0
LINE
  5
49A
  8
0
 10
227.78457885959091
 20
271.0366486788634
 30
0.0
 11
224.58457885959101
 21
274.23664867886339
 31
0.0
  0
LINE
  5
49B
  8
0
 10
227.78457885959091
 20
252.4366483063344
 30
0.0
 11
224.58457885959101
 21
249.23664830633439
 31
0.0
  0
LINE
  5
49C
  8
2
 10
206.78458100535789
 20
231.37062308881389
 30
0.0
 11
206.78458100535789
 21
227.1026738963852
 31
0.0
  0
LINE
  5
49D
  8
2
 10
207.28458100535781
 20
226.23664849260089
 30
0.0
 11
225.78458100535781
 21
226.23664849260089
 31
0.0
  0
LINE
  5
49E
  8
2
 10
206.97194583459111
 20
226.7781484926015
 30
0.0
 11
226.32608100535839
 21
226.7781484926015
 31
0.0
  0
LINE
  5
49F
  8
2
 10
206.97194583459131
 20
231.69514849259801
 30
0.0
 11
226.32608100535839
 21
231.69514849259801
 31
0.0
  0
LINE
  5
4A0
  8
2
 10
207.28458100535781
 20
232.2366484925985
 30
0.0
 11
225.78458100535761
 21
232.2366484925985
 31
0.0
  0
LINE
  5
4A1
  8
2
 10
226.78458100535781
 20
231.2366484925985
 30
0.0
 11
226.78458100535781
 21
227.23664849260089
 31
0.0
  0
LINE
  5
4A2
  8
2
 10
225.78458100535781
 20
232.2366484925985
 30
0.0
 11
225.78458100535781
 21
226.23664849260081
 31
0.0
  0
LINE
  5
4A3
  8
2
 10
225.78458100535781
 20
232.2366484925985
 30
0.0
 11
226.78458100535781
 21
231.2366484925985
 31
0.0
  0
LINE
  5
4A4
  8
2
 10
226.78458100535781
 20
227.23664849260089
 30
0.0
 11
225.78458100535781
 21
226.23664849260089
 31
0.0
  0
LINE
  5
4A5
  8
2
 10
207.28458100535781
 20
232.2366484925985
 30
0.0
 11
207.28458100535781
 21
226.23664849260089
 31
0.0
  0
LINE
  5
4A6
  8
2
 10
207.28458100535781
 20
226.23664849260081
 30
0.0
 11
206.78458100535789
 21
227.10267389638531
 31
0.0
  0
LINE
  5
4A7
  8
2
 10
207.28458100535781
 20
232.23664849259839
 30
0.0
 11
206.78458100535789
 21
231.37062308881389
 31
0.0
  0
LINE
  5
4A8
  8
2
 10
206.78458100535789
 20
227.50459768644049
 30
0.0
 11
209.78458100535781
 21
227.50459768644049
 31
0.0
  0
LINE
  5
4A9
  8
2
 10
206.78458100535789
 20
228.3706230895209
 30
0.0
 11
209.78458100535781
 21
228.3706230895209
 31
0.0
  0
LINE
  5
4AA
  8
2
 10
206.78458100535789
 20
230.10267389567869
 30
0.0
 11
209.78458100535781
 21
230.10267389567869
 31
0.0
  0
LINE
  5
4AB
  8
2
 10
206.78458100535789
 20
230.968699298758
 30
0.0
 11
209.78458100535781
 21
230.968699298758
 31
0.0
  0
LINE
  5
4AC
  8
2
 10
209.78458100535781
 20
230.968699298758
 30
0.0
 11
209.78458100535781
 21
227.50459768644049
 31
0.0
  0
LINE
  5
4AD
  8
2
 10
209.78458100535781
 20
227.50459768644049
 30
0.0
 11
210.78458100454381
 21
229.2366484925997
 31
0.0
  0
LINE
  5
4AE
  8
2
 10
209.78458100535781
 20
230.96869929875891
 30
0.0
 11
210.78458100454381
 21
229.2366484925997
 31
0.0
  0
ARC
  5
4AF
  8
0
 10
244.78457777925689
 20
261.7366484925987
 30
0.0
 40
6.0
 50
109.4712206344862
 51
250.5287793655138
  0
ARC
  5
4B0
  8
0
 10
301.3845777792568
 20
270.13664849259868
 30
0.0
 40
0.4
 50
270.0
 51
0.0
  0
ARC
  5
4B1
  8
0
 10
301.3845777792568
 20
253.33664849259861
 30
0.0
 40
0.4
 50
0.0
 51
90.0
  0
LINE
  5
4B2
  8
0
 10
242.78457777925689
 20
267.98664849259882
 30
0.0
 11
243.78457775690489
 21
268.56399874888359
 31
0.0
  0
LINE
  5
4B3
  8
0
 10
242.78457777925689
 20
255.48664849259879
 30
0.0
 11
243.7845777569047
 21
254.9092982363141
 31
0.0
  0
LINE
  5
4B4
  8
1
 10
192.78457848706179
 20
261.7366484925987
 30
0.0
 11
322.78457777925689
 21
261.7366484925987
 31
0.0
  0
LINE
  5
4B5
  8
0
 10
316.78457777925689
 20
249.73664849259859
 30
0.0
 11
301.78457777925689
 21
249.73664849259859
 31
0.0
  0
LINE
  5
4B6
  8
0
 10
301.78457777925689
 20
249.73664849259859
 30
0.0
 11
301.78457777925689
 21
273.73664849259859
 31
0.0
  0
LINE
  5
4B7
  8
0
 10
301.78457777925689
 20
273.73664849259859
 30
0.0
 11
316.78457777925689
 21
273.73664849259859
 31
0.0
  0
LINE
  5
4B8
  8
0
 10
317.78457777925689
 20
272.00459768502969
 30
0.0
 11
317.78457777925689
 21
251.4686993001674
 31
0.0
  0
LINE
  5
4B9
  8
0
 10
316.78457777925689
 20
273.73664849259859
 30
0.0
 11
316.78457777925689
 21
249.73664849259859
 31
0.0
  0
LINE
  5
4BA
  8
0
 10
316.78457777925689
 20
249.73664849259859
 30
0.0
 11
317.78457777925689
 21
251.4686993001674
 31
0.0
  0
LINE
  5
4BB
  8
0
 10
316.78457777925689
 20
273.73664849259859
 30
0.0
 11
317.78457777925689
 21
272.00459768502969
 31
0.0
  0
LINE
  5
4BC
  8
0
 10
242.78457777925689
 20
255.48664849259879
 30
0.0
 11
242.78457777925709
 21
267.98664849259882
 31
0.0
  0
LINE
  5
4BD
  8
0
 10
301.3845777792568
 20
269.73664849259859
 30
0.0
 11
286.7845773545738
 21
269.7366484925987
 31
0.0
  0
LINE
  5
4BE
  8
3
 10
299.90963278006359
 20
268.65414849259861
 30
0.0
 11
286.78457735457363
 21
268.65414849259861
 31
0.0
  0
LINE
  5
4BF
  8
3
 10
299.90963278006359
 20
254.81914849259849
 30
0.0
 11
286.7845773545734
 21
254.81914849259849
 31
0.0
  0
LINE
  5
4C0
  8
0
 10
301.3845777792568
 20
253.73664849259859
 30
0.0
 11
286.78457735457363
 21
253.73664849259859
 31
0.0
  0
LINE
  5
4C1
  8
0
 10
299.90963278006359
 20
253.73664849259859
 30
0.0
 11
299.90963278006359
 21
269.73664849259859
 31
0.0
  0
LINE
  5
4C2
  8
3
 10
299.90963278006359
 20
254.81914849259849
 30
0.0
 11
301.78457777925689
 21
253.73664849259859
 31
0.0
  0
LINE
  5
4C3
  8
3
 10
299.90963278006359
 20
268.65414849259861
 30
0.0
 11
301.78457777925689
 21
269.73664849259859
 31
0.0
  0
LINE
  5
4C4
  8
3
 10
299.9096327800637
 20
147.6541449321185
 30
0.0
 11
301.78457777925701
 21
148.73664493211851
 31
0.0
  0
LINE
  5
4C5
  8
3
 10
299.9096327800637
 20
133.81914493211829
 30
0.0
 11
301.78457777925701
 21
132.73664493211839
 31
0.0
  0
LINE
  5
4C6
  8
0
 10
299.9096327800637
 20
132.73664493211839
 30
0.0
 11
299.9096327800637
 21
148.73664493211851
 31
0.0
  0
LINE
  5
4C7
  8
0
 10
301.38457777925692
 20
132.73664493211839
 30
0.0
 11
286.7845773545734
 21
132.73664493211851
 31
0.0
  0
LINE
  5
4C8
  8
3
 10
299.9096327800637
 20
133.81914493211829
 30
0.0
 11
286.78457735457368
 21
133.81914493211841
 31
0.0
  0
LINE
  5
4C9
  8
3
 10
299.9096327800637
 20
147.6541449321185
 30
0.0
 11
286.78457735457368
 21
147.6541449321185
 31
0.0
  0
LINE
  5
4CA
  8
0
 10
301.38457777925692
 20
148.73664493211851
 30
0.0
 11
286.7845773545734
 21
148.73664493211851
 31
0.0
  0
LINE
  5
4CB
  8
2
 10
242.78457777925701
 20
134.48664493211871
 30
0.0
 11
242.78457777925729
 21
146.98664493211871
 31
0.0
  0
LINE
  5
4CC
  8
0
 10
316.78457777925701
 20
152.73664493211851
 30
0.0
 11
317.78457777925701
 21
151.00459412454961
 31
0.0
  0
LINE
  5
4CD
  8
0
 10
316.78457777925701
 20
128.73664493211851
 30
0.0
 11
317.78457777925701
 21
130.46869573968729
 31
0.0
  0
LINE
  5
4CE
  8
0
 10
316.78457777925701
 20
152.73664493211851
 30
0.0
 11
316.78457777925701
 21
128.73664493211851
 31
0.0
  0
LINE
  5
4CF
  8
0
 10
317.78457777925701
 20
151.00459412454961
 30
0.0
 11
317.78457777925701
 21
130.46869573968729
 31
0.0
  0
LINE
  5
4D0
  8
0
 10
301.78457777925701
 20
152.73664493211851
 30
0.0
 11
316.78457777925701
 21
152.73664493211851
 31
0.0
  0
LINE
  5
4D1
  8
0
 10
301.78457777925701
 20
128.73664493211851
 30
0.0
 11
301.78457777925701
 21
152.73664493211851
 31
0.0
  0
LINE
  5
4D2
  8
0
 10
316.78457777925701
 20
128.73664493211851
 30
0.0
 11
301.78457777925701
 21
128.73664493211851
 31
0.0
  0
LINE
  5
4D3
  8
1
 10
233.78457777925701
 20
140.73664493211859
 30
0.0
 11
327.78457777925718
 21
140.73664493211851
 31
0.0
  0
LINE
  5
4D4
  8
2
 10
245.81566669250111
 20
148.7366449321178
 30
0.0
 11
245.81566669250111
 21
132.7366449321195
 31
0.0
  0
LINE
  5
4D5
  8
2
 10
242.78457777925701
 20
134.48664493211871
 30
0.0
 11
245.81566669250111
 21
132.7366449321195
 31
0.0
  0
LINE
  5
4D6
  8
2
 10
242.78457777925701
 20
146.98664493211871
 30
0.0
 11
245.81566669250111
 21
148.7366449321178
 31
0.0
  0
LINE
  5
4D7
  8
2
 10
317.78457777925701
 20
132.65374116346339
 30
0.0
 11
309.78457777925701
 21
132.65374116346339
 31
0.0
  0
LINE
  5
4D8
  8
2
 10
317.78457777925701
 20
136.6951930477893
 30
0.0
 11
309.78457777925701
 21
136.6951930477893
 31
0.0
  0
LINE
  5
4D9
  8
2
 10
317.78457777925701
 20
144.77809681644521
 30
0.0
 11
309.78457777925701
 21
144.77809681644521
 31
0.0
  0
LINE
  5
4DA
  8
2
 10
317.78457777925701
 20
148.8195487007724
 30
0.0
 11
309.78457777925701
 21
148.8195487007724
 31
0.0
  0
LINE
  5
4DB
  8
2
 10
309.78457777925701
 20
148.8195487007724
 30
0.0
 11
309.78457777925701
 21
132.65374116346339
 31
0.0
  0
LINE
  5
4DC
  8
2
 10
309.78457777925701
 20
148.8195487007724
 30
0.0
 11
305.11791111259072
 21
140.73664493211851
 31
0.0
  0
LINE
  5
4DD
  8
2
 10
309.78457777925701
 20
132.65374116346459
 30
0.0
 11
305.11791111259072
 21
140.73664493211851
 31
0.0
  0
ARC
  5
4DE
  8
0
 10
301.38457777925692
 20
132.33664493211839
 30
0.0
 40
0.4
 50
0.0
 51
90.0
  0
ARC
  5
4DF
  8
0
 10
301.38457777925692
 20
149.13664493211849
 30
0.0
 40
0.4
 50
270.0
 51
0.0
  0
ARC
  5
4E0
  8
2
 10
244.78457777925701
 20
140.73664493211859
 30
0.0
 40
6.0
 50
109.4712206344862
 51
250.5287793655138
  0
LINE
  5
4E1
  8
1
 10
422.7845747990242
 20
166.73664560123879
 30
0.0
 11
422.78457479902443
 21
66.73664738937822
 31
0.0
  0
LINE
  5
4E2
  8
1
 10
439.78457479902443
 20
140.73664738937811
 30
0.0
 11
405.78457479902443
 21
140.73664738937811
 31
0.0
  0
CIRCLE
  5
4E3
  8
0
 10
422.78457479902443
 20
140.73664738937811
 30
0.0
 40
12.0
  0
LINE
  5
4E4
  8
0
 10
415.78457479902352
 20
144.7780992737049
 30
0.0
 11
415.78457479902528
 21
136.6951955050514
 31
0.0
  0
LINE
  5
4E5
  8
0
 10
422.78457479902443
 20
148.81955115803319
 30
0.0
 11
415.78457479902352
 21
144.7780992737049
 31
0.0
  0
LINE
  5
4E6
  8
0
 10
429.78457479902443
 20
144.77809927370731
 30
0.0
 11
422.78457479902443
 21
148.81955115803319
 31
0.0
  0
LINE
  5
4E7
  8
0
 10
429.78457479902443
 20
136.6951955050514
 30
0.0
 11
429.78457479902443
 21
144.77809927370731
 31
0.0
  0
LINE
  5
4E8
  8
0
 10
422.78457479902528
 20
132.65374362072379
 30
0.0
 11
429.78457479902443
 21
136.6951955050514
 31
0.0
  0
LINE
  5
4E9
  8
0
 10
415.78457479902528
 20
136.6951955050514
 30
0.0
 11
422.78457479902528
 21
132.65374362072379
 31
0.0
  0
CIRCLE
  5
4EA
  8
0
 10
422.78457479902443
 20
140.73664738937811
 30
0.0
 40
10.26794919243113
  0
LINE
  5
4EB
  8
1
 10
455.28457479902409
 20
71.736647389378334
 30
0.0
 11
455.28457479902391
 21
105.73664738937821
 31
0.0
  0
LINE
  5
4EC
  8
1
 10
390.2845747990242
 20
71.736647389378106
 30
0.0
 11
390.2845747990242
 21
105.73664738937801
 31
0.0
  0
LINE
  5
4ED
  8
0
 10
467.78457479902443
 20
100.73664738937831
 30
0.0
 11
442.78457479902443
 21
100.73664738937831
 31
0.0
  0
LINE
  5
4EE
  8
0
 10
377.78457479902443
 20
100.73664738937801
 30
0.0
 11
402.78457479902443
 21
100.73664738937811
 31
0.0
  0
LINE
  5
4EF
  8
0
 10
403.28457439669228
 20
156.73664560123871
 30
0.0
 11
442.28457520135498
 21
156.73664560123891
 31
0.0
  0
LINE
  5
4F0
  8
0
 10
442.28457520135498
 20
154.73664899870371
 30
0.0
 11
403.28457439669228
 21
154.73664899870349
 31
0.0
  0
LINE
  5
4F1
  8
0
 10
382.78457569309342
 20
96.736646942343214
 30
0.0
 11
382.7845756930937
 21
76.736647389378049
 31
0.0
  0
LINE
  5
4F2
  8
0
 10
462.7845739049543
 20
76.736647389378334
 30
0.0
 11
462.78457390495402
 21
96.736646942343498
 31
0.0
  0
LINE
  5
4F3
  8
0
 10
442.78457479902443
 20
100.73664738937831
 30
0.0
 11
442.78457435198948
 21
96.736646942343455
 31
0.0
  0
LINE
  5
4F4
  8
0
 10
402.78457524605921
 20
96.73664694234327
 30
0.0
 11
402.78457479902443
 21
100.73664738937811
 31
0.0
  0
LINE
  5
4F5
  8
1
 10
263.78457742907938
 20
229.23664849259899
 30
0.0
 11
201.78458100535801
 21
229.23664849259961
 31
0.0
  0
ARC
  5
4F6
  8
0
 10
235.28457742907941
 20
229.2366484925993
 30
0.0
 40
8.5
 50
90.0
 51
270.0
  0
LINE
  5
4F7
  8
0
 10
213.55252450683079
 20
264.73664851867608
 30
0.0
 11
211.82047313430269
 21
261.73664849259899
 31
0.0
  0
LINE
  5
4F8
  8
0
 10
217.01662725188689
 20
264.73664851867602
 30
0.0
 11
213.55252450683079
 21
264.73664851867608
 31
0.0
  0
LINE
  5
4F9
  8
0
 10
218.74867862441499
 20
261.73664849259899
 30
0.0
 11
217.01662725188689
 21
264.73664851867602
 31
0.0
  0
LINE
  5
4FA
  8
0
 10
217.01662725188689
 20
258.73664846652201
 30
0.0
 11
218.74867862441499
 21
261.73664849259899
 31
0.0
  0
LINE
  5
4FB
  8
0
 10
213.55252450683079
 20
258.73664846652201
 30
0.0
 11
217.01662725188689
 21
258.73664846652201
 31
0.0
  0
LINE
  5
4FC
  8
0
 10
211.82047313430269
 20
261.73664849259899
 30
0.0
 11
213.55252450683079
 21
258.73664846652201
 31
0.0
  0
CIRCLE
  5
4FD
  8
0
 10
215.2845774290796
 20
261.73664849259899
 30
0.0
 40
8.0
  0
CIRCLE
  5
4FE
  8
0
 10
235.28457742907941
 20
229.2366484925993
 30
0.0
 40
12.5
  0
CIRCLE
  5
4FF
  8
0
 10
235.28457742907941
 20
229.2366484925993
 30
0.0
 40
8.5
  0
CIRCLE
  5
500
  8
0
 10
215.2845774290796
 20
261.73664849259899
 30
0.0
 40
9.0000000000000426
  0
LINE
  5
501
  8
0
 10
224.58457885959101
 20
274.23664867886339
 30
0.0
 11
243.78457775690521
 21
274.23664867886339
 31
0.0
  0
LINE
  5
502
  8
0
 10
224.58457885959101
 20
249.2366483063345
 30
0.0
 11
243.78457775690441
 21
249.23664830633419
 31
0.0
  0
LINE
  5
503
  8
0
 10
227.78457885959091
 20
249.23664830633439
 30
0.0
 11
227.78457885959111
 21
274.23664867886339
 31
0.0
  0
LINE
  5
504
  8
0
 10
234.78457814433509
 20
249.23664830633439
 30
0.0
 11
234.78457814433531
 21
274.23664867886339
 31
0.0
  0
LINE
  5
505
  8
0
 10
238.78457879998641
 20
274.23664867886339
 30
0.0
 11
238.78457879998621
 21
249.23664830633439
 31
0.0
  0
LINE
  5
506
  8
0
 10
206.78458100535789
 20
221.7366493866692
 30
0.0
 11
206.78458100535789
 21
249.23664830633439
 31
0.0
  0
ARC
  5
507
  8
0
 10
250.28457742907941
 20
229.23664849259919
 30
0.0
 40
8.5000000000000284
 50
270.0
 51
90.0
  0
LINE
  5
508
  8
0
 10
244.4497283396951
 20
220.73664736011099
 30
0.0
 11
250.28457742907921
 21
220.73664849259919
 31
0.0
  0
LINE
  5
509
  8
0
 10
250.28457742907941
 20
237.73664849259919
 30
0.0
 11
244.4497283396953
 21
237.73664828398299
 31
0.0
  0
LINE
  5
50A
  8
0
 10
281.78457653500948
 20
216.73664670445959
 30
0.0
 11
211.78457623698631
 21
216.7366467044601
 31
0.0
  0
LINE
  5
50B
  8
0
 10
281.78457653500948
 20
216.73664670445959
 30
0.0
 11
286.78457735457363
 21
221.7366493866686
 31
0.0
  0
LINE
  5
50C
  8
0
 10
206.78458100535789
 20
221.7366493866692
 30
0.0
 11
211.78457623698631
 21
216.7366467044601
 31
0.0
  0
LINE
  5
50D
  8
0
 10
286.78457735457403
 20
301.7366475985292
 30
0.0
 11
281.78457653501022
 21
306.73665028073827
 31
0.0
  0
LINE
  5
50E
  8
0
 10
281.78457653501022
 20
306.73665028073827
 30
0.0
 11
211.78457623698691
 21
306.73665028073879
 31
0.0
  0
LINE
  5
50F
  8
0
 10
211.78457623698691
 20
306.73665028073879
 30
0.0
 11
206.78458100535849
 21
301.73664759852983
 31
0.0
  0
LINE
  5
510
  8
0
 10
206.78458100535829
 20
274.23664867886367
 30
0.0
 11
206.78458100535849
 21
301.73664759853
 31
0.0
  0
LINE
  5
511
  8
0
 10
216.7845789191955
 20
249.2366483063345
 30
0.0
 11
216.7845789191955
 21
242.23664809026769
 31
0.0
  0
LINE
  5
512
  8
0
 10
286.7845773545738
 20
242.23664809026701
 30
0.0
 11
206.78458100535789
 21
242.23664809026769
 31
0.0
  0
LINE
  5
513
  8
0
 10
284.78457702674802
 20
242.2366480902671
 30
0.0
 11
284.78457702674831
 21
281.23664889492977
 31
0.0
  0
LINE
  5
514
  8
0
 10
216.7845789191957
 20
281.2366488949304
 30
0.0
 11
216.7845789191957
 21
274.2366486788635
 31
0.0
  0
LINE
  5
515
  8
0
 10
243.78457775690489
 20
249.2366483063343
 30
0.0
 11
243.78457775690521
 21
274.23664867886328
 31
0.0
  0
LINE
  5
516
  8
0
 10
240.31243956067519
 20
265.73664868258908
 30
0.0
 11
238.78457879998641
 21
265.73664868258908
 31
0.0
  0
LINE
  5
517
  8
0
 10
238.78457879998641
 20
257.73664830260952
 30
0.0
 11
240.31243956067519
 21
257.73664830260952
 31
0.0
  0
LINE
  5
518
  8
0
 10
286.7845773545734
 20
154.736646541444
 30
0.0
 11
284.78457702674791
 21
156.73664314397931
 31
0.0
  0
LINE
  5
519
  8
0
 10
286.7845773545734
 20
154.736646541444
 30
0.0
 11
284.78457702674791
 21
156.73664314397931
 31
0.0
  0
LINE
  5
51A
  8
1
 10
231.78458100535769
 20
86.736644932118637
 30
0.0
 11
201.7845810053575
 21
86.736644932118637
 31
0.0
  0
LINE
  5
51B
  8
1
 10
235.28457742907929
 20
71.736644932118594
 30
0.0
 11
235.28457742907929
 21
101.7366444850837
 31
0.0
  0
LINE
  5
51C
  8
1
 10
250.28457742907949
 20
71.736644932118594
 30
0.0
 11
250.28457742907929
 21
101.7366444850837
 31
0.0
  0
LINE
  5
51D
  8
2
 10
226.78457683303279
 20
96.736644485083815
 30
0.0
 11
226.78457683303259
 21
76.736644932118594
 31
0.0
  0
LINE
  5
51E
  8
2
 10
258.7845783529512
 20
76.736644932118594
 30
0.0
 11
258.7845783529512
 21
96.736644485083815
 31
0.0
  0
LINE
  5
51F
  8
2
 10
238.2845777867071
 20
84.736645312098318
 30
0.0
 11
209.78457963445109
 21
84.736645312098318
 31
0.0
  0
LINE
  5
520
  8
2
 10
238.78457879998609
 20
85.236645394054705
 30
0.0
 11
238.2845777867071
 21
84.736645312098318
 31
0.0
  0
LINE
  5
521
  8
2
 10
238.78457879998609
 20
152.7366424883283
 30
0.0
 11
238.78457879998609
 21
85.236645394054705
 31
0.0
  0
LINE
  5
522
  8
2
 10
238.78457879998609
 20
152.7366424883283
 30
0.0
 11
234.784578144335
 21
156.73664314397931
 31
0.0
  0
LINE
  5
523
  8
2
 10
206.78458100535789
 20
108.73664645203711
 30
0.0
 11
209.78457963445109
 21
84.736645312098318
 31
0.0
  0
LINE
  5
524
  8
2
 10
243.78457775690481
 20
76.736644932118594
 30
0.0
 11
243.78457775690481
 21
156.73664314397931
 31
0.0
  0
LINE
  5
525
  8
0
 10
222.78457742907929
 20
100.73664493211859
 30
0.0
 11
247.78457742907929
 21
100.73664493211859
 31
0.0
  0
CIRCLE
  5
526
  8
0
 10
222.78457742907929
 20
108.73664493211869
 30
0.0
 40
8.0
  0
LINE
  5
527
  8
0
 10
216.78457891919541
 20
156.73664314397931
 30
0.0
 11
206.78458100535789
 21
146.73664523014179
 31
0.0
  0
LINE
  5
528
  8
0
 10
286.7845773545734
 20
154.736646541444
 30
0.0
 11
284.78457702674791
 21
156.73664314397931
 31
0.0
  0
LINE
  5
529
  8
0
 10
211.78457623698611
 20
96.736644485083744
 30
0.0
 11
211.78457623698611
 21
76.736644932118594
 31
0.0
  0
LINE
  5
52A
  8
0
 10
206.78458100535769
 20
96.736644485083744
 30
0.0
 11
286.7845773545734
 21
96.736644485083744
 31
0.0
  0
LINE
  5
52B
  8
0
 10
281.78457653500942
 20
76.736644932118594
 30
0.0
 11
281.78457653500942
 21
96.736644485083744
 31
0.0
  0
LINE
  5
52C
  8
0
 10
247.7845784125559
 20
96.736644485083815
 30
0.0
 11
247.78457742907929
 21
100.73664493211859
 31
0.0
  0
LINE
  5
52D
  8
1
 10
242.78457742907941
 20
210.73664736011119
 30
0.0
 11
242.78457742907941
 21
247.73664828398299
 31
0.0
  0
LINE
  5
52E
  8
1
 10
242.78457742907941
 20
312.73664962508627
 30
0.0
 11
242.78457742907941
 21
275.73664870121451
 31
0.0
  0
LINE
  5
52F
  8
1
 10
242.78457742907929
 20
66.736644932118566
 30
0.0
 11
242.78457742907929
 21
106.7366444850837
 31
0.0
  0
TEXT
  5
5ED
  8
0
 62
     3
 10
0.0
 20
0.0
 30
0.0
 40
10.0
  1
CP101-16080
  7
STANDARD1
  0
ENDSEC
  0
EOF
