  0
SECTION
  2
HEADER
  9
$ACADVER
  1
AC1009
  9
$INSBASE
 10
1489.7047053771671
 20
783.32809624924255
 30
0.0
  9
$EXTMIN
 10
0.0
 20
-1.4802182810368341
 30
0.0
  9
$EXTMAX
 10
134.74529879279461
 20
137.60737196399049
 30
0.0
  9
$LIMMIN
 10
0.0
 20
0.0
  9
$LIMMAX
 10
4205.0
 20
2970.0
  9
$ORTHOMODE
 70
     1
  9
$REGENMODE
 70
     1
  9
$FILLMODE
 70
     1
  9
$QTEXTMODE
 70
     0
  9
$MIRRTEXT
 70
     0
  9
$DRAGMODE
 70
     2
  9
$LTSCALE
 40
10.0
  9
$OSMODE
 70
  3071
  9
$ATTMODE
 70
     1
  9
$TEXTSIZE
 40
3.0
  9
$TRACEWID
 40
0.05
  9
$TEXTSTYLE
  7
STANDARD
  9
$CLAYER
  8
0
  9
$CELTYPE
  6
BYLAYER
  9
$CECOLOR
 62
   256
  9
$DIMSCALE
 40
5.0
  9
$DIMASZ
 40
1.5
  9
$DIMEXO
 40
2.0
  9
$DIMDLI
 40
10.0
  9
$DIMRND
 40
0.0
  9
$DIMDLE
 40
0.0
  9
$DIMEXE
 40
2.0
  9
$DIMTP
 40
0.0
  9
$DIMTM
 40
0.0
  9
$DIMTXT
 40
1.5
  9
$DIMCEN
 40
0.0
  9
$DIMTSZ
 40
0.0
  9
$DIMTOL
 70
     0
  9
$DIMLIM
 70
     0
  9
$DIMTIH
 70
     0
  9
$DIMTOH
 70
     0
  9
$DIMSE1
 70
     0
  9
$DIMSE2
 70
     0
  9
$DIMTAD
 70
     1
  9
$DIMZIN
 70
     0
  9
$DIMBLK
  1

  9
$DIMASO
 70
     0
  9
$DIMSHO
 70
     0
  9
$DIMPOST
  1

  9
$DIMAPOST
  1

  9
$DIMALT
 70
     0
  9
$DIMALTD
 70
     2
  9
$DIMALTF
 40
25.399999999999999
  9
$DIMLFAC
 40
1.0
  9
$DIMTOFL
 70
     1
  9
$DIMTVP
 40
1.6000000000000001
  9
$DIMTIX
 70
     1
  9
$DIMSOXD
 70
     0
  9
$DIMSAH
 70
     0
  9
$DIMBLK1
  1

  9
$DIMBLK2
  1

  9
$DIMSTYLE
  2
STANDARD
  9
$DIMCLRD
 70
     0
  9
$DIMCLRE
 70
     0
  9
$DIMCLRT
 70
     0
  9
$DIMTFAC
 40
1.0
  9
$DIMGAP
 40
0.09
  9
$LUNITS
 70
     2
  9
$LUPREC
 70
     2
  9
$SKETCHINC
 40
0.1
  9
$FILLETRAD
 40
0.0
  9
$AUNITS
 70
     0
  9
$AUPREC
 70
     2
  9
$MENU
  1
ME
  9
$ELEVATION
 40
0.0
  9
$PELEVATION
 40
0.0
  9
$THICKNESS
 40
0.0
  9
$LIMCHECK
 70
     0
  9
$BLIPMODE
 70
     0
  9
$CHAMFERA
 40
3.0
  9
$CHAMFERB
 40
3.0
  9
$SKPOLY
 70
     0
  9
$TDCREATE
 40
2451920.3634869209
  9
$TDUPDATE
 40
2456602.6139298272
  9
$TDINDWG
 40
0.7688216551
  9
$TDUSRTIMER
 40
2456598.4200776741
  9
$USRTIMER
 70
     1
  9
$ANGBASE
 50
0.0
  9
$ANGDIR
 70
     0
  9
$PDMODE
 70
     0
  9
$PDSIZE
 40
0.0
  9
$PLINEWID
 40
0.0
  9
$COORDS
 70
     1
  9
$SPLFRAME
 70
     0
  9
$SPLINETYPE
 70
     6
  9
$SPLINESEGS
 70
     8
  9
$ATTDIA
 70
     0
  9
$ATTREQ
 70
     1
  9
$HANDLING
 70
     1
  9
$HANDSEED
  5
2D5
  9
$SURFTAB1
 70
     6
  9
$SURFTAB2
 70
     6
  9
$SURFTYPE
 70
     6
  9
$SURFU
 70
     6
  9
$SURFV
 70
     6
  9
$UCSNAME
  2

  9
$UCSORG
 10
0.0
 20
0.0
 30
0.0
  9
$UCSXDIR
 10
1.0
 20
0.0
 30
0.0
  9
$UCSYDIR
 10
0.0
 20
1.0
 30
0.0
  9
$PUCSNAME
  2

  9
$PUCSORG
 10
0.0
 20
0.0
 30
0.0
  9
$PUCSXDIR
 10
1.0
 20
0.0
 30
0.0
  9
$PUCSYDIR
 10
0.0
 20
1.0
 30
0.0
  9
$USERI1
 70
     1
  9
$USERI2
 70
     1
  9
$USERI3
 70
     5
  9
$USERI4
 70
     1
  9
$USERI5
 70
     0
  9
$USERR1
 40
5.0
  9
$USERR2
 40
3.0
  9
$USERR3
 40
1.5
  9
$USERR4
 40
1.5
  9
$USERR5
 40
10.0
  9
$WORLDVIEW
 70
     1
  9
$SHADEDGE
 70
     3
  9
$SHADEDIF
 70
    70
  9
$TILEMODE
 70
     1
  9
$MAXACTVP
 70
    16
  9
$PLIMCHECK
 70
     0
  9
$PEXTMIN
 10
1.0000000000000000E+020
 20
1.0000000000000000E+020
 30
1.0000000000000000E+020
  9
$PEXTMAX
 10
-1.0000000000000000E+020
 20
-1.0000000000000000E+020
 30
-1.0000000000000000E+020
  9
$PLIMMIN
 10
0.0
 20
0.0
  9
$PLIMMAX
 10
12.0
 20
9.0
  9
$UNITMODE
 70
     0
  9
$VISRETAIN
 70
     0
  9
$PLINEGEN
 70
     0
  9
$PSLTSCALE
 70
     0
  0
ENDSEC
  0
SECTION
  2
TABLES
  0
TABLE
  2
VPORT
 70
     1
  0
VPORT
  2
*ACTIVE
 70
     0
 10
0.0
 20
0.0
 11
1.0
 21
1.0
 12
173.5722782701562
 22
69.762605497350691
 13
0.0
 23
0.0
 14
5.0
 24
5.0
 15
10.0
 25
10.0
 16
0.0
 26
0.0
 36
1.0
 17
0.0
 27
0.0
 37
0.0
 40
226.51155704467419
 41
1.831871345029239
 42
50.0
 43
0.0
 44
0.0
 50
0.0
 51
0.0
 71
    16
 72
  1000
 73
     1
 74
     0
 75
     0
 76
     0
 77
     0
 78
     1
  0
ENDTAB
  0
TABLE
  2
LTYPE
 70
     4
  0
LTYPE
  2
CONTINUOUS
 70
     0
  3
Solid Line
 72
    65
 73
     0
 40
0.0
  0
LTYPE
  2
CENTER
 70
     0
  3
____ _ ____ _ ____ _ ____ _ ____ _ ____ _ ____
 72
    65
 73
     4
 40
2.0
 49
1.25
 49
-0.25
 49
0.25
 49
-0.25
  0
LTYPE
  2
HIDDEN
 70
     0
  3
_ _ _ _ _ _ _ _ _ _ _ _ _ _ _ _ _ _ _ _ _ _ _
 72
    65
 73
     2
 40
0.375
 49
0.25
 49
-0.125
  0
LTYPE
  2
PHANTOM2
 70
     0
  3
___ _ _ ___ _ _ ___ _ _ ___ _ _
 72
    65
 73
     6
 40
1.25
 49
0.625
 49
-0.125
 49
0.125
 49
-0.125
 49
0.125
 49
-0.125
  0
ENDTAB
  0
TABLE
  2
LAYER
 70
     4
  0
LAYER
  2
0
 70
     0
 62
     7
  6
CONTINUOUS
  0
LAYER
  2
1
 70
     0
 62
     1
  6
CENTER
  0
LAYER
  2
3
 70
     0
 62
     3
  6
CONTINUOUS
  0
LAYER
  2
2
 70
     0
 62
     2
  6
HIDDEN
  0
ENDTAB
  0
TABLE
  2
STYLE
 70
     2
  0
STYLE
  2
STANDARD
 70
     0
 40
0.0
 41
1.0
 50
0.0
 71
     0
 42
3.0
  3
C:/r13/com/fonts/Romans
  4
C:/r13/com/fonts/Extfont
  0
STYLE
  2
STANDARD1
 70
     0
 40
0.0
 41
1.0
 50
0.0
 71
     0
 42
3.0
  3
txt
  4

  0
ENDTAB
  0
TABLE
  2
VIEW
 70
     0
  0
ENDTAB
  0
TABLE
  2
UCS
 70
     0
  0
ENDTAB
  0
TABLE
  2
APPID
 70
     3
  0
APPID
  2
ACAD
 70
     0
  0
APPID
  2
ACAD_MLEADERVER
 70
     0
  0
APPID
  2
ACAD_NAV_VCDISPLAY
 70
     0
  0
ENDTAB
  0
TABLE
  2
DIMSTYLE
 70
     1
  0
DIMSTYLE
  2
STANDARD
 70
     0
  3

  4

  5

  6

  7

 40
1.0
 41
0.18
 42
0.0625
 43
0.38
 44
0.18
 45
0.0
 46
0.0
 47
0.0
 48
0.0
140
0.18
141
0.09
142
0.0
143
25.399999999999999
144
1.0
145
0.0
146
1.0
147
0.09
 71
     0
 72
     0
 73
     1
 74
     1
 75
     0
 76
     0
 77
     0
 78
     0
170
     0
171
     2
172
     0
173
     0
174
     0
175
     0
176
     0
177
     0
178
     0
  0
ENDTAB
  0
ENDSEC
  0
SECTION
  2
BLOCKS
  0
BLOCK
  8
0
  2
$MODEL_SPACE
 70
     0
 10
0.0
 20
0.0
 30
0.0
  3
$MODEL_SPACE
  1

  0
ENDBLK
  5
11F
  8
0
  0
BLOCK
 67
     1
  8
0
  2
$PAPER_SPACE
 70
     0
 10
0.0
 20
0.0
 30
0.0
  3
$PAPER_SPACE
  1

  0
ENDBLK
  5
11D
 67
     1
  8
0
  0
ENDSEC
  0
SECTION
  2
ENTITIES
  0
LINE
  5
3F
  8
0
 10
55.343538969122157
 20
128.10737196399049
 30
0.0
 11
80.343538969122164
 21
128.10737196399049
 31
0.0
  0
LINE
  5
40
  8
0
 10
55.343538969122157
 20
112.1073719639905
 30
0.0
 11
80.343538969122164
 21
112.1073719639905
 31
0.0
  0
LINE
  5
41
  8
1
 10
67.843538969122164
 20
102.6073719639905
 30
0.0
 11
67.843538969122164
 21
137.60737196399049
 31
0.0
  0
LINE
  5
44
  8
1
 10
50.343538969122157
 20
120.1073719639905
 30
0.0
 11
85.343538969122164
 21
120.1073719639905
 31
0.0
  0
LINE
  5
45
  8
0
 10
80.343538969122164
 20
132.60737196399049
 30
0.0
 11
80.343538969122164
 21
107.6073719639905
 31
0.0
  0
LINE
  5
46
  8
0
 10
55.343538969122157
 20
107.6073719639905
 30
0.0
 11
55.343538969122157
 21
132.60737196399049
 31
0.0
  0
LINE
  5
47
  8
0
 10
80.343538969122164
 20
132.60737196399049
 30
0.0
 11
55.343538969122157
 21
132.60737196399049
 31
0.0
  0
LINE
  5
48
  8
0
 10
80.343538969122164
 20
107.6073719639905
 30
0.0
 11
55.343538969122157
 21
107.6073719639905
 31
0.0
  0
LINE
  5
49
  8
1
 10
122.2337935028546
 20
31.853326255279569
 30
0.0
 11
122.2337935028546
 21
83.853326255279583
 31
0.0
  0
LINE
  5
4A
  8
1
 10
67.843538969122164
 20
83.853326255279583
 30
0.0
 11
67.843538969122164
 21
31.853326255279569
 31
0.0
  0
LINE
  5
4B
  8
0
 10
80.343538969122164
 20
54.853326255279569
 30
0.0
 11
55.343538969122157
 21
54.853326255279569
 31
0.0
  0
LINE
  5
4C
  8
0
 10
80.343538969122164
 20
45.853326255279562
 30
0.0
 11
55.343538969122157
 21
45.853326255279562
 31
0.0
  0
LINE
  5
4D
  8
0
 10
80.343538969122164
 20
36.853326255279569
 30
0.0
 11
55.343538969122157
 21
36.853326255279569
 31
0.0
  0
LINE
  5
4E
  8
0
 10
55.343538969122157
 20
36.853326255279569
 30
0.0
 11
55.343538969122157
 21
54.853326255279569
 31
0.0
  0
LINE
  5
4F
  8
0
 10
80.343538969122164
 20
36.853326255279569
 30
0.0
 11
80.343538969122164
 21
54.853326255279569
 31
0.0
  0
LINE
  5
50
  8
0
 10
80.343538969122164
 20
39.353326255279569
 30
0.0
 11
55.343538969122157
 21
39.353326255279569
 31
0.0
  0
LINE
  5
51
  8
0
 10
112.2452987927946
 20
36.853326255279569
 30
0.0
 11
132.24529879279461
 21
36.853326255279569
 31
0.0
  0
LINE
  5
52
  8
0
 10
134.74529879279461
 20
39.353326255279569
 30
0.0
 11
134.74529879279461
 21
45.853326255279562
 31
0.0
  0
LINE
  5
53
  8
0
 10
134.74529879279461
 20
45.853326255279562
 30
0.0
 11
130.6452987927947
 21
45.853326255279562
 31
0.0
  0
LINE
  5
54
  8
0
 10
130.24529879279461
 20
46.25332625527966
 30
0.0
 11
130.24529879279461
 21
54.853326255279569
 31
0.0
  0
LINE
  5
55
  8
0
 10
130.24529879279461
 20
54.853326255279569
 30
0.0
 11
114.2452987927946
 21
54.853326255279569
 31
0.0
  0
LINE
  5
56
  8
0
 10
114.2452987927946
 20
54.853326255279569
 30
0.0
 11
114.2452987927946
 21
46.25332625527966
 31
0.0
  0
LINE
  5
57
  8
0
 10
113.84529879279449
 20
45.853326255279562
 30
0.0
 11
109.7452987927946
 21
45.853326255279562
 31
0.0
  0
LINE
  5
58
  8
0
 10
109.7452987927946
 20
45.853326255279562
 30
0.0
 11
109.7452987927946
 21
39.353326255279569
 31
0.0
  0
ARC
  5
59
  8
0
 10
113.8452987927941
 20
46.25332625527966
 30
0.0
 40
0.4
 50
270.0
 51
0.0
  0
ARC
  5
5A
  8
0
 10
130.64529879279419
 20
46.25332625527966
 30
0.0
 40
0.4
 50
180.0
 51
270.0
  0
LINE
  5
5B
  8
0
 10
109.7452987927946
 20
39.353326255279569
 30
0.0
 11
112.2452987927946
 21
36.853326255279569
 31
0.0
  0
LINE
  5
5C
  8
0
 10
134.74529879279461
 20
39.353326255279569
 30
0.0
 11
132.24529879279461
 21
36.853326255279569
 31
0.0
  0
LINE
  5
156
  8
0
 10
131.24529879279461
 20
78.153326255279609
 30
0.0
 11
131.24529879279461
 21
66.853326255279569
 31
0.0
  0
LINE
  5
157
  8
0
 10
131.24529879279461
 20
66.853326255279569
 30
0.0
 11
113.2452987927947
 21
66.853326255279569
 31
0.0
  0
LINE
  5
158
  8
0
 10
113.2452987927947
 20
66.853326255279569
 30
0.0
 11
113.2452987927947
 21
78.153326255279609
 31
0.0
  0
LINE
  5
159
  8
0
 10
114.45773435809279
 20
78.853326255279597
 30
0.0
 11
130.03286322749639
 21
78.853326255279597
 31
0.0
  0
LINE
  5
15A
  8
0
 10
113.2452987927947
 20
78.153326255279609
 30
0.0
 11
131.2452987927947
 21
78.153326255279609
 31
0.0
  0
LINE
  5
15B
  8
0
 10
131.24529879279461
 20
78.153326255279609
 30
0.0
 11
130.03286322749639
 21
78.853326255279597
 31
0.0
  0
LINE
  5
15C
  8
0
 10
113.2452987927947
 20
78.153326255279609
 30
0.0
 11
114.45773435809279
 21
78.853326255279597
 31
0.0
  0
LINE
  5
15D
  8
2
 10
126.2452987927946
 20
36.853326255279512
 30
0.0
 11
118.2452987927946
 21
36.853326255279633
 31
0.0
  0
LINE
  5
15E
  8
0
 10
116.2452987927946
 20
66.853326255279569
 30
0.0
 11
116.2452987927946
 21
54.853326255279569
 31
0.0
  0
LINE
  5
15F
  8
3
 10
117.1922987927946
 20
61.603326255279562
 30
0.0
 11
117.1922987927946
 21
54.853326255279562
 31
0.0
  0
LINE
  5
160
  8
3
 10
127.2982987927947
 20
61.603326255279562
 30
0.0
 11
127.2982987927947
 21
54.853326255279569
 31
0.0
  0
LINE
  5
161
  8
0
 10
128.24529879279461
 20
66.853326255279569
 30
0.0
 11
128.24529879279461
 21
54.853326255279569
 31
0.0
  0
LINE
  5
162
  8
2
 10
126.2452987927946
 20
36.853326255279512
 30
0.0
 11
128.24529879279461
 21
38.853326255279512
 31
0.0
  0
LINE
  5
163
  8
2
 10
118.2452987927946
 20
36.853326255279633
 30
0.0
 11
116.2452987927946
 21
38.853326255279633
 31
0.0
  0
LINE
  5
164
  8
2
 10
128.24529879279461
 20
38.853326255279541
 30
0.0
 11
116.2452987927946
 21
38.853326255279633
 31
0.0
  0
LINE
  5
165
  8
0
 10
116.2452987927946
 20
61.603326255279562
 30
0.0
 11
128.2452987927947
 21
61.603326255279562
 31
0.0
  0
LINE
  5
166
  8
3
 10
127.2982987927947
 20
61.603326255279562
 30
0.0
 11
128.2452987927947
 21
63.243578370047288
 31
0.0
  0
LINE
  5
167
  8
3
 10
117.1922987927946
 20
61.603326255279562
 30
0.0
 11
116.2452987927946
 21
63.243578370047288
 31
0.0
  0
LINE
  5
168
  8
2
 10
128.24529879279461
 20
54.853326255279569
 30
0.0
 11
128.24529879279461
 21
38.853326255279512
 31
0.0
  0
LINE
  5
169
  8
2
 10
127.2982987927947
 20
54.853326255279569
 30
0.0
 11
127.2982987927947
 21
37.906326255279573
 31
0.0
  0
LINE
  5
16A
  8
2
 10
117.1922987927946
 20
54.853326255279569
 30
0.0
 11
117.1922987927946
 21
37.906326255279652
 31
0.0
  0
LINE
  5
16B
  8
2
 10
116.2452987927946
 20
54.853326255279569
 30
0.0
 11
116.2452987927946
 21
38.853326255279633
 31
0.0
  0
LINE
  5
16D
  8
3
 10
72.896538969122219
 20
61.603326255279562
 30
0.0
 11
73.843538969122221
 21
63.243578370047288
 31
0.0
  0
LINE
  5
16E
  8
0
 10
61.843538969122172
 20
61.603326255279562
 30
0.0
 11
73.843538969122221
 21
61.603326255279562
 31
0.0
  0
LINE
  5
16F
  8
0
 10
73.843538969122164
 20
66.853326255279569
 30
0.0
 11
73.843538969122164
 21
54.853326255279569
 31
0.0
  0
LINE
  5
170
  8
3
 10
72.896538969122219
 20
61.603326255279562
 30
0.0
 11
72.896538969122219
 21
54.853326255279569
 31
0.0
  0
LINE
  5
171
  8
0
 10
76.843538969122193
 20
78.153326255279609
 30
0.0
 11
75.631103403824
 21
78.853326255279597
 31
0.0
  0
LINE
  5
172
  8
0
 10
58.843538969122193
 20
78.153326255279609
 30
0.0
 11
76.843538969122221
 21
78.153326255279609
 31
0.0
  0
LINE
  5
173
  8
0
 10
60.055974534420393
 20
78.853326255279597
 30
0.0
 11
75.631103403824
 21
78.853326255279597
 31
0.0
  0
LINE
  5
174
  8
0
 10
76.843538969122193
 20
66.853326255279569
 30
0.0
 11
58.843538969122193
 21
66.853326255279569
 31
0.0
  0
LINE
  5
175
  8
0
 10
76.843538969122193
 20
78.153326255279609
 30
0.0
 11
76.843538969122193
 21
66.853326255279569
 31
0.0
  0
LINE
  5
176
  8
3
 10
62.79053896912216
 20
61.603326255279562
 30
0.0
 11
61.843538969122172
 21
63.243578370047288
 31
0.0
  0
LINE
  5
177
  8
3
 10
62.790538969122139
 20
61.603326255279562
 30
0.0
 11
62.790538969122132
 21
54.853326255279562
 31
0.0
  0
LINE
  5
178
  8
0
 10
61.843538969122172
 20
66.853326255279569
 30
0.0
 11
61.843538969122172
 21
54.853326255279569
 31
0.0
  0
LINE
  5
179
  8
0
 10
58.843538969122221
 20
78.153326255279609
 30
0.0
 11
60.055974534420393
 21
78.853326255279597
 31
0.0
  0
LINE
  5
17A
  8
0
 10
58.843538969122193
 20
66.853326255279569
 30
0.0
 11
58.843538969122193
 21
78.153326255279609
 31
0.0
  0
LINE
  5
17B
  8
2
 10
72.896538969122219
 20
54.853326255279569
 30
0.0
 11
72.896538969122219
 21
37.906326255279573
 31
0.0
  0
LINE
  5
17C
  8
2
 10
73.84353896912215
 20
54.853326255279569
 30
0.0
 11
73.843538969122164
 21
38.853326255279512
 31
0.0
  0
LINE
  5
17D
  8
2
 10
73.843538969122164
 20
38.853326255279541
 30
0.0
 11
61.843538969122172
 21
38.853326255279633
 31
0.0
  0
LINE
  5
17E
  8
2
 10
71.843538969122164
 20
36.853326255279512
 30
0.0
 11
73.843538969122164
 21
38.853326255279512
 31
0.0
  0
LINE
  5
17F
  8
2
 10
61.843538969122172
 20
54.853326255279569
 30
0.0
 11
61.843538969122172
 21
38.853326255279633
 31
0.0
  0
LINE
  5
180
  8
2
 10
62.79053896912216
 20
54.853326255279569
 30
0.0
 11
62.79053896912216
 21
37.906326255279652
 31
0.0
  0
LINE
  5
181
  8
2
 10
63.843538969122157
 20
36.853326255279633
 30
0.0
 11
61.843538969122172
 21
38.853326255279633
 31
0.0
  0
LINE
  5
182
  8
2
 10
71.843538969122164
 20
36.853326255279512
 30
0.0
 11
63.843538969122157
 21
36.853326255279633
 31
0.0
  0
CIRCLE
  5
183
  8
3
 10
67.843538969122164
 20
120.1073719639905
 30
0.0
 40
6.0
  0
CIRCLE
  5
184
  8
0
 10
67.843538969122164
 20
120.1073719639905
 30
0.0
 40
5.052999999999999
  0
TEXT
  5
237
  8
0
 62
     3
 10
0.0
 20
0.0
 30
0.0
 40
5.0
  1
CLS-T16M12
  7
STANDARD1
  0
ENDSEC
  0
EOF
