  0
SECTION
  2
HEADER
  9
$ACADVER
  1
AC1009
  9
$INSBASE
 10
0.0
 20
0.0
 30
0.0
  9
$EXTMIN
 10
0.0
 20
-2.960436562073669
 30
0.0
  9
$EXTMAX
 10
298.54264338357598
 20
195.88350417461049
 30
0.0
  9
$LIMMIN
 10
0.0
 20
0.0
  9
$LIMMAX
 10
375.0
 20
270.0
  9
$ORTHOMODE
 70
     1
  9
$REGENMODE
 70
     1
  9
$FILLMODE
 70
     1
  9
$QTEXTMODE
 70
     0
  9
$MIRRTEXT
 70
     0
  9
$DRAGMODE
 70
     2
  9
$LTSCALE
 40
10.0
  9
$OSMODE
 70
  3071
  9
$ATTMODE
 70
     1
  9
$TEXTSIZE
 40
0.2
  9
$TRACEWID
 40
0.05
  9
$TEXTSTYLE
  7
STANDARD
  9
$CLAYER
  8
0
  9
$CELTYPE
  6
BYLAYER
  9
$CECOLOR
 62
   256
  9
$DIMSCALE
 40
1.0
  9
$DIMASZ
 40
3.0
  9
$DIMEXO
 40
1.0
  9
$DIMDLI
 40
6.0
  9
$DIMRND
 40
0.0
  9
$DIMDLE
 40
0.0
  9
$DIMEXE
 40
1.0
  9
$DIMTP
 40
495.0
  9
$DIMTM
 40
0.0
  9
$DIMTXT
 40
3.0
  9
$DIMCEN
 40
0.0
  9
$DIMTSZ
 40
0.0
  9
$DIMTOL
 70
     0
  9
$DIMLIM
 70
     0
  9
$DIMTIH
 70
     0
  9
$DIMTOH
 70
     0
  9
$DIMSE1
 70
     0
  9
$DIMSE2
 70
     0
  9
$DIMTAD
 70
     1
  9
$DIMZIN
 70
     0
  9
$DIMBLK
  1

  9
$DIMASO
 70
     0
  9
$DIMSHO
 70
     0
  9
$DIMPOST
  1

  9
$DIMAPOST
  1

  9
$DIMALT
 70
     0
  9
$DIMALTD
 70
     2
  9
$DIMALTF
 40
25.399999999999999
  9
$DIMLFAC
 40
1.0
  9
$DIMTOFL
 70
     1
  9
$DIMTVP
 40
0.0
  9
$DIMTIX
 70
     1
  9
$DIMSOXD
 70
     0
  9
$DIMSAH
 70
     0
  9
$DIMBLK1
  1

  9
$DIMBLK2
  1

  9
$DIMSTYLE
  2
STANDARD
  9
$DIMCLRD
 70
     0
  9
$DIMCLRE
 70
     0
  9
$DIMCLRT
 70
     4
  9
$DIMTFAC
 40
1.0
  9
$DIMGAP
 40
1.0
  9
$LUNITS
 70
     2
  9
$LUPREC
 70
     4
  9
$SKETCHINC
 40
0.1
  9
$FILLETRAD
 40
0.0
  9
$AUNITS
 70
     0
  9
$AUPREC
 70
     0
  9
$MENU
  1
C:\R13\WIN\SUPPORT\ACAD-I
  9
$ELEVATION
 40
0.0
  9
$PELEVATION
 40
0.0
  9
$THICKNESS
 40
0.0
  9
$LIMCHECK
 70
     0
  9
$BLIPMODE
 70
     0
  9
$CHAMFERA
 40
0.0
  9
$CHAMFERB
 40
0.0
  9
$SKPOLY
 70
     0
  9
$TDCREATE
 40
2450834.7095229169
  9
$TDUPDATE
 40
2456598.5917298258
  9
$TDINDWG
 40
0.0235141088
  9
$TDUSRTIMER
 40
0.0235141088
  9
$USRTIMER
 70
     1
  9
$ANGBASE
 50
0.0
  9
$ANGDIR
 70
     0
  9
$PDMODE
 70
     0
  9
$PDSIZE
 40
0.0
  9
$PLINEWID
 40
0.0
  9
$COORDS
 70
     1
  9
$SPLFRAME
 70
     0
  9
$SPLINETYPE
 70
     6
  9
$SPLINESEGS
 70
     8
  9
$ATTDIA
 70
     0
  9
$ATTREQ
 70
     1
  9
$HANDLING
 70
     1
  9
$HANDSEED
  5
69B
  9
$SURFTAB1
 70
     6
  9
$SURFTAB2
 70
     6
  9
$SURFTYPE
 70
     6
  9
$SURFU
 70
     6
  9
$SURFV
 70
     6
  9
$UCSNAME
  2

  9
$UCSORG
 10
0.0
 20
0.0
 30
0.0
  9
$UCSXDIR
 10
1.0
 20
0.0
 30
0.0
  9
$UCSYDIR
 10
0.0
 20
1.0
 30
0.0
  9
$PUCSNAME
  2

  9
$PUCSORG
 10
0.0
 20
0.0
 30
0.0
  9
$PUCSXDIR
 10
1.0
 20
0.0
 30
0.0
  9
$PUCSYDIR
 10
0.0
 20
1.0
 30
0.0
  9
$USERI1
 70
     4
  9
$USERI2
 70
     1
  9
$USERI3
 70
     0
  9
$USERI4
 70
     0
  9
$USERI5
 70
     0
  9
$USERR1
 40
1.0
  9
$USERR2
 40
3.0
  9
$USERR3
 40
3.0
  9
$USERR4
 40
3.0
  9
$USERR5
 40
10.0
  9
$WORLDVIEW
 70
     1
  9
$SHADEDGE
 70
     3
  9
$SHADEDIF
 70
    70
  9
$TILEMODE
 70
     1
  9
$MAXACTVP
 70
    16
  9
$PLIMCHECK
 70
     0
  9
$PEXTMIN
 10
1.0000000000000000E+020
 20
1.0000000000000000E+020
 30
1.0000000000000000E+020
  9
$PEXTMAX
 10
-1.0000000000000000E+020
 20
-1.0000000000000000E+020
 30
-1.0000000000000000E+020
  9
$PLIMMIN
 10
0.0
 20
0.0
  9
$PLIMMAX
 10
12.0
 20
9.0
  9
$UNITMODE
 70
     0
  9
$VISRETAIN
 70
     0
  9
$PLINEGEN
 70
     0
  9
$PSLTSCALE
 70
     0
  0
ENDSEC
  0
SECTION
  2
TABLES
  0
TABLE
  2
VPORT
 70
     1
  0
VPORT
  2
*ACTIVE
 70
     0
 10
0.0
 20
0.0
 11
1.0
 21
1.0
 12
195.0581083320873
 22
133.5127261426681
 13
0.0
 23
0.0
 14
10.0
 24
10.0
 15
10.0
 25
10.0
 16
0.0
 26
0.0
 36
1.0
 17
0.0
 27
0.0
 37
0.0
 40
275.42274993631997
 41
1.831871345029239
 42
50.0
 43
0.0
 44
0.0
 50
0.0
 51
0.0
 71
     0
 72
   100
 73
     1
 74
     0
 75
     0
 76
     0
 77
     0
 78
     0
  0
ENDTAB
  0
TABLE
  2
LTYPE
 70
     3
  0
LTYPE
  2
CONTINUOUS
 70
     0
  3
Solid Line
 72
    65
 73
     0
 40
0.0
  0
LTYPE
  2
CENTER
 70
     0
  3
____ _ ____ _ ____ _ ____ _ ____ _ ____ _ ____
 72
    65
 73
     4
 40
2.0
 49
1.25
 49
-0.25
 49
0.25
 49
-0.25
  0
LTYPE
  2
PHANTOM2
 70
     0
  3
___ _ _ ___ _ _ ___ _ _ ___ _ _
 72
    65
 73
     6
 40
1.25
 49
0.625
 49
-0.125
 49
0.125
 49
-0.125
 49
0.125
 49
-0.125
  0
ENDTAB
  0
TABLE
  2
LAYER
 70
     2
  0
LAYER
  2
0
 70
     0
 62
     7
  6
CONTINUOUS
  0
LAYER
  2
1
 70
     0
 62
     1
  6
CENTER
  0
ENDTAB
  0
TABLE
  2
STYLE
 70
     2
  0
STYLE
  2
STANDARD
 70
     0
 40
0.0
 41
1.0
 50
0.0
 71
     0
 42
0.2
  3
SIMPLEX
  4
BIGFONT
  0
STYLE
  2
STANDARD1
 70
     0
 40
0.0
 41
1.0
 50
0.0
 71
     0
 42
3.0
  3
txt
  4

  0
ENDTAB
  0
TABLE
  2
VIEW
 70
     0
  0
ENDTAB
  0
TABLE
  2
UCS
 70
     0
  0
ENDTAB
  0
TABLE
  2
APPID
 70
    21
  0
APPID
  2
ACAD
 70
     0
  0
APPID
  2
GENIUS_GENOREF_13
 70
     0
  0
APPID
  2
GENIUS_GENOENT_13
 70
     0
  0
APPID
  2
GENIUS_GENBH_13
 70
     0
  0
APPID
  2
GENIUS_GENOBJ_13
 70
     0
  0
APPID
  2
GENIUS_GENODEF_13
 70
     0
  0
APPID
  2
GENIUS_GENOLIS_13
 70
     0
  0
APPID
  2
GENIUS_GENOBJ-NBEHI-BHF_13
 70
     0
  0
APPID
  2
GENIUS_GENOBJ-NBEHI-BHB_13
 70
     0
  0
APPID
  2
GENIUS_GENOBJ-F-PART_13
 70
     0
  0
APPID
  2
GENIUS_GEFSTDP_13
 70
     0
  0
APPID
  2
GENIUS_GENOBJ-N-RSSYM_13
 70
     0
  0
APPID
  2
GENIUS_GENSYMENT_13
 70
     0
  0
APPID
  2
GENIUS_GENOBJ-N-TIT_13
 70
     0
  0
APPID
  2
GENIUS_GENTITLE_13
 70
     0
  0
APPID
  2
GENIUS_GENZVEED_13
 70
     0
  0
APPID
  2
GENIUS_GENOBJ-N-LEADER_13
 70
     0
  0
APPID
  2
GENIUS_GENOBJ-N-FIL_13
 70
     0
  0
APPID
  2
GENIUS_GENOBJ-N-SEC_13
 70
     0
  0
APPID
  2
ACAD_MLEADERVER
 70
     0
  0
APPID
  2
ACAD_NAV_VCDISPLAY
 70
     0
  0
ENDTAB
  0
TABLE
  2
DIMSTYLE
 70
     1
  0
DIMSTYLE
  2
STANDARD
 70
     0
  3

  4

  5

  6

  7

 40
1.0
 41
0.18
 42
0.0625
 43
0.38
 44
0.18
 45
0.0
 46
0.0
 47
0.0
 48
0.0
140
0.18
141
0.09
142
0.0
143
25.399999999999999
144
1.0
145
0.0
146
1.0
147
0.09
 71
     0
 72
     0
 73
     1
 74
     1
 75
     0
 76
     0
 77
     0
 78
     0
170
     0
171
     2
172
     0
173
     0
174
     0
175
     0
176
     0
177
     0
178
     0
  0
ENDTAB
  0
ENDSEC
  0
SECTION
  2
BLOCKS
  0
BLOCK
  8
0
  2
$MODEL_SPACE
 70
     0
 10
0.0
 20
0.0
 30
0.0
  3
$MODEL_SPACE
  1

  0
ENDBLK
  5
55C
  8
0
  0
BLOCK
 67
     1
  8
0
  2
$PAPER_SPACE
 70
     0
 10
0.0
 20
0.0
 30
0.0
  3
$PAPER_SPACE
  1

  0
ENDBLK
  5
55A
 67
     1
  8
0
  0
BLOCK
  8
0
  2
STDGX5
 70
     0
 10
0.0
 20
0.0
 30
0.0
  3
STDGX5
  1

  0
ENDBLK
  5
4F
  8
0
  0
ENDSEC
  0
SECTION
  2
ENTITIES
  0
INSERT
  5
DE
  8
0
  2
STDGX5
 10
0.0
 20
0.0
 30
0.0
  0
INSERT
  5
DF
  8
0
  2
STDGX5
 10
0.0
 20
0.0
 30
0.0
  0
INSERT
  5
15C
  8
0
  2
STDGX5
 10
275.0
 20
0.0
 30
0.0
  0
INSERT
  5
15D
  8
0
  2
STDGX5
 10
275.0
 20
0.0
 30
0.0
  0
LINE
  5
43A
  8
0
 10
224.1005328203936
 20
195.8596052165241
 30
0.0
 11
164.10053431645829
 21
195.8596052165241
 31
0.0
  0
ARC
  5
43B
  8
0
 10
164.10053431645829
 20
167.3596052165241
 30
0.0
 40
28.5
 50
90.0
 51
270.0
  0
LINE
  5
43C
  8
0
 10
164.10053431645829
 20
138.8596052165241
 30
0.0
 11
224.10053431645829
 21
138.8596052165241
 31
0.0
  0
ARC
  5
43D
  8
0
 10
224.10053431645829
 20
167.3596052165241
 30
0.0
 40
28.499999999999989
 50
270.0
 51
323.96812092752953
  0
ARC
  5
43E
  8
0
 10
244.72212494375961
 20
152.3596052165241
 30
0.0
 40
2.9999999999999818
 50
323.9681209275289
 51
89.999999999998906
  0
LINE
  5
43F
  8
0
 10
244.72212494375961
 20
155.3596052165241
 30
0.0
 11
241.86461323994891
 21
155.3596052165241
 31
0.0
  0
ARC
  5
440
  8
0
 10
241.86461323994891
 20
152.3596052165241
 30
0.0
 40
2.9999999999999778
 50
90.0
 51
139.82223045985211
  0
ARC
  5
441
  8
0
 10
224.10053431645829
 20
167.3596052165241
 30
0.0
 40
20.25000000000005
 50
180.0
 51
319.82223045985222
  0
ARC
  5
442
  8
0
 10
224.10053431645829
 20
167.3596052165241
 30
0.0
 40
20.25
 50
40.177769540147779
 51
180.0
  0
ARC
  5
443
  8
0
 10
241.8646132399488
 20
182.35960521652419
 30
0.0
 40
3.0000000000000782
 50
220.17776954015019
 51
270.0000000000021
  0
LINE
  5
444
  8
0
 10
241.86461323994891
 20
179.35960521652419
 30
0.0
 11
244.72212494375961
 21
179.35960521652419
 31
0.0
  0
ARC
  5
445
  8
0
 10
244.72212494375961
 20
182.35960521652419
 30
0.0
 40
3.0
 50
270.0
 51
36.031879072470304
  0
ARC
  5
446
  8
0
 10
224.10053431645841
 20
167.3596052165241
 30
0.0
 40
28.500000000000082
 50
36.031879072470772
 51
90.000000000000213
  0
ARC
  5
447
  8
0
 10
247.14516821820919
 20
92.345915090085896
 30
0.0
 40
0.4263286990840159
 50
215.53357588951329
 51
280.38396259022659
  0
ARC
  5
448
  8
0
 10
247.16288854322841
 20
92.423061009855644
 30
0.0
 40
0.5000000000000459
 50
276.7908611586559
 51
5.1033608652413696
  0
LINE
  5
449
  8
0
 10
247.66090646788891
 20
92.467537371182573
 30
0.0
 11
247.72201133620419
 21
99.469461747740013
 31
0.0
  0
ARC
  5
44A
  8
0
 10
244.72201133620419
 20
99.469461747740056
 30
0.0
 40
3.0
 50
359.99999999999937
 51
90.0
  0
LINE
  5
44B
  8
0
 10
244.72201133620419
 20
102.46946174774
 30
0.0
 11
139.9049343164582
 21
102.46946174774
 31
0.0
  0
ARC
  5
44C
  8
0
 10
139.9049343164582
 20
99.46946174774007
 30
0.0
 40
3.0
 50
90.0
 51
180.0
  0
LINE
  5
44D
  8
0
 10
136.9049343164582
 20
99.46946174774007
 30
0.0
 11
137.00533137371281
 21
87.965098479990885
 31
0.0
  0
ARC
  5
44E
  8
0
 10
137.50531233524489
 20
87.969461747740056
 30
0.0
 40
0.4999999999999743
 50
180.4999999999981
 51
270.0
  0
LINE
  5
44F
  8
0
 10
137.50531233524489
 20
87.469461747740084
 30
0.0
 11
148.10835446079039
 21
87.469461747740084
 31
0.0
  0
ARC
  5
450
  8
0
 10
148.10835446079039
 20
88.46946174774007
 30
0.0
 40
1.000000000000014
 50
270.0
 51
356.41667830152733
  0
ARC
  5
451
  8
0
 10
152.10053431645821
 20
88.219461747740098
 30
0.0
 40
2.9999999999999591
 50
90.0
 51
176.41667830152849
  0
ARC
  5
453
  8
0
 10
161.565260110103
 20
90.219461747761656
 30
0.0
 40
1.000000000000014
 50
1.48949012774713
 51
89.999999999876238
  0
LINE
  5
454
  8
0
 10
162.56492221994739
 20
90.245455326612898
 30
0.0
 11
162.57503386240441
 21
89.943284799432206
 31
0.0
  0
ARC
  5
455
  8
0
 10
163.5746911873799
 20
89.969461747740084
 30
0.0
 40
0.9999999999999866
 50
181.4999999999994
 51
270.0
  0
LINE
  5
456
  8
0
 10
163.5746911873799
 20
88.969461747740056
 30
0.0
 11
179.6288536407794
 21
88.970934170284465
 31
0.0
  0
ARC
  5
457
  8
0
 10
179.62867020890729
 20
89.970934153461286
 30
0.0
 40
1.0000000000004461
 50
270.01050987215689
 51
358.51050987215501
  0
LINE
  5
458
  8
0
 10
180.62833231875209
 20
89.944940574608324
 30
0.0
 11
180.6361464129599
 21
90.245455326593444
 31
0.0
  0
ARC
  5
459
  8
0
 10
181.63580852280421
 20
90.219461747740056
 30
0.0
 40
1.0000000000000191
 50
90.0
 51
178.5105098721298
  0
LINE
  5
45A
  8
0
 10
152.10053431645821
 20
91.219461747740084
 30
0.0
 11
215.5932078011266
 21
91.219461747740084
 31
0.0
  0
ARC
  5
45B
  8
0
 10
216.01015199029479
 20
137.7332440917873
 30
0.0
 40
46.515651026361901
 50
269.48642098496038
 51
280.01629096392281
  0
LINE
  5
45C
  8
0
 10
224.10053460676639
 20
91.926568819231477
 30
0.0
 11
247.22201133620419
 21
91.926568819231477
 31
0.0
  0
LINE
  5
45D
  8
0
 10
95.710537771850795
 20
138.95550574343599
 30
0.0
 11
103.96053777182919
 21
138.88350908416211
 31
0.0
  0
ARC
  5
45E
  8
0
 10
103.96053777182919
 20
141.88350908416211
 30
0.0
 40
3.0
 50
270.00000000000108
 51
0.0
  0
LINE
  5
45F
  8
0
 10
106.9605377718291
 20
141.88350908416211
 30
0.0
 11
106.96053777182919
 21
192.88350417461049
 31
0.0
1001
GENIUS_GENODEF_13
1002
{
1000
HIER
1070
     0
1002
}
1002
{
1000
MANEDIT
1070
     0
1002
}
1002
{
1000
NOSEL
1070
     0
1002
}
1002
{
1000
BEHIND
1070
     0
1002
}
1002
{
1000
REACTOR
1002
}
1001
GENIUS_GENOBJ-N-FIL_13
1002
{
1000
OWNER
1000
GEN
1002
}
  0
ARC
  5
460
  8
0
 10
103.96053777182919
 20
192.88350417461049
 30
0.0
 40
3.0
 50
0.0
 51
90.0
1001
GENIUS_GENODEF_13
1002
{
1000
HIER
1070
     0
1002
}
1002
{
1000
MANEDIT
1070
     0
1002
}
1002
{
1000
NOSEL
1070
     0
1002
}
1002
{
1000
BEHIND
1070
     0
1002
}
1002
{
1000
REACTOR
1002
}
1001
GENIUS_GENOBJ-N-FIL_13
1002
{
1000
OWNER
1000
GEN
1002
}
  0
LINE
  5
461
  8
0
 10
103.96053777182919
 20
195.88350417461049
 30
0.0
 11
95.710537771850795
 21
195.8115075153367
 31
0.0
  0
LINE
  5
462
  8
0
 10
95.710537771850795
 20
195.8115075153367
 30
0.0
 11
95.710537771850795
 21
191.62037769080811
 31
0.0
  0
LINE
  5
463
  8
0
 10
95.710537771850795
 20
191.62037769080811
 30
0.0
 11
91.960537771829195
 21
191.62037769080811
 31
0.0
  0
LINE
  5
464
  8
0
 10
91.960537771829195
 20
191.62037769080811
 30
0.0
 11
91.960537771829138
 21
143.14663556796469
 31
0.0
  0
LINE
  5
465
  8
0
 10
91.960537771829138
 20
143.14663556796469
 30
0.0
 11
95.710537771850795
 21
143.14663556796469
 31
0.0
  0
LINE
  5
466
  8
0
 10
95.710537771850795
 20
143.14663556796469
 30
0.0
 11
95.710537771850795
 21
138.95550574343599
 31
0.0
  0
LINE
  5
46C
  8
1
 10
171.60053431645821
 20
181.386888000933
 30
0.0
 11
171.60053431645821
 21
153.33358800093299
 31
0.0
  0
LINE
  5
46E
  8
1
 10
224.10053431645829
 20
192.6096052165241
 30
0.0
 11
224.10053431645829
 21
142.1096052165241
 31
0.0
  0
LINE
  5
46F
  8
1
 10
130.60053431645829
 20
167.3596052165241
 30
0.0
 11
254.1713017337392
 21
167.3596052165241
 31
0.0
  0
LINE
  5
470
  8
1
 10
111.96053777182919
 20
167.38350662938629
 30
0.0
 11
86.960537771829166
 21
167.38350662938629
 31
0.0
  0
LINE
  5
471
  8
1
 10
171.60053431645821
 20
107.4694617477401
 30
0.0
 11
171.60053431645821
 21
83.970197845458983
 31
0.0
  0
LINE
  5
472
  8
1
 10
224.10053460675309
 20
107.4694617477401
 30
0.0
 11
224.10053460675309
 21
86.926568819231477
 31
0.0
  0
LINE
  5
473
  8
0
 10
293.54264338357598
 20
191.62037769080811
 30
0.0
 11
293.54264338357598
 21
143.14663556796469
 31
0.0
  0
LINE
  5
474
  8
0
 10
278.54264338357598
 20
141.88350908416211
 30
0.0
 11
278.54264338357592
 21
192.88350417461049
 31
0.0
1001
GENIUS_GENODEF_13
1002
{
1000
HIER
1070
     0
1002
}
1002
{
1000
MANEDIT
1070
     0
1002
}
1002
{
1000
NOSEL
1070
     0
1002
}
1002
{
1000
BEHIND
1070
     0
1002
}
1002
{
1000
REACTOR
1002
}
1001
GENIUS_GENOBJ-N-FIL_13
1002
{
1000
OWNER
1000
GEN
1002
}
  0
LINE
  5
475
  8
1
 10
273.54264338357598
 20
167.38350662938629
 30
0.0
 11
298.54264338357598
 21
167.38350662938629
 31
0.0
  0
LINE
  5
476
  8
0
 10
289.79264338355438
 20
138.95550574343599
 30
0.0
 11
281.54264338357592
 21
138.88350908416211
 31
0.0
  0
LINE
  5
477
  8
0
 10
293.54264338357598
 20
143.14663556796469
 30
0.0
 11
289.79264338355438
 21
143.14663556796469
 31
0.0
  0
LINE
  5
478
  8
0
 10
289.79264338355438
 20
195.81150751533681
 30
0.0
 11
289.79264338355438
 21
138.95550574343599
 31
0.0
  0
ARC
  5
479
  8
0
 10
281.54264338357598
 20
141.88350908416211
 30
0.0
 40
3.0
 50
180.0
 51
269.99999999999892
  0
LINE
  5
47A
  8
0
 10
281.54264338357592
 20
195.88350417461049
 30
0.0
 11
289.79264338355438
 21
195.8115075153367
 31
0.0
  0
LINE
  5
47B
  8
0
 10
289.79264338355438
 20
191.62037769080811
 30
0.0
 11
293.54264338357598
 21
191.62037769080811
 31
0.0
  0
ARC
  5
47D
  8
0
 10
281.54264338357592
 20
192.88350417461049
 30
0.0
 40
3.0
 50
90.0
 51
180.0
1001
GENIUS_GENODEF_13
1002
{
1000
HIER
1070
     0
1002
}
1002
{
1000
MANEDIT
1070
     0
1002
}
1002
{
1000
NOSEL
1070
     0
1002
}
1002
{
1000
BEHIND
1070
     0
1002
}
1002
{
1000
REACTOR
1002
}
1001
GENIUS_GENOBJ-N-FIL_13
1002
{
1000
OWNER
1000
GEN
1002
}
  0
LINE
  5
47E
  8
0
 10
278.54264338357598
 20
179.3596052165241
 30
0.0
 11
289.79264338355438
 21
179.3596052165241
 31
0.0
  0
LINE
  5
47F
  8
0
 10
278.54264338357598
 20
155.35960521652399
 30
0.0
 11
289.79264338355438
 21
155.35960521652399
 31
0.0
  0
LINE
  5
483
  8
0
 10
292.04264338355438
 20
159.3564254026866
 30
0.0
 11
292.04117096100998
 21
175.4105878560861
 31
0.0
  0
ARC
  5
484
  8
0
 10
290.79264338353278
 20
157.34699432540961
 30
0.0
 40
1.000000000000014
 50
91.489490127747118
 51
179.9999999998762
  0
ARC
  5
485
  8
0
 10
291.04264338355438
 20
159.3564254026866
 30
0.0
 40
0.9999999999999866
 50
271.49999999999949
 51
0.0
  0
LINE
  5
486
  8
0
 10
290.76664980468161
 20
158.34665643525409
 30
0.0
 11
291.06882033186218
 21
158.356768077711
 31
0.0
  0
ARC
  5
487
  8
0
 10
291.04117097783319
 20
175.41040442421399
 30
0.0
 40
1.0000000000004461
 50
0.0105098721569608
 51
88.510509872154969
  0
ARC
  5
488
  8
0
 10
290.79264338355438
 20
177.4175427381108
 30
0.0
 40
1.0000000000000191
 50
180.0
 51
268.51050987212989
  0
LINE
  5
489
  8
0
 10
291.06716455668612
 20
176.41006653405881
 30
0.0
 11
290.76664980470099
 21
176.41788062826649
 31
0.0
  0
CIRCLE
  5
51B
  8
0
 10
171.60053431645821
 20
167.3596052165241
 30
0.0
 40
6.0
  0
TEXT
  5
60D
  8
0
 62
     3
 10
0.0
 20
0.0
 30
0.0
 40
10.0
  1
CLP60
  7
STANDARD1
  0
ENDSEC
  0
EOF
