  0
SECTION
  2
HEADER
  9
$ACADVER
  1
AC1009
  9
$INSBASE
 10
0.0
 20
0.0
 30
0.0
  9
$EXTMIN
 10
0.0
 20
-2.960436562073669
 30
0.0
  9
$EXTMAX
 10
237.49680705189999
 20
129.9999991059999
 30
0.0
  9
$LIMMIN
 10
0.0
 20
0.0
  9
$LIMMAX
 10
375.0
 20
270.0
  9
$ORTHOMODE
 70
     1
  9
$REGENMODE
 70
     1
  9
$FILLMODE
 70
     1
  9
$QTEXTMODE
 70
     0
  9
$MIRRTEXT
 70
     0
  9
$DRAGMODE
 70
     2
  9
$LTSCALE
 40
10.0
  9
$OSMODE
 70
    37
  9
$ATTMODE
 70
     1
  9
$TEXTSIZE
 40
4.000000000000048
  9
$TRACEWID
 40
0.05
  9
$TEXTSTYLE
  7
STANDARD
  9
$CLAYER
  8
0
  9
$CELTYPE
  6
BYLAYER
  9
$CECOLOR
 62
   256
  9
$DIMSCALE
 40
1.0
  9
$DIMASZ
 40
3.0
  9
$DIMEXO
 40
2.0
  9
$DIMDLI
 40
0.38
  9
$DIMRND
 40
0.0
  9
$DIMDLE
 40
0.0
  9
$DIMEXE
 40
2.0
  9
$DIMTP
 40
0.0
  9
$DIMTM
 40
0.0
  9
$DIMTXT
 40
3.2000000000000002
  9
$DIMCEN
 40
0.0
  9
$DIMTSZ
 40
0.0
  9
$DIMTOL
 70
     0
  9
$DIMLIM
 70
     0
  9
$DIMTIH
 70
     0
  9
$DIMTOH
 70
     0
  9
$DIMSE1
 70
     0
  9
$DIMSE2
 70
     0
  9
$DIMTAD
 70
     1
  9
$DIMZIN
 70
     0
  9
$DIMBLK
  1

  9
$DIMASO
 70
     0
  9
$DIMSHO
 70
     0
  9
$DIMPOST
  1

  9
$DIMAPOST
  1

  9
$DIMALT
 70
     0
  9
$DIMALTD
 70
     2
  9
$DIMALTF
 40
25.399999999999999
  9
$DIMLFAC
 40
1.0
  9
$DIMTOFL
 70
     0
  9
$DIMTVP
 40
1.6000000000000001
  9
$DIMTIX
 70
     1
  9
$DIMSOXD
 70
     0
  9
$DIMSAH
 70
     0
  9
$DIMBLK1
  1

  9
$DIMBLK2
  1

  9
$DIMSTYLE
  2
STANDARD
  9
$DIMCLRD
 70
     4
  9
$DIMCLRE
 70
     4
  9
$DIMCLRT
 70
     4
  9
$DIMTFAC
 40
1.0
  9
$DIMGAP
 40
0.09
  9
$LUNITS
 70
     2
  9
$LUPREC
 70
     1
  9
$SKETCHINC
 40
0.1
  9
$FILLETRAD
 40
22.0
  9
$AUNITS
 70
     0
  9
$AUPREC
 70
     0
  9
$MENU
  1
E:\r13\win\SUPPORT\ACAD
  9
$ELEVATION
 40
0.0
  9
$PELEVATION
 40
0.0
  9
$THICKNESS
 40
0.0
  9
$LIMCHECK
 70
     0
  9
$BLIPMODE
 70
     0
  9
$CHAMFERA
 40
1.1999999999999991
  9
$CHAMFERB
 40
1.1999999999999991
  9
$SKPOLY
 70
     0
  9
$TDCREATE
 40
2449954.6020138888
  9
$TDUPDATE
 40
2458247.5718597108
  9
$TDINDWG
 40
0.4694309722
  9
$TDUSRTIMER
 40
0.4694309722
  9
$USRTIMER
 70
     1
  9
$ANGBASE
 50
0.0
  9
$ANGDIR
 70
     0
  9
$PDMODE
 70
     0
  9
$PDSIZE
 40
0.0
  9
$PLINEWID
 40
0.0
  9
$COORDS
 70
     1
  9
$SPLFRAME
 70
     0
  9
$SPLINETYPE
 70
     6
  9
$SPLINESEGS
 70
     8
  9
$ATTDIA
 70
     0
  9
$ATTREQ
 70
     1
  9
$HANDLING
 70
     1
  9
$HANDSEED
  5
291E
  9
$SURFTAB1
 70
     6
  9
$SURFTAB2
 70
     6
  9
$SURFTYPE
 70
     6
  9
$SURFU
 70
     6
  9
$SURFV
 70
     6
  9
$UCSNAME
  2

  9
$UCSORG
 10
0.0
 20
0.0
 30
0.0
  9
$UCSXDIR
 10
1.0
 20
0.0
 30
0.0
  9
$UCSYDIR
 10
0.0
 20
1.0
 30
0.0
  9
$PUCSNAME
  2

  9
$PUCSORG
 10
0.0
 20
0.0
 30
0.0
  9
$PUCSXDIR
 10
1.0
 20
0.0
 30
0.0
  9
$PUCSYDIR
 10
0.0
 20
1.0
 30
0.0
  9
$USERI1
 70
     0
  9
$USERI2
 70
     1
  9
$USERI3
 70
     0
  9
$USERI4
 70
     0
  9
$USERI5
 70
     0
  9
$USERR1
 40
0.0
  9
$USERR2
 40
0.0
  9
$USERR3
 40
0.0
  9
$USERR4
 40
0.0
  9
$USERR5
 40
0.0
  9
$WORLDVIEW
 70
     1
  9
$SHADEDGE
 70
     3
  9
$SHADEDIF
 70
    70
  9
$TILEMODE
 70
     1
  9
$MAXACTVP
 70
    16
  9
$PLIMCHECK
 70
     0
  9
$PEXTMIN
 10
1.049999952316284
 20
0.7999999523162842
 30
0.0
  9
$PEXTMAX
 10
9.4499995708465558
 20
7.1999995708465558
 30
0.0
  9
$PLIMMIN
 10
-0.2500002402958907
 20
-0.2499999962453767
  9
$PLIMMAX
 10
10.74999951940821
 20
8.2499997634587316
  9
$UNITMODE
 70
     0
  9
$VISRETAIN
 70
     0
  9
$PLINEGEN
 70
     0
  9
$PSLTSCALE
 70
     0
  0
ENDSEC
  0
SECTION
  2
TABLES
  0
TABLE
  2
VPORT
 70
     1
  0
VPORT
  2
*ACTIVE
 70
     0
 10
0.0
 20
0.0
 11
1.0
 21
1.0
 12
227.86586370236409
 22
63.526349127771638
 13
0.0
 23
0.0
 14
10.0
 24
10.0
 15
10.0
 25
10.0
 16
0.0
 26
0.0
 36
1.0
 17
0.0
 27
0.0
 37
0.0
 40
175.7602888375888
 41
2.6019575856443709
 42
50.0
 43
0.0
 44
0.0
 50
0.0
 51
0.0
 71
     0
 72
   500
 73
     1
 74
     0
 75
     0
 76
     0
 77
     0
 78
     2
  0
ENDTAB
  0
TABLE
  2
LTYPE
 70
     4
  0
LTYPE
  2
CONTINUOUS
 70
     0
  3
Solid Line
 72
    65
 73
     0
 40
0.0
  0
LTYPE
  2
CENTER
 70
     0
  3
____ _ ____ _ ____ _ ____ _ ____ _ ____ _ ____
 72
    65
 73
     4
 40
2.0
 49
1.25
 49
-0.25
 49
0.25
 49
-0.25
  0
LTYPE
  2
PHANTOM2
 70
     0
  3
___ _ _ ___ _ _ ___ _ _ ___ _ _
 72
    65
 73
     6
 40
1.25
 49
0.625
 49
-0.125
 49
0.125
 49
-0.125
 49
0.125
 49
-0.125
  0
LTYPE
  2
HIDDEN
 70
     0
  3
_ _ _ _ _ _ _ _ _ _ _ _ _ _ _ _ _ _ _ _ _ _ _
 72
    65
 73
     2
 40
0.375
 49
0.25
 49
-0.125
  0
ENDTAB
  0
TABLE
  2
LAYER
 70
     3
  0
LAYER
  2
0
 70
     0
 62
     7
  6
CONTINUOUS
  0
LAYER
  2
1
 70
     0
 62
     1
  6
CENTER
  0
LAYER
  2
2
 70
     0
 62
     2
  6
HIDDEN
  0
ENDTAB
  0
TABLE
  2
STYLE
 70
     2
  0
STYLE
  2
STANDARD
 70
     0
 40
0.0
 41
1.0
 50
0.0
 71
     0
 42
4.000000000000048
  3
SIMPLEX
  4
BIGFONT
  0
STYLE
  2
STANDARD1
 70
     0
 40
0.0
 41
1.0
 50
0.0
 71
     0
 42
3.0
  3
txt
  4

  0
ENDTAB
  0
TABLE
  2
VIEW
 70
     1
  0
VIEW
  2
ALL
 70
     0
 40
270.0
 10
220.78595317725751
 20
135.0
 41
441.57190635451502
 11
0.0
 21
0.0
 31
1.0
 12
0.0
 22
0.0
 32
0.0
 42
50.0
 43
0.0
 44
0.0
 50
0.0
 71
     0
  0
ENDTAB
  0
TABLE
  2
UCS
 70
     0
  0
ENDTAB
  0
TABLE
  2
APPID
 70
     4
  0
APPID
  2
ACAD
 70
     0
  0
APPID
  2
ACAD_MLEADERVER
 70
     0
  0
APPID
  2
ACAD_NAV_VCDISPLAY
 70
     0
  0
APPID
  2
ACAD_EXEMPT_FROM_CAD_STANDARDS
 70
     0
  0
ENDTAB
  0
TABLE
  2
DIMSTYLE
 70
     1
  0
DIMSTYLE
  2
STANDARD
 70
     0
  3

  4

  5

  6

  7

 40
1.0
 41
0.18
 42
0.0625
 43
0.38
 44
0.18
 45
0.0
 46
0.0
 47
0.0
 48
0.0
140
0.18
141
0.09
142
0.0
143
25.399999999999999
144
1.0
145
0.0
146
1.0
147
0.09
 71
     0
 72
     0
 73
     1
 74
     1
 75
     0
 76
     0
 77
     0
 78
     0
170
     0
171
     2
172
     0
173
     0
174
     0
175
     0
176
     0
177
     0
178
     0
  0
ENDTAB
  0
ENDSEC
  0
SECTION
  2
BLOCKS
  0
BLOCK
  8
0
  2
$MODEL_SPACE
 70
     0
 10
0.0
 20
0.0
 30
0.0
  3
$MODEL_SPACE
  1

  0
ENDBLK
  5
1126
  8
0
  0
BLOCK
 67
     1
  8
0
  2
$PAPER_SPACE
 70
     0
 10
0.0
 20
0.0
 30
0.0
  3
$PAPER_SPACE
  1

  0
ENDBLK
  5
1124
 67
     1
  8
0
  0
ENDSEC
  0
SECTION
  2
ENTITIES
  0
TEXT
  5
23BA
  8
0
 62
     3
 10
0.0
 20
0.0
 30
0.0
 40
10.0
  1
CLHG28-140RBB
  7
STANDARD1
  0
ARC
  5
249F
  8
0
 10
234.49680705189999
 20
120.0
 30
0.0
 40
3.0000000000000391
 50
270.0
 51
340.5287793655001
  0
LINE
  5
24A0
  8
0
 10
234.4968060386
 20
117.0000015199999
 30
0.0
 11
135.41333772070001
 21
117.0000015199999
 31
0.0
  0
LINE
  5
24A1
  8
0
 10
237.3252326978
 20
119.00000184779989
 30
0.0
 11
135.41333772070001
 21
119.00000184779989
 31
0.0
  0
CIRCLE
  5
24A2
  8
0
 10
109.99680705190001
 20
112.5
 30
0.0
 40
10.00000000000003
  0
ARC
  5
24A3
  8
0
 10
109.99680705190001
 20
112.5
 30
0.0
 40
12.50000000000003
 50
337.38013505200001
 51
337.55364941859978
  0
ARC
  5
24A4
  8
0
 10
139.99680705189999
 20
100.0
 30
0.0
 40
19.999999999999972
 50
157.38013505200001
 51
180.0
  0
LINE
  5
24A5
  8
0
 10
119.9968068284
 20
85.0
 30
0.0
 11
119.9968068284
 21
99.99999966479993
 31
0.0
  0
LINE
  5
24A6
  8
0
 10
99.996807275399988
 20
85.0
 30
0.0
 11
119.9968068284
 21
85.0
 31
0.0
  0
LINE
  5
24A7
  8
0
 10
99.996807275399988
 20
99.99999966479993
 30
0.0
 11
99.996807275399988
 21
85.0
 31
0.0
  0
ARC
  5
24A8
  8
0
 10
79.996807051900021
 20
100.0
 30
0.0
 40
20.0
 50
0.0
 51
22.619864947999989
  0
ARC
  5
24A9
  8
0
 10
109.99680705190001
 20
112.5
 30
0.0
 40
12.500000000000011
 50
90.0
 51
202.61986494799999
  0
LINE
  5
24AA
  8
0
 10
234.4968060386
 20
124.9999991059999
 30
0.0
 11
109.99680705190001
 21
124.9999991059999
 31
0.0
  0
ARC
  5
24AB
  8
0
 10
234.49680705189999
 20
122.0
 30
0.0
 40
3.0
 50
0.0
 51
90.0
  0
LINE
  5
24AC
  8
0
 10
237.49680466769999
 20
120.0000001490999
 30
0.0
 11
237.49680466769999
 21
122.0000004769
 31
0.0
  0
ARC
  5
24AD
  8
0
 10
234.49680705189999
 20
120.0
 30
0.0
 40
3.0000000000000391
 50
340.5287793655001
 51
0.0
  0
ARC
  5
24AF
  8
0
 10
135.4133371062
 20
102.0
 30
0.0
 40
15.0
 50
123.7640078516976
 51
157.5536494185998
  0
ARC
  5
24B1
  8
0
 10
135.4133371062
 20
102.0000000000999
 30
0.0
 40
14.999999999919179
 50
90.0
 51
123.7640078517999
  0
LINE
  5
24E2
  8
2
 10
59.499999694499991
 20
99.499999582799944
 30
0.0
 11
59.499999694499991
 21
85.750000006599976
 31
0.0
  0
LINE
  5
24E3
  8
2
 10
54.499999806300004
 20
85.750000006599976
 30
0.0
 11
59.499999694499991
 21
85.750000006599976
 31
0.0
  0
LINE
  5
24E4
  8
2
 10
54.499999806300004
 20
85.750000006599976
 30
0.0
 11
54.499999806300004
 21
99.499999582799944
 31
0.0
  0
LINE
  5
24E7
  8
2
 10
45.500000193699996
 20
99.499999582799944
 30
0.0
 11
45.500000193699996
 21
85.750000006599976
 31
0.0
  0
LINE
  5
24E8
  8
2
 10
40.500000305500009
 20
85.750000006599976
 30
0.0
 11
45.500000193699996
 21
85.750000006599976
 31
0.0
  0
LINE
  5
24E9
  8
2
 10
40.500000305500009
 20
85.750000006599976
 30
0.0
 11
40.500000305500009
 21
99.499999582799944
 31
0.0
  0
LINE
  5
24EB
  8
0
 10
35.999999567899998
 20
124.9999991059999
 30
0.0
 11
64.000000432099995
 21
124.9999991059999
 31
0.0
  0
LINE
  5
24EC
  8
2
 10
59.499999694499991
 20
85.750000006599976
 30
0.0
 11
60.2500002831
 21
85.0
 31
0.0
  0
LINE
  5
24ED
  8
2
 10
53.749999916200011
 20
85.0
 30
0.0
 11
54.499999806300004
 21
85.750000006599976
 31
0.0
  0
LINE
  5
24EF
  8
2
 10
45.500000193699996
 20
85.750000006599976
 30
0.0
 11
46.250000083799982
 21
85.0
 31
0.0
  0
LINE
  5
24F1
  8
2
 10
39.749999716899993
 20
85.0
 30
0.0
 11
40.500000305500009
 21
85.750000006599976
 31
0.0
  0
LINE
  5
24F3
  8
0
 10
35.999999567899998
 20
85.0
 30
0.0
 11
35.999999567900012
 21
124.9999991059999
 31
0.0
  0
LINE
  5
24F9
  8
0
 10
64.000000432099995
 20
85.0
 30
0.0
 11
64.000000432099981
 21
124.9999991059999
 31
0.0
  0
LINE
  5
24FA
  8
0
 10
35.999999567899998
 20
84.999999999999943
 30
0.0
 11
64.000000432099995
 21
85.0
 31
0.0
  0
LINE
  5
2507
  8
2
 10
60.0
 20
99.499999582799944
 30
0.0
 11
54.0
 21
99.499999582799944
 31
0.0
  0
LINE
  5
2517
  8
2
 10
40.0
 20
85.25
 30
0.0
 11
40.0
 21
99.499999582799944
 31
0.0
  0
LINE
  5
2518
  8
2
 10
46.0
 20
85.25
 30
0.0
 11
46.0
 21
99.499999582799944
 31
0.0
  0
LINE
  5
2519
  8
2
 10
54.0
 20
85.25
 30
0.0
 11
54.0
 21
99.499999582799944
 31
0.0
  0
LINE
  5
251A
  8
2
 10
60.0
 20
85.25
 30
0.0
 11
60.0
 21
99.499999582799944
 31
0.0
  0
POLYLINE
  5
2576
  8
0
 66
     1
 10
0.0
 20
0.0
 30
0.0
  0
VERTEX
  5
28FC
  8
0
 10
135.41333710620091
 20
119.0000000000384
 30
0.0
  0
VERTEX
  5
28FD
  8
0
 10
135.1293165244972
 20
118.9348475702833
 30
0.0
  0
VERTEX
  5
28FE
  8
0
 10
134.84622653395559
 20
118.8643737551909
 30
0.0
  0
VERTEX
  5
28FF
  8
0
 10
134.5641256996866
 20
118.7886177263898
 30
0.0
  0
VERTEX
  5
2900
  8
0
 10
134.2830725868005
 20
118.7076186555088
 30
0.0
  0
VERTEX
  5
2901
  8
0
 10
134.0031257604077
 20
118.62141571417639
 30
0.0
  0
VERTEX
  5
2902
  8
0
 10
133.72434378561849
 20
118.5300480740212
 30
0.0
  0
VERTEX
  5
2903
  8
0
 10
133.44678522754339
 20
118.4335549066718
 30
0.0
  0
VERTEX
  5
2904
  8
0
 10
133.17050865129269
 20
118.331975383757
 30
0.0
  0
VERTEX
  5
2905
  8
0
 10
132.8955726219767
 20
118.2253486769053
 30
0.0
  0
VERTEX
  5
2906
  8
0
 10
132.62203570470601
 20
118.1137139577454
 30
0.0
  0
VERTEX
  5
2907
  8
0
 10
132.34995646459069
 20
117.9971103979058
 30
0.0
  0
VERTEX
  5
2908
  8
0
 10
132.07939346674141
 20
117.8755771690153
 30
0.0
  0
VERTEX
  5
2909
  8
0
 10
131.81040527626831
 20
117.74915344270239
 30
0.0
  0
VERTEX
  5
290A
  8
0
 10
131.54305045828181
 20
117.61787839059581
 30
0.0
  0
VERTEX
  5
290B
  8
0
 10
131.2773875778924
 20
117.48179118432409
 30
0.0
  0
VERTEX
  5
290C
  8
0
 10
131.01347520021031
 20
117.340930995516
 30
0.0
  0
VERTEX
  5
290D
  8
0
 10
130.75137189034601
 20
117.19533699580001
 30
0.0
  0
VERTEX
  5
290E
  8
0
 10
130.4911362134099
 20
117.0450483568048
 30
0.0
  0
VERTEX
  5
290F
  8
0
 10
130.2328267345122
 20
116.8901042501591
 30
0.0
  0
VERTEX
  5
2910
  8
0
 10
129.97650201876351
 20
116.7305438474914
 30
0.0
  0
VERTEX
  5
2911
  8
0
 10
129.72222063127401
 20
116.5664063204304
 30
0.0
  0
VERTEX
  5
2912
  8
0
 10
129.47004113715411
 20
116.39773084060469
 30
0.0
  0
VERTEX
  5
2913
  8
0
 10
129.22002210151419
 20
116.22455657964299
 30
0.0
  0
VERTEX
  5
2914
  8
0
 10
128.97222208946471
 20
116.0469227091738
 30
0.0
  0
VERTEX
  5
2915
  8
0
 10
128.72669966611599
 20
115.8648684008258
 30
0.0
  0
VERTEX
  5
2916
  8
0
 10
128.4835133965783
 20
115.67843282622771
 30
0.0
  0
VERTEX
  5
2917
  8
0
 10
128.24272184596219
 20
115.48765515700801
 30
0.0
  0
VERTEX
  5
2918
  8
0
 10
128.0043835793779
 20
115.2925745647955
 30
0.0
  0
VERTEX
  5
2919
  8
0
 10
127.7685571619359
 20
115.0932302212187
 30
0.0
  0
VERTEX
  5
291A
  8
0
 10
127.53530115874651
 20
114.8896612979062
 30
0.0
  0
VERTEX
  5
291B
  8
0
 10
127.30467413492011
 20
114.68190696648681
 30
0.0
  0
VERTEX
  5
291C
  8
0
 10
127.07673465556699
 20
114.47000639858889
 30
0.0
  0
SEQEND
  5
291D
  8
0
  0
LINE
  5
25C9
  8
1
 10
94.996807051900007
 20
112.5
 30
0.0
 11
124.99680705190001
 21
112.5
 31
0.0
  0
LINE
  5
25CA
  8
1
 10
109.99680705190001
 20
80.000000000000057
 30
0.0
 11
109.99680705190001
 21
129.9999991059999
 31
0.0
  0
LINE
  5
25D1
  8
1
 10
30.999999567900009
 20
112.5
 30
0.0
 11
69.000000432099995
 21
112.5
 31
0.0
  0
LINE
  5
25D4
  8
1
 10
50.0
 20
129.9999991059999
 30
0.0
 11
50.0
 21
80.0
 31
0.0
  0
LINE
  5
26C4
  8
2
 10
46.0
 20
99.499999582799944
 30
0.0
 11
40.0
 21
99.499999582799944
 31
0.0
  0
LINE
  5
26C5
  8
2
 10
112.4968067464
 20
99.499999582799944
 30
0.0
 11
112.4968067464
 21
85.750000006599976
 31
0.0
  0
LINE
  5
26C6
  8
2
 10
107.4968068582
 20
85.750000006599976
 30
0.0
 11
112.4968067464
 21
85.750000006599976
 31
0.0
  0
LINE
  5
26C7
  8
2
 10
107.4968068582
 20
85.750000006599976
 30
0.0
 11
107.4968068582
 21
99.499999582799944
 31
0.0
  0
LINE
  5
26C8
  8
2
 10
112.4968067464
 20
85.750000006599976
 30
0.0
 11
113.246807335
 21
85.0
 31
0.0
  0
LINE
  5
26C9
  8
2
 10
106.7468069681
 20
85.0
 30
0.0
 11
107.4968068582
 21
85.750000006599976
 31
0.0
  0
LINE
  5
26CA
  8
2
 10
112.99680705190001
 20
99.499999582799944
 30
0.0
 11
106.99680705190001
 21
99.499999582799944
 31
0.0
  0
LINE
  5
26CB
  8
2
 10
106.99680705190001
 20
85.25
 30
0.0
 11
106.99680705190001
 21
99.499999582799944
 31
0.0
  0
LINE
  5
26CC
  8
2
 10
112.99680705190001
 20
85.25
 30
0.0
 11
112.99680705190001
 21
99.499999582799944
 31
0.0
  0
LINE
  5
2811
  8
1
 10
43.0
 20
104.4999995827999
 30
0.0
 11
43.00000000000005
 21
79.999999999999957
 31
0.0
  0
LINE
  5
2812
  8
1
 10
57.0
 20
104.4999995827999
 30
0.0
 11
57.00000000000005
 21
79.999999999999986
 31
0.0
  0
VIEWPORT
  5
1261
 67
     1
  8
0
 10
5.2499996395561626
 20
3.999999883606677
 30
0.0
 40
12.04062743738797
 41
8.9929997457669462
 68
     2
 69
     1
1001
ACAD
1000
MVIEW
1002
{
1070
    16
1010
0.0
1020
0.0
1030
0.0
1010
0.0
1020
0.0
1030
1.0
1040
0.0
1040
8.9929997457669462
1040
5.2499996395561626
1040
3.999999883606677
1040
50.0
1040
0.0
1040
0.0
1070
     0
1070
   500
1070
     1
1070
     1
1070
     0
1070
     0
1070
     0
1070
     0
1040
0.0
1040
0.0
1040
0.0
1040
10.0
1040
10.0
1040
10.0
1040
10.0
1070
     0
1002
{
1002
}
1002
}
  0
VIEWPORT
  5
1263
 67
     1
  8
0
 10
5.24999976158142
 20
3.99999976158142
 30
0.0
 40
8.3999996185302717
 41
6.3999996185302717
 68
     1
 69
     2
1001
ACAD
1000
MVIEW
1002
{
1070
    16
1010
0.0
1020
0.0
1030
0.0
1010
0.0
1020
0.0
1030
1.0
1040
0.0
1040
666.47247834573625
1040
-533.63893377160775
1040
-441.53162407700779
1040
50.0
1040
0.0
1040
0.0
1070
     0
1070
   500
1070
     1
1070
     0
1070
     0
1070
     0
1070
     0
1070
     2
1040
0.0
1040
0.0
1040
0.0
1040
10.0
1040
10.0
1040
10.0
1040
10.0
1070
     0
1002
{
1002
}
1002
}
  0
ENDSEC
  0
EOF
