  0
SECTION
  2
HEADER
  9
$ACADVER
  1
AC1009
  9
$INSBASE
 10
0.0
 20
0.0
 30
0.0
  9
$EXTMIN
 10
0.0
 20
-2.960436562073669
 30
-8.0000000000000018
  9
$EXTMAX
 10
333.18028203388729
 20
149.58281664131081
 30
30.0
  9
$LIMMIN
 10
0.0
 20
0.0
  9
$LIMMAX
 10
375.0
 20
270.0
  9
$ORTHOMODE
 70
     1
  9
$REGENMODE
 70
     1
  9
$FILLMODE
 70
     1
  9
$QTEXTMODE
 70
     0
  9
$MIRRTEXT
 70
     0
  9
$DRAGMODE
 70
     2
  9
$LTSCALE
 40
10.0
  9
$OSMODE
 70
  3071
  9
$ATTMODE
 70
     1
  9
$TEXTSIZE
 40
4.000000000000048
  9
$TRACEWID
 40
0.05
  9
$TEXTSTYLE
  7
STANDARD
  9
$CLAYER
  8
0
  9
$CELTYPE
  6
BYLAYER
  9
$CECOLOR
 62
   256
  9
$DIMSCALE
 40
1.0
  9
$DIMASZ
 40
3.0
  9
$DIMEXO
 40
2.0
  9
$DIMDLI
 40
0.38
  9
$DIMRND
 40
0.0
  9
$DIMDLE
 40
0.0
  9
$DIMEXE
 40
2.0
  9
$DIMTP
 40
0.0
  9
$DIMTM
 40
0.0
  9
$DIMTXT
 40
3.2000000000000002
  9
$DIMCEN
 40
0.0
  9
$DIMTSZ
 40
0.0
  9
$DIMTOL
 70
     0
  9
$DIMLIM
 70
     0
  9
$DIMTIH
 70
     0
  9
$DIMTOH
 70
     0
  9
$DIMSE1
 70
     0
  9
$DIMSE2
 70
     0
  9
$DIMTAD
 70
     1
  9
$DIMZIN
 70
     0
  9
$DIMBLK
  1

  9
$DIMASO
 70
     0
  9
$DIMSHO
 70
     0
  9
$DIMPOST
  1

  9
$DIMAPOST
  1

  9
$DIMALT
 70
     0
  9
$DIMALTD
 70
     2
  9
$DIMALTF
 40
25.399999999999999
  9
$DIMLFAC
 40
1.0
  9
$DIMTOFL
 70
     0
  9
$DIMTVP
 40
1.6000000000000001
  9
$DIMTIX
 70
     1
  9
$DIMSOXD
 70
     0
  9
$DIMSAH
 70
     0
  9
$DIMBLK1
  1

  9
$DIMBLK2
  1

  9
$DIMSTYLE
  2
STANDARD
  9
$DIMCLRD
 70
     4
  9
$DIMCLRE
 70
     4
  9
$DIMCLRT
 70
     4
  9
$DIMTFAC
 40
1.0
  9
$DIMGAP
 40
0.09
  9
$LUNITS
 70
     2
  9
$LUPREC
 70
     1
  9
$SKETCHINC
 40
0.1
  9
$FILLETRAD
 40
22.0
  9
$AUNITS
 70
     0
  9
$AUPREC
 70
     0
  9
$MENU
  1
E:\r13\win\SUPPORT\ACAD
  9
$ELEVATION
 40
0.0
  9
$PELEVATION
 40
0.0
  9
$THICKNESS
 40
0.0
  9
$LIMCHECK
 70
     0
  9
$BLIPMODE
 70
     0
  9
$CHAMFERA
 40
1.1999999999999991
  9
$CHAMFERB
 40
1.1999999999999991
  9
$SKPOLY
 70
     0
  9
$TDCREATE
 40
2449954.6020138888
  9
$TDUPDATE
 40
2456598.591541111
  9
$TDINDWG
 40
0.3493346875
  9
$TDUSRTIMER
 40
0.3493346875
  9
$USRTIMER
 70
     1
  9
$ANGBASE
 50
0.0
  9
$ANGDIR
 70
     0
  9
$PDMODE
 70
     0
  9
$PDSIZE
 40
0.0
  9
$PLINEWID
 40
0.0
  9
$COORDS
 70
     1
  9
$SPLFRAME
 70
     0
  9
$SPLINETYPE
 70
     6
  9
$SPLINESEGS
 70
     8
  9
$ATTDIA
 70
     0
  9
$ATTREQ
 70
     1
  9
$HANDLING
 70
     1
  9
$HANDSEED
  5
24DE
  9
$SURFTAB1
 70
     6
  9
$SURFTAB2
 70
     6
  9
$SURFTYPE
 70
     6
  9
$SURFU
 70
     6
  9
$SURFV
 70
     6
  9
$UCSNAME
  2

  9
$UCSORG
 10
0.0
 20
0.0
 30
0.0
  9
$UCSXDIR
 10
1.0
 20
0.0
 30
0.0
  9
$UCSYDIR
 10
0.0
 20
1.0
 30
0.0
  9
$PUCSNAME
  2

  9
$PUCSORG
 10
0.0
 20
0.0
 30
0.0
  9
$PUCSXDIR
 10
1.0
 20
0.0
 30
0.0
  9
$PUCSYDIR
 10
0.0
 20
1.0
 30
0.0
  9
$USERI1
 70
     0
  9
$USERI2
 70
     1
  9
$USERI3
 70
     0
  9
$USERI4
 70
     0
  9
$USERI5
 70
     0
  9
$USERR1
 40
0.0
  9
$USERR2
 40
0.0
  9
$USERR3
 40
0.0
  9
$USERR4
 40
0.0
  9
$USERR5
 40
0.0
  9
$WORLDVIEW
 70
     1
  9
$SHADEDGE
 70
     3
  9
$SHADEDIF
 70
    70
  9
$TILEMODE
 70
     1
  9
$MAXACTVP
 70
    16
  9
$PLIMCHECK
 70
     0
  9
$PEXTMIN
 10
1.049999952316284
 20
0.7999999523162842
 30
0.0
  9
$PEXTMAX
 10
9.4499995708465558
 20
7.1999995708465558
 30
0.0
  9
$PLIMMIN
 10
-0.2500002402958907
 20
-0.2499999962453767
  9
$PLIMMAX
 10
10.74999951940821
 20
8.2499997634587316
  9
$UNITMODE
 70
     0
  9
$VISRETAIN
 70
     0
  9
$PLINEGEN
 70
     0
  9
$PSLTSCALE
 70
     0
  0
ENDSEC
  0
SECTION
  2
TABLES
  0
TABLE
  2
VPORT
 70
     1
  0
VPORT
  2
*ACTIVE
 70
     0
 10
0.0
 20
0.0
 11
1.0
 21
1.0
 12
195.0581083320873
 22
133.5127261426681
 13
0.0
 23
0.0
 14
10.0
 24
10.0
 15
10.0
 25
10.0
 16
0.0
 26
0.0
 36
1.0
 17
0.0
 27
0.0
 37
0.0
 40
275.42274993631997
 41
1.831871345029239
 42
50.0
 43
0.0
 44
0.0
 50
0.0
 51
0.0
 71
     0
 72
   500
 73
     1
 74
     0
 75
     0
 76
     0
 77
     0
 78
     2
  0
ENDTAB
  0
TABLE
  2
LTYPE
 70
     4
  0
LTYPE
  2
CONTINUOUS
 70
     0
  3
Solid Line
 72
    65
 73
     0
 40
0.0
  0
LTYPE
  2
CENTER
 70
     0
  3
____ _ ____ _ ____ _ ____ _ ____ _ ____ _ ____
 72
    65
 73
     4
 40
2.0
 49
1.25
 49
-0.25
 49
0.25
 49
-0.25
  0
LTYPE
  2
PHANTOM
 70
     0
  3
_____ _ _ _____ _ _ _____ _ _ _____ _ _ ____
 72
    65
 73
     6
 40
2.5
 49
1.25
 49
-0.25
 49
0.25
 49
-0.25
 49
0.25
 49
-0.25
  0
LTYPE
  2
PHANTOM2
 70
     0
  3
___ _ _ ___ _ _ ___ _ _ ___ _ _
 72
    65
 73
     6
 40
1.25
 49
0.625
 49
-0.125
 49
0.125
 49
-0.125
 49
0.125
 49
-0.125
  0
ENDTAB
  0
TABLE
  2
LAYER
 70
     4
  0
LAYER
  2
0
 70
     0
 62
     7
  6
CONTINUOUS
  0
LAYER
  2
1
 70
     0
 62
     1
  6
CENTER
  0
LAYER
  2
5
 70
     0
 62
     3
  6
PHANTOM
  0
LAYER
  2
3
 70
     0
 62
     3
  6
CONTINUOUS
  0
ENDTAB
  0
TABLE
  2
STYLE
 70
     2
  0
STYLE
  2
STANDARD
 70
     0
 40
0.0
 41
1.0
 50
0.0
 71
     0
 42
4.000000000000048
  3
SIMPLEX
  4
BIGFONT
  0
STYLE
  2
STANDARD1
 70
     0
 40
0.0
 41
1.0
 50
0.0
 71
     0
 42
3.0
  3
txt
  4

  0
ENDTAB
  0
TABLE
  2
VIEW
 70
     1
  0
VIEW
  2
ALL
 70
     0
 40
270.0
 10
220.78595317725751
 20
135.0
 41
441.57190635451502
 11
0.0
 21
0.0
 31
1.0
 12
0.0
 22
0.0
 32
0.0
 42
50.0
 43
0.0
 44
0.0
 50
0.0
 71
     0
  0
ENDTAB
  0
TABLE
  2
UCS
 70
     0
  0
ENDTAB
  0
TABLE
  2
APPID
 70
     3
  0
APPID
  2
ACAD
 70
     0
  0
APPID
  2
ACAD_MLEADERVER
 70
     0
  0
APPID
  2
ACAD_NAV_VCDISPLAY
 70
     0
  0
ENDTAB
  0
TABLE
  2
DIMSTYLE
 70
     1
  0
DIMSTYLE
  2
STANDARD
 70
     0
  3

  4

  5

  6

  7

 40
1.0
 41
0.18
 42
0.0625
 43
0.38
 44
0.18
 45
0.0
 46
0.0
 47
0.0
 48
0.0
140
0.18
141
0.09
142
0.0
143
25.399999999999999
144
1.0
145
0.0
146
1.0
147
0.09
 71
     0
 72
     0
 73
     1
 74
     1
 75
     0
 76
     0
 77
     0
 78
     0
170
     0
171
     2
172
     0
173
     0
174
     0
175
     0
176
     0
177
     0
178
     0
  0
ENDTAB
  0
ENDSEC
  0
SECTION
  2
BLOCKS
  0
BLOCK
  8
0
  2
$MODEL_SPACE
 70
     0
 10
0.0
 20
0.0
 30
0.0
  3
$MODEL_SPACE
  1

  0
ENDBLK
  5
1126
  8
0
  0
BLOCK
 67
     1
  8
0
  2
$PAPER_SPACE
 70
     0
 10
0.0
 20
0.0
 30
0.0
  3
$PAPER_SPACE
  1

  0
ENDBLK
  5
1124
 67
     1
  8
0
  0
ENDSEC
  0
SECTION
  2
ENTITIES
  0
LINE
  5
2099
  8
0
 10
206.18028203388729
 20
77.72181720717856
 30
15.0
 11
198.18028203388729
 21
77.72181720717856
 31
15.0
  0
LINE
  5
209F
  8
0
 10
206.18028203388729
 20
77.72181720717856
 30
15.0
 11
205.63903203388739
 21
77.180567207178569
 31
15.0
  0
LINE
  5
20A0
  8
0
 10
205.63903203388739
 20
77.180567207178569
 30
15.0
 11
198.72153203388731
 21
77.180567207178569
 31
15.0
  0
LINE
  5
20A1
  8
0
 10
198.72153203388731
 20
77.180567207178569
 30
15.0
 11
198.18028203388729
 21
77.72181720717856
 31
15.0
  0
LINE
  5
20A2
  8
0
 10
198.18028203388729
 20
77.72181720717856
 30
15.0
 11
206.18028203388729
 21
77.72181720717856
 31
15.0
  0
LINE
  5
20A4
  8
1
 10
182.17610631872239
 20
125.37240584587251
 30
8.2500012915999115
 11
182.17610631872239
 21
71.828680266583774
 31
8.2500012915999115
  0
LINE
  5
20A7
  8
1
 10
202.18028203388729
 20
137.08536507526929
 30
8.25
 11
202.18028203388729
 21
71.601017762541034
 31
8.25
  0
LINE
  5
20A9
  8
0
 10
186.18028203388729
 20
79.72181720717856
 30
15.0
 11
178.18028203388729
 21
79.72181720717856
 31
15.0
  0
LINE
  5
210B
  8
0
 10
178.181647388958
 20
92.112343611397137
 30
8.2500012915999115
 11
178.1820487612755
 21
90.980567207178538
 31
8.2500012915999115
  0
LINE
  5
2115
  8
0
 10
186.16606561441219
 20
79.721817207178532
 30
15.0
 11
186.16606561441219
 21
83.98056720717878
 31
9.8725795123906082
  0
LINE
  5
2116
  8
5
 10
185.6396726958487
 20
79.180530126268764
 30
8.2500012915999115
 11
185.63954317892421
 21
83.980567207178794
 31
5.2038321252529034
  0
LINE
  5
2117
  8
5
 10
178.72153203388731
 20
79.180567207178555
 30
15.0
 11
178.72153203388731
 21
83.980567207178794
 31
9.4615384615382023
  0
LINE
  5
2144
  8
0
 10
198.18308822024619
 20
92.180567207178569
 30
0.0
 11
198.18308822024619
 21
90.980567207178538
 31
0.6847187362853268
  0
LINE
  5
2145
  8
3
 10
198.85958822024611
 20
92.180567207178569
 30
0.0
 11
198.859588220246
 21
90.980567207178538
 31
0.6600000000000166
  0
LINE
  5
2146
  8
3
 10
205.5065882202463
 20
92.180567207178569
 30
0.0
 11
205.5065882202463
 21
90.980567207178538
 31
0.66000000000001
  0
LINE
  5
2147
  8
0
 10
206.18308822024619
 20
92.180567207178569
 30
0.0
 11
206.18308822024619
 21
90.980567207178538
 31
0.684718736285324
  0
CIRCLE
  5
214E
  8
0
 10
182.18028203388729
 20
15.0
 30
-79.180567207178598
 40
3.4587500000000002
210
-0.0000000000000002
220
-1.0
230
0.0
  0
LINE
  5
2151
  8
0
 10
178.72153203388731
 20
79.180567207178555
 30
15.0
 11
178.1860452192532
 21
79.711486998399408
 31
8.2500012915999115
  0
LINE
  5
2152
  8
0
 10
186.16606561441219
 20
79.721817207178532
 30
15.0
 11
185.6390320338873
 21
79.180567207178555
 31
15.0
  0
LINE
  5
2181
  8
0
 10
55.38390167425063
 20
139.18056720717851
 30
0.0
 11
85.383901674250623
 21
139.18056720717851
 31
0.0
  0
LINE
  5
2182
  8
0
 10
85.383901674250623
 20
139.18056720717851
 30
0.0
 11
85.383901674250623
 21
92.180567207178569
 31
0.0
  0
LINE
  5
2183
  8
0
 10
85.383901674250623
 20
92.180567207178569
 30
0.0
 11
55.38390167425063
 21
92.180567207178569
 31
0.0
  0
LINE
  5
2184
  8
0
 10
55.38390167425063
 20
92.180567207178569
 30
0.0
 11
55.383901674250673
 21
139.18056720717851
 31
0.0
  0
LINE
  5
2186
  8
1
 10
70.383901674250623
 20
149.58281664131081
 30
0.0
 11
70.383901674250623
 21
70.060834260036813
 31
0.0
  0
LINE
  5
2193
  8
0
 10
74.386707860609505
 20
77.722075748760517
 30
0.2499999999999982
 11
66.386707860609476
 21
77.722075748760602
 31
0.2499999999999982
  0
LINE
  5
2194
  8
0
 10
74.386707860609505
 20
92.180567207178569
 30
-8.0000000000000018
 11
74.386707860609491
 21
90.980567207178538
 31
-7.3152812637146774
  0
LINE
  5
2195
  8
3
 10
73.710207860609614
 20
92.180567207178569
 30
-8.0000000000000018
 11
73.710207860609614
 21
90.980567207178538
 31
-7.3399999999999919
  0
LINE
  5
2196
  8
3
 10
67.063207860609396
 20
92.180567207178569
 30
-8.0000000000000018
 11
67.063207860609396
 21
90.980567207178538
 31
-7.3399999999999928
  0
LINE
  5
2197
  8
0
 10
66.386707860609505
 20
92.180567207178569
 30
-8.0000000000000018
 11
66.386707860609491
 21
90.980567207178538
 31
-7.3152812637146658
  0
LINE
  5
2198
  8
0
 10
66.383901674250637
 20
77.72181720717856
 30
6.9999999999999982
 11
74.383901674250637
 21
77.72181720717856
 31
6.9999999999999982
  0
LINE
  5
2199
  8
0
 10
66.925151674250628
 20
77.180567207178569
 30
6.9999999999999982
 11
66.383901674250637
 21
77.72181720717856
 31
6.9999999999999982
  0
LINE
  5
219A
  8
0
 10
73.842651674250632
 20
77.180567207178569
 30
6.9999999999999982
 11
66.925151674250628
 21
77.180567207178569
 31
6.9999999999999982
  0
LINE
  5
219B
  8
0
 10
74.383901674250637
 20
77.72181720717856
 30
6.9999999999999982
 11
73.842651674250632
 21
77.180567207178569
 31
6.9999999999999982
  0
LINE
  5
219F
  8
0
 10
85.383901674250623
 20
108.4720689135593
 30
0.0
 11
55.383901674250652
 21
108.4720689135593
 31
0.0
  0
LINE
  5
2245
  8
0
 10
212.18028203388729
 20
108.6805672071785
 30
30.0
 11
212.18028203388729
 21
92.180567207178569
 31
30.0
210
1.0
220
0.0
230
0.0
  0
LINE
  5
2246
  8
0
 10
212.18028203388729
 20
92.180567207178569
 30
0.0
 11
212.18028203388729
 21
92.180567207178569
 31
30.0
210
1.0
220
0.0
230
0.0
  0
LINE
  5
2247
  8
0
 10
212.18028203388729
 20
108.6805672071785
 30
0.0
 11
212.18028203388729
 21
108.6805672071785
 31
30.0
210
1.0
220
0.0
230
0.0
  0
LINE
  5
2248
  8
0
 10
212.18028203388729
 20
92.180567207178569
 30
0.0
 11
212.18028203388729
 21
108.6805672071785
 31
0.0
210
1.0
220
0.0
230
0.0
  0
ARC
  5
2249
  8
0
 10
-245.01361536722069
 20
124.48053204539541
 30
-30.0
 40
2.0
210
0.0
220
0.0
230
-1.0
 50
228.79690076066331
 51
311.2030992393361
  0
LINE
  5
224A
  8
0
 10
243.69615504976039
 20
122.9757734893747
 30
0.0
 11
243.69615504976039
 21
122.9757734893747
 31
30.0
  0
LINE
  5
224B
  8
0
 10
246.331075684681
 20
122.9757734893748
 30
0.0
 11
246.331075684681
 21
122.9757734893748
 31
30.0
  0
ARC
  5
224D
  8
0
 10
-272.68028203388729
 20
124.48053204539541
 30
-30.0
 40
2.0
210
0.0
220
0.0
230
-1.0
 50
228.79690076066251
 51
311.20309923933689
  0
LINE
  5
224E
  8
0
 10
271.36282171642699
 20
122.9757734893748
 30
0.0
 11
271.36282171642699
 21
122.9757734893748
 31
30.0
  0
LINE
  5
224F
  8
0
 10
273.99774235134771
 20
122.9757734893748
 30
0.0
 11
273.99774235134771
 21
122.9757734893748
 31
30.0
  0
ARC
  5
2251
  8
0
 10
286.51361536722072
 20
108.6805672071786
 30
30.0
 40
19.000000000000028
 50
48.796900760662957
 51
131.20309923933709
  0
LINE
  5
2252
  8
0
 10
273.99774235134771
 20
122.9757734893748
 30
0.0
 11
273.99774235134771
 21
122.9757734893748
 31
30.0
  0
LINE
  5
2253
  8
0
 10
299.02948838309368
 20
122.9757734893748
 30
0.0
 11
299.02948838309368
 21
122.9757734893748
 31
30.0
  0
ARC
  5
2255
  8
0
 10
-300.34694870055398
 20
124.48053204539551
 30
-30.0
 40
2.0
210
0.0
220
0.0
230
-1.0
 50
228.79690076066331
 51
311.20309923933661
  0
LINE
  5
2256
  8
0
 10
299.02948838309368
 20
122.9757734893748
 30
0.0
 11
299.02948838309368
 21
122.9757734893748
 31
30.0
  0
LINE
  5
2257
  8
0
 10
301.6644090180144
 20
122.9757734893748
 30
0.0
 11
301.6644090180144
 21
122.9757734893748
 31
30.0
  0
LINE
  5
225A
  8
0
 10
326.69615504976048
 20
122.9757734893747
 30
2.6517245423693292
 11
326.69615504976048
 21
122.9757734893747
 31
27.34827545763067
  0
LINE
  5
225D
  8
0
 10
301.6644090180144
 20
122.9757734893748
 30
0.0
 11
301.6644090180144
 21
122.9757734893748
 31
30.0
  0
LINE
  5
2261
  8
0
 10
169.59052424118769
 20
109.5617843412895
 30
30.0
 11
216.26096353421619
 21
138.72471149564791
 31
30.0
210
-0.5299192642332052
220
0.8480480961564257
230
0.0
  0
LINE
  5
2262
  8
0
 10
216.26096353421619
 20
138.72471149564791
 30
0.0
 11
216.26096353421619
 21
138.72471149564791
 31
30.0
210
-0.5299192642332052
220
0.8480480961564257
230
0.0
  0
LINE
  5
2263
  8
0
 10
169.59052424118769
 20
109.5617843412895
 30
0.0
 11
169.59052424118769
 21
109.5617843412895
 31
30.0
210
-0.5299192642332052
220
0.8480480961564257
230
0.0
  0
ARC
  5
2265
  8
0
 10
-171.18028203388729
 20
107.0176400528202
 30
-30.0
 40
3.0
210
0.0
220
0.0
230
-1.0
 50
0.0
 51
57.999999999999822
  0
LINE
  5
2266
  8
0
 10
169.59052424118769
 20
109.5617843412895
 30
0.0
 11
169.59052424118769
 21
109.5617843412895
 31
30.0
  0
LINE
  5
2267
  8
0
 10
168.18028203388729
 20
107.0176400528202
 30
0.0
 11
168.18028203388729
 21
107.0176400528202
 31
30.0
  0
LINE
  5
2269
  8
0
 10
168.18028203388729
 20
92.180567207178569
 30
30.0
 11
168.18028203388729
 21
107.0176400528202
 31
30.0
210
-1.0
220
-0.0000000000000019
230
0.0
  0
LINE
  5
226A
  8
0
 10
168.18028203388729
 20
107.0176400528202
 30
0.0
 11
168.18028203388729
 21
107.0176400528202
 31
30.0
210
-1.0
220
-0.0000000000000019
230
0.0
  0
LINE
  5
226B
  8
0
 10
168.18028203388729
 20
92.180567207178569
 30
0.0
 11
168.18028203388729
 21
92.180567207178569
 31
30.0
210
-1.0
220
-0.0000000000000019
230
0.0
  0
LINE
  5
226D
  8
0
 10
318.18028203388729
 20
139.18056720717851
 30
30.0
 11
318.18028203388729
 21
127.2547428281853
 31
30.0
  0
LINE
  5
226E
  8
0
 10
217.85072132691579
 20
139.1805672071786
 30
30.0
 11
318.18028203388729
 21
139.18056720717851
 31
30.0
  0
ARC
  5
2270
  8
0
 10
217.85072132691579
 20
136.1805672071786
 30
30.0
 40
3.0
 50
90.0
 51
122.0000000000001
  0
ARC
  5
2277
  8
0
 10
258.84694870055398
 20
108.6805672071786
 30
30.0
 40
19.000000000000028
 50
48.796900760662929
 51
131.20309923933709
  0
LINE
  5
2278
  8
0
 10
212.18028203388729
 20
92.180567207178569
 30
30.0
 11
168.18028203388729
 21
92.180567207178569
 31
30.0
  0
LINE
  5
227A
  8
0
 10
212.18028203388729
 20
108.6805672071785
 30
30.0
 11
212.18028203388729
 21
92.180567207178569
 31
30.0
  0
ARC
  5
227B
  8
0
 10
231.18028203388729
 20
108.6805672071786
 30
30.0
 40
19.000000000000028
 50
48.79690076066273
 51
180.00000000000011
  0
LINE
  5
227D
  8
0
 10
328.01361536722078
 20
122.48053204539529
 30
3.6727957749692841
 11
328.01361536722078
 21
122.48053204539529
 31
26.327204225030719
210
-0.0000000000000007
220
-1.0
230
0.0
  0
LINE
  5
227F
  8
0
 10
328.01361536722078
 20
122.48053204539529
 30
3.6727957749692841
 11
328.01361536722078
 21
122.48053204539529
 31
26.327204225030719
  0
LINE
  5
2280
  8
0
 10
326.69615504976048
 20
122.9757734893747
 30
2.6517245423693292
 11
326.69615504976048
 21
122.9757734893747
 31
27.34827545763067
  0
ARC
  5
2286
  8
0
 10
-318.18028203388729
 20
15.0
 30
139.1805672071786
 40
15.0
210
0.0
220
1.0
230
0.0
 50
90.0
 51
270.0
  0
LINE
  5
22C0
  8
0
 10
333.18028203388729
 20
139.1805672071786
 30
15.0
 11
333.18028203388729
 21
122.48053204539529
 31
15.0
  0
ARC
  5
22C2
  8
0
 10
314.18028203388741
 20
108.6805672071788
 30
0.0
 40
18.999999999999861
 50
48.796900760662247
 51
131.2030992393374
  0
LINE
  5
22C3
  8
0
 10
326.69615504975968
 20
122.9757734893753
 30
2.6517245423688292
 11
326.84422346993392
 21
122.85217218832361
 31
0.0
  0
LINE
  5
22C4
  8
0
 10
326.84422346993392
 20
122.85217218832361
 30
0.0
 11
327.00956111262622
 21
122.745226996714
 31
0.0
  0
LINE
  5
22C5
  8
0
 10
327.00956111262622
 20
122.745226996714
 30
0.0
 11
327.16031027169578
 21
122.6771705762274
 31
0.0
  0
LINE
  5
22C6
  8
0
 10
327.16031027169578
 20
122.6771705762274
 30
0.0
 11
327.2659359520926
 21
122.6256394736711
 31
0.0
  0
LINE
  5
22C7
  8
0
 10
327.2659359520926
 20
122.6256394736711
 30
0.0
 11
327.33850074160358
 21
122.5976129971426
 31
0.0
  0
LINE
  5
22C8
  8
0
 10
327.33850074160358
 20
122.5976129971426
 30
0.0
 11
327.41645817520822
 21
122.5714924024156
 31
0.0
  0
LINE
  5
22C9
  8
0
 10
327.41645817520822
 20
122.5714924024156
 30
0.0
 11
327.50122189347388
 21
122.54801883599571
 31
0.0
  0
LINE
  5
22CA
  8
0
 10
327.50122189347388
 20
122.54801883599571
 30
0.0
 11
327.60415842766452
 21
122.522229186746
 31
0.0
  0
LINE
  5
22CB
  8
0
 10
327.60415842766452
 20
122.522229186746
 30
0.0
 11
327.7085382027642
 21
122.50377817312651
 31
0.0
  0
LINE
  5
22CC
  8
0
 10
327.7085382027642
 20
122.50377817312651
 30
0.0
 11
327.770275546025
 21
122.49487102729771
 31
0.0
  0
LINE
  5
22CD
  8
0
 10
327.770275546025
 20
122.49487102729771
 30
0.0
 11
327.82381359459851
 21
122.48959946212371
 31
0.0
  0
LINE
  5
22CE
  8
0
 10
327.82381359459851
 20
122.48959946212371
 30
0.0
 11
327.90684524437711
 21
122.48371152438609
 31
0.0
  0
LINE
  5
22CF
  8
0
 10
327.90684524437711
 20
122.48371152438609
 30
0.0
 11
327.96328861135021
 21
122.4812792357818
 31
0.0
  0
LINE
  5
22D0
  8
0
 10
327.96328861135021
 20
122.4812792357818
 30
0.0
 11
328.01361536722072
 21
122.48053204539529
 31
3.6727957749692521
  0
LINE
  5
22D1
  8
0
 10
328.01361536722078
 20
122.48053204539529
 30
3.6727957749692841
 11
333.18028203388729
 21
122.48053204539529
 31
15.000000000000041
  0
LINE
  5
22F0
  8
0
 10
76.883901674250396
 20
88.836229639880486
 30
0.0
 11
76.633901674249273
 21
88.980567207178552
 31
0.0
  0
ARC
  5
22F1
  8
0
 10
73.63390167425041
 20
79.449077504631788
 30
0.0
 40
9.3871521352487513
 50
69.743841999583736
 51
110.25615800041621
  0
ARC
  5
22F2
  8
0
 10
73.63390167425041
 20
93.512056909725544
 30
0.0
 40
9.3871521352487513
 50
249.74384199958371
 51
290.25615800041618
  0
LINE
  5
22F3
  8
0
 10
76.883901674250396
 20
84.124904774476846
 30
0.0
 11
76.633901674249273
 21
83.98056720717878
 31
0.0
  0
LINE
  5
22F4
  8
0
 10
76.883901674250396
 20
88.836229639880486
 30
0.0
 11
76.883901674250396
 21
84.124904774476846
 31
0.0
  0
LINE
  5
22F5
  8
0
 10
70.383901674250623
 20
88.255673056279335
 30
0.0
 11
70.383901674250623
 21
84.705461358077599
 31
0.0
  0
LINE
  5
22F6
  8
0
 10
63.883901674250858
 20
88.836229639880486
 30
0.0
 11
63.883901674250858
 21
84.124904774476846
 31
0.0
  0
LINE
  5
22F7
  8
0
 10
63.883901674250858
 20
84.124904774476846
 30
0.0
 11
64.133901674252002
 21
83.98056720717878
 31
0.0
  0
ARC
  5
22F8
  8
0
 10
67.133901674250865
 20
93.512056909725544
 30
0.0
 40
9.3871521352487513
 50
249.74384199958371
 51
290.25615800041618
  0
ARC
  5
22F9
  8
0
 10
67.133901674250865
 20
79.449077504631788
 30
0.0
 40
9.3871521352487513
 50
69.743841999583736
 51
110.25615800041621
  0
LINE
  5
22FA
  8
0
 10
63.883901674250858
 20
88.836229639880486
 30
0.0
 11
64.133901674252002
 21
88.980567207178552
 31
0.0
  0
LINE
  5
22FC
  8
0
 10
76.633901674249273
 20
83.98056720717878
 30
0.0
 11
64.133901674252002
 21
83.98056720717878
 31
0.0
  0
LINE
  5
22FD
  8
0
 10
70.651850866681755
 20
88.980567207178552
 30
-0.0000000000000018
 11
70.115952481819519
 21
90.980567207178538
 31
-0.0000000000000018
  0
LINE
  5
22FE
  8
0
 10
78.08390167425064
 20
88.980567207178552
 30
-0.0000000000000018
 11
62.68390167425062
 21
88.980567207178552
 31
-0.0000000000000018
  0
LINE
  5
22FF
  8
0
 10
78.08390167425064
 20
90.980567207178538
 30
-0.0000000000000018
 11
78.08390167425064
 21
88.980567207178552
 31
-0.0000000000000018
  0
LINE
  5
2300
  8
0
 10
62.68390167425062
 20
90.980567207178538
 30
-0.0000000000000018
 11
78.08390167425064
 21
90.980567207178538
 31
-0.0000000000000018
  0
LINE
  5
2301
  8
0
 10
62.68390167425062
 20
88.980567207178552
 30
-0.0000000000000018
 11
62.68390167425062
 21
90.980567207178538
 31
-0.0000000000000018
  0
LINE
  5
2302
  8
0
 10
174.4761063187224
 20
90.980567207178538
 30
8.2500012915999061
 11
189.87610631872241
 21
90.980567207178538
 31
8.2500012915999061
  0
LINE
  5
2303
  8
0
 10
182.44405551115361
 20
88.980567207178552
 30
8.2500012915999061
 11
181.9081571262914
 21
90.980567207178538
 31
8.2500012915999061
  0
LINE
  5
2304
  8
0
 10
174.4761063187224
 20
88.980567207178552
 30
8.2500012915999061
 11
174.4761063187224
 21
90.980567207178538
 31
8.2500012915999061
  0
LINE
  5
2305
  8
0
 10
189.87610631872241
 20
88.980567207178552
 30
8.2500012915999061
 11
174.4761063187224
 21
88.980567207178552
 31
8.2500012915999061
  0
LINE
  5
2306
  8
0
 10
189.87610631872241
 20
90.980567207178538
 30
8.2500012915999061
 11
189.87610631872241
 21
88.980567207178552
 31
8.2500012915999061
  0
LINE
  5
2307
  8
0
 10
209.87610631872249
 20
90.980567207178538
 30
8.2500012915999061
 11
209.87610631872249
 21
88.980567207178552
 31
8.2500012915999061
  0
LINE
  5
2308
  8
0
 10
209.87610631872249
 20
88.980567207178552
 30
8.2500012915999061
 11
194.4761063187224
 21
88.980567207178552
 31
8.2500012915999061
  0
LINE
  5
2309
  8
0
 10
194.4761063187224
 20
90.980567207178538
 30
8.2500012915999061
 11
209.87610631872249
 21
90.980567207178538
 31
8.2500012915999061
  0
LINE
  5
230A
  8
0
 10
202.44405551115361
 20
88.980567207178552
 30
8.2500012915999061
 11
201.9081571262914
 21
90.980567207178538
 31
8.2500012915999061
  0
LINE
  5
230B
  8
0
 10
194.4761063187224
 20
88.980567207178552
 30
8.2500012915999061
 11
194.4761063187224
 21
90.980567207178538
 31
8.2500012915999061
  0
ARC
  5
2321
  8
0
 10
176.5511169092895
 20
85.513660066930512
 30
6.9170962313452398
 40
3.3225695729499738
 50
55.615752531961739
 51
115.6157525321738
  0
ARC
  5
2322
  8
0
 10
182.18028203388889
 20
76.416786223488131
 30
6.9170962313452398
 40
12.41944341639239
 50
72.412046225995397
 51
107.5879537740046
  0
LINE
  5
2323
  8
0
 10
174.67472853442311
 20
88.255673056279747
 30
6.9170962313452398
 11
175.9302820338894
 21
88.980567207178566
 31
6.9170962313452398
  0
LINE
  5
2324
  8
0
 10
174.67472853442311
 20
84.705461358077613
 30
6.9170962313452398
 11
175.9302820338894
 21
83.980567207178794
 31
6.9170962313452398
  0
ARC
  5
2325
  8
0
 10
176.5511169092895
 20
87.447474347426834
 30
6.9170962313452398
 40
3.3225695729499738
 50
244.3842474678261
 51
304.38424746803821
  0
ARC
  5
2326
  8
0
 10
182.18028203388889
 20
96.544348190869215
 30
6.9170962313452398
 40
12.41944341639239
 50
252.4120462259954
 51
287.58795377400469
  0
LINE
  5
2327
  8
0
 10
174.67472853442311
 20
88.255673056279747
 30
6.9170962313452398
 11
174.67472853442311
 21
84.705461358077613
 31
6.9170962313452398
  0
LINE
  5
2328
  8
0
 10
178.42750528415741
 20
88.255673056279747
 30
6.9170962313452398
 11
178.42750528415559
 21
84.705461358079134
 31
6.9170962313452398
  0
LINE
  5
2329
  8
0
 10
185.93305878361861
 20
88.255673056279747
 30
6.9170962313452398
 11
185.9330587836204
 21
84.705461358079134
 31
6.9170962313452398
  0
LINE
  5
232A
  8
0
 10
189.6858355333529
 20
88.255673056279747
 30
6.9170962313452398
 11
189.6858355333529
 21
84.705461358077613
 31
6.9170962313452398
  0
ARC
  5
232B
  8
0
 10
187.80944715848659
 20
87.447474347426834
 30
6.9170962313452398
 40
3.3225695729499738
 50
235.61575253196179
 51
295.61575253217387
  0
LINE
  5
232C
  8
0
 10
189.6858355333529
 20
84.705461358077613
 30
6.9170962313452398
 11
188.43028203388661
 21
83.980567207178794
 31
6.9170962313452398
  0
LINE
  5
232D
  8
0
 10
189.6858355333529
 20
88.255673056279747
 30
6.9170962313452398
 11
188.43028203388661
 21
88.980567207178566
 31
6.9170962313452398
  0
ARC
  5
232E
  8
0
 10
187.80944715848659
 20
85.513660066930512
 30
6.9170962313452398
 40
3.3225695729499738
 50
64.384247467826114
 51
124.3842474680382
  0
LINE
  5
232F
  8
0
 10
175.9302820338882
 20
88.980567207178566
 30
6.9170962313452398
 11
188.43028203388641
 21
88.980567207178566
 31
6.9170962313452398
  0
LINE
  5
2330
  8
0
 10
188.43028203388661
 20
83.980567207178794
 30
6.9170962313452398
 11
175.9302820338896
 21
83.980567207178794
 31
6.9170962313452398
  0
ARC
  5
2331
  8
0
 10
196.8662109525556
 20
85.513660066930512
 30
8.0070953285563657
 40
3.3225695729499738
 50
55.615752531961739
 51
115.6157525321738
  0
ARC
  5
2332
  8
0
 10
202.4953760771551
 20
76.416786223488131
 30
8.0070953285563657
 40
12.41944341639239
 50
72.412046225995397
 51
107.5879537740046
  0
LINE
  5
2333
  8
0
 10
194.98982257768921
 20
88.255673056279747
 30
8.0070953285563657
 11
196.2453760771555
 21
88.980567207178566
 31
8.0070953285563657
  0
LINE
  5
2334
  8
0
 10
194.98982257768921
 20
84.705461358077613
 30
8.0070953285563657
 11
196.2453760771555
 21
83.980567207178794
 31
8.0070953285563657
  0
ARC
  5
2335
  8
0
 10
196.8662109525556
 20
87.447474347426834
 30
8.0070953285563657
 40
3.3225695729499738
 50
244.3842474678261
 51
304.38424746803821
  0
ARC
  5
2336
  8
0
 10
202.4953760771551
 20
96.544348190869215
 30
8.0070953285563657
 40
12.41944341639239
 50
252.4120462259954
 51
287.58795377400469
  0
LINE
  5
2337
  8
0
 10
194.98982257768921
 20
88.255673056279747
 30
8.0070953285563657
 11
194.98982257768921
 21
84.705461358077613
 31
8.0070953285563657
  0
LINE
  5
2338
  8
0
 10
198.74259932742351
 20
88.255673056279747
 30
8.0070953285563657
 11
198.74259932742169
 21
84.705461358079134
 31
8.0070953285563657
  0
LINE
  5
2339
  8
0
 10
206.24815282688479
 20
88.255673056279747
 30
8.0070953285563657
 11
206.24815282688661
 21
84.705461358079134
 31
8.0070953285563657
  0
LINE
  5
233A
  8
0
 10
210.00092957661909
 20
88.255673056279747
 30
8.0070953285563657
 11
210.00092957661909
 21
84.705461358077613
 31
8.0070953285563657
  0
ARC
  5
233B
  8
0
 10
208.12454120175269
 20
87.447474347426834
 30
8.0070953285563657
 40
3.3225695729499738
 50
235.61575253196179
 51
295.61575253217387
  0
LINE
  5
233C
  8
0
 10
210.00092957661909
 20
84.705461358077613
 30
8.0070953285563657
 11
208.7453760771528
 21
83.980567207178794
 31
8.0070953285563657
  0
LINE
  5
233D
  8
0
 10
210.00092957661909
 20
88.255673056279747
 30
8.0070953285563657
 11
208.7453760771528
 21
88.980567207178566
 31
8.0070953285563657
  0
ARC
  5
233E
  8
0
 10
208.12454120175269
 20
85.513660066930512
 30
8.0070953285563657
 40
3.3225695729499738
 50
64.384247467826114
 51
124.3842474680382
  0
LINE
  5
233F
  8
0
 10
196.24537607715439
 20
88.980567207178566
 30
8.0070953285563657
 11
208.7453760771526
 21
88.980567207178566
 31
8.0070953285563657
  0
LINE
  5
2340
  8
0
 10
208.7453760771528
 20
83.980567207178794
 30
8.0070953285563657
 11
196.2453760771557
 21
83.980567207178794
 31
8.0070953285563657
  0
CIRCLE
  5
2341
  8
0
 10
-182.18028203388729
 20
15.0
 30
88.980567207178566
 40
4.2000000000000002
210
0.0
220
1.0
230
0.0
  0
CIRCLE
  5
2342
  8
0
 10
-182.18028203388729
 20
15.0
 30
88.980567207178595
 40
4.0
210
0.0000000000000001
220
1.0
230
0.0
  0
ARC
  5
2343
  8
0
 10
-182.18028203388729
 20
15.0
 30
88.980567207178566
 40
7.0
210
0.0
220
1.0
230
0.0
 50
0.0
 51
59.999999999999993
  0
LINE
  5
2344
  8
0
 10
175.18028203388729
 20
88.980567207178566
 30
15.0
 11
175.18028203388729
 21
88.980567207178566
 31
19.04145188432738
210
0.0000000000000001
220
1.0
230
0.0
  0
LINE
  5
2345
  8
0
 10
175.18028203388729
 20
88.980567207178566
 30
19.04145188432738
 11
178.68028203388729
 21
88.980567207178566
 31
21.06217782649107
210
0.0000000000000001
220
1.0
230
0.0
  0
ARC
  5
2346
  8
0
 10
-182.18028203388729
 20
15.0
 30
88.980567207178566
 40
7.0
210
0.0
220
1.0
230
0.0
 50
59.999999999999993
 51
120.0
  0
LINE
  5
2347
  8
0
 10
178.68028203388729
 20
88.980567207178566
 30
21.06217782649107
 11
182.18028203388729
 21
88.980567207178566
 31
23.082903768654759
210
0.0000000000000001
220
1.0
230
0.0
  0
LINE
  5
2348
  8
0
 10
182.18028203388729
 20
88.980567207178566
 30
23.082903768654759
 11
185.68028203388729
 21
88.980567207178566
 31
21.06217782649107
210
0.0000000000000001
220
1.0
230
0.0
  0
ARC
  5
2349
  8
0
 10
-182.18028203388729
 20
15.0
 30
88.980567207178566
 40
7.0
210
0.0
220
1.0
230
0.0
 50
120.0
 51
180.0
  0
LINE
  5
234A
  8
0
 10
185.68028203388729
 20
88.980567207178566
 30
21.06217782649107
 11
189.18028203388729
 21
88.980567207178566
 31
19.04145188432738
210
0.0000000000000001
220
1.0
230
0.0
  0
LINE
  5
234B
  8
0
 10
189.18028203388729
 20
88.980567207178566
 30
19.04145188432738
 11
189.18028203388729
 21
88.980567207178566
 31
15.0
210
0.0000000000000001
220
1.0
230
0.0
  0
ARC
  5
234C
  8
0
 10
-182.18028203388729
 20
15.0
 30
88.980567207178566
 40
7.0
210
0.0
220
1.0
230
0.0
 50
180.0
 51
240.0
  0
LINE
  5
234D
  8
0
 10
189.18028203388729
 20
88.980567207178566
 30
15.0
 11
189.18028203388729
 21
88.980567207178566
 31
10.95854811567262
210
0.0000000000000001
220
1.0
230
0.0
  0
LINE
  5
234E
  8
0
 10
189.18028203388729
 20
88.980567207178566
 30
10.95854811567262
 11
185.68028203388729
 21
88.980567207178566
 31
8.9378221735089305
210
0.0000000000000001
220
1.0
230
0.0
  0
ARC
  5
234F
  8
0
 10
-182.18028203388729
 20
15.0
 30
88.980567207178566
 40
7.0
210
0.0
220
1.0
230
0.0
 50
240.0
 51
300.0
  0
LINE
  5
2350
  8
0
 10
185.68028203388729
 20
88.980567207178566
 30
8.9378221735089305
 11
182.18028203388729
 21
88.980567207178566
 31
6.9170962313452398
210
0.0000000000000001
220
1.0
230
0.0
  0
LINE
  5
2351
  8
0
 10
182.18028203388729
 20
88.980567207178566
 30
6.9170962313452398
 11
178.68028203388729
 21
88.980567207178566
 31
8.9378221735089305
210
0.0000000000000001
220
1.0
230
0.0
  0
ARC
  5
2352
  8
0
 10
-182.18028203388729
 20
15.0
 30
88.980567207178566
 40
7.0
210
0.0
220
1.0
230
0.0
 50
300.0
 51
0.0
  0
LINE
  5
2353
  8
0
 10
178.68028203388729
 20
88.980567207178566
 30
8.9378221735089305
 11
175.18028203388729
 21
88.980567207178566
 31
10.95854811567262
210
0.0000000000000001
220
1.0
230
0.0
  0
LINE
  5
2354
  8
0
 10
175.18028203388729
 20
88.980567207178566
 30
10.95854811567262
 11
175.18028203388729
 21
88.980567207178566
 31
15.0
210
0.0000000000000001
220
1.0
230
0.0
  0
CIRCLE
  5
2355
  8
0
 10
-202.18028203388729
 20
15.0
 30
88.980567207178566
 40
4.2000000000000002
210
0.0
220
1.0
230
0.0
  0
CIRCLE
  5
2356
  8
0
 10
-202.18028203388729
 20
15.0
 30
88.980567207178595
 40
4.0
210
0.0000000000000001
220
1.0
230
0.0
  0
ARC
  5
2357
  8
0
 10
-202.18028203388729
 20
15.0
 30
88.980567207178566
 40
7.0
210
0.0
220
1.0
230
0.0
 50
0.0
 51
59.999999999999993
  0
LINE
  5
2358
  8
0
 10
195.18028203388729
 20
88.980567207178566
 30
15.0
 11
195.18028203388729
 21
88.980567207178566
 31
19.04145188432738
210
0.0000000000000001
220
1.0
230
0.0
  0
LINE
  5
2359
  8
0
 10
195.18028203388729
 20
88.980567207178566
 30
19.04145188432738
 11
198.68028203388729
 21
88.980567207178566
 31
21.06217782649107
210
0.0000000000000001
220
1.0
230
0.0
  0
ARC
  5
235A
  8
0
 10
-202.18028203388729
 20
15.0
 30
88.980567207178566
 40
7.0
210
0.0
220
1.0
230
0.0
 50
59.999999999999993
 51
120.0
  0
LINE
  5
235B
  8
0
 10
198.68028203388729
 20
88.980567207178566
 30
21.06217782649107
 11
202.18028203388729
 21
88.980567207178566
 31
23.082903768654759
210
0.0000000000000001
220
1.0
230
0.0
  0
LINE
  5
235C
  8
0
 10
202.18028203388729
 20
88.980567207178566
 30
23.082903768654759
 11
205.68028203388729
 21
88.980567207178566
 31
21.06217782649107
210
0.0000000000000001
220
1.0
230
0.0
  0
ARC
  5
235D
  8
0
 10
-202.18028203388729
 20
15.0
 30
88.980567207178566
 40
7.0
210
0.0
220
1.0
230
0.0
 50
120.0
 51
180.0
  0
LINE
  5
235E
  8
0
 10
205.68028203388729
 20
88.980567207178566
 30
21.06217782649107
 11
209.18028203388741
 21
88.980567207178566
 31
19.04145188432738
210
0.0000000000000001
220
1.0
230
0.0
  0
LINE
  5
235F
  8
0
 10
209.18028203388741
 20
88.980567207178566
 30
19.04145188432738
 11
209.18028203388741
 21
88.980567207178566
 31
15.0
210
0.0000000000000001
220
1.0
230
0.0
  0
ARC
  5
2360
  8
0
 10
-202.18028203388729
 20
15.0
 30
88.980567207178566
 40
7.0
210
0.0
220
1.0
230
0.0
 50
180.0
 51
240.0
  0
LINE
  5
2361
  8
0
 10
209.18028203388741
 20
88.980567207178566
 30
15.0
 11
209.18028203388741
 21
88.980567207178566
 31
10.95854811567262
210
0.0000000000000001
220
1.0
230
0.0
  0
LINE
  5
2362
  8
0
 10
209.18028203388741
 20
88.980567207178566
 30
10.95854811567262
 11
205.68028203388729
 21
88.980567207178566
 31
8.9378221735089305
210
0.0000000000000001
220
1.0
230
0.0
  0
ARC
  5
2363
  8
0
 10
-202.18028203388729
 20
15.0
 30
88.980567207178566
 40
7.0
210
0.0
220
1.0
230
0.0
 50
240.0
 51
300.0
  0
LINE
  5
2364
  8
0
 10
205.68028203388729
 20
88.980567207178566
 30
8.9378221735089305
 11
202.18028203388729
 21
88.980567207178566
 31
6.9170962313452398
210
0.0000000000000001
220
1.0
230
0.0
  0
LINE
  5
2365
  8
0
 10
202.18028203388729
 20
88.980567207178566
 30
6.9170962313452398
 11
198.68028203388729
 21
88.980567207178566
 31
8.9378221735089305
210
0.0000000000000001
220
1.0
230
0.0
  0
ARC
  5
2366
  8
0
 10
-202.18028203388729
 20
15.0
 30
88.980567207178566
 40
7.0
210
0.0
220
1.0
230
0.0
 50
300.0
 51
0.0
  0
LINE
  5
2367
  8
0
 10
198.68028203388729
 20
88.980567207178566
 30
8.9378221735089305
 11
195.18028203388729
 21
88.980567207178566
 31
10.95854811567262
210
0.0000000000000001
220
1.0
230
0.0
  0
LINE
  5
2368
  8
0
 10
195.18028203388729
 20
88.980567207178566
 30
10.95854811567262
 11
195.18028203388729
 21
88.980567207178566
 31
15.0
210
0.0000000000000001
220
1.0
230
0.0
  0
LINE
  5
2387
  8
0
 10
74.386707860609476
 20
83.980567207178794
 30
-3.3210886353838158
 11
74.386707860609476
 21
77.722075748760545
 31
0.2499999999999982
  0
LINE
  5
2388
  8
3
 10
73.710207860609572
 20
83.98056720717878
 30
-3.4900000000001161
 11
73.710207860609586
 21
77.180567207178569
 31
0.2499999999999982
  0
LINE
  5
2389
  8
3
 10
67.063207860609396
 20
83.980567207178794
 30
-3.4900000000001339
 11
67.063207860609396
 21
77.180567207178541
 31
0.2499999999999982
  0
LINE
  5
238A
  8
0
 10
66.386707860609491
 20
83.98056720717878
 30
-3.3210886353837878
 11
66.386707860609476
 21
77.722075748760602
 31
0.2499999999999982
  0
LINE
  5
238B
  8
0
 10
206.18308822024619
 20
83.98056720717878
 30
4.6789113646161944
 11
206.18308822024619
 21
77.722075748760545
 31
8.25
  0
LINE
  5
238C
  8
3
 10
205.5065882202463
 20
83.980567207178794
 30
4.5099999999998799
 11
205.5065882202463
 21
77.180567207178584
 31
8.25
  0
LINE
  5
238D
  8
3
 10
198.85958822024611
 20
83.980567207178794
 30
4.509999999999871
 11
198.85958822024611
 21
77.180567207178555
 31
8.25
  0
LINE
  5
238E
  8
0
 10
198.18308822024619
 20
83.980567207178794
 30
4.6789113646162042
 11
198.18308822024619
 21
77.722075748760602
 31
8.25
  0
LINE
  5
238F
  8
0
 10
178.1845312359163
 20
83.980567207178794
 30
8.2500012915999115
 11
178.1860452192532
 21
79.711486998399408
 31
8.2500012915999115
  0
LINE
  5
2390
  8
5
 10
178.72153203388731
 20
90.980567207178538
 30
1.3846153846154039
 11
178.72153203388731
 21
92.180567207178569
 31
0.0
  0
LINE
  5
2391
  8
0
 10
186.16606561441219
 20
90.980567207178538
 30
1.444767733520633
 11
186.16606561441219
 21
92.180567207178569
 31
0.0
  0
LINE
  5
2392
  8
5
 10
185.63935430153489
 20
90.980567207178538
 30
0.7615364085736358
 11
185.63932192255399
 21
92.180567207178569
 31
0.0
  0
LINE
  5
2394
  8
0
 10
74.369685254775476
 20
79.721817207178518
 30
-0.0000000000000036
 11
73.842651674250618
 21
79.180567207178555
 31
-0.0000000000000036
  0
LINE
  5
2395
  8
0
 10
66.9251516742506
 20
79.180567207178555
 30
-0.0000000000000018
 11
66.389664859616431
 21
79.711486998399394
 31
-6.7499987084000903
  0
CIRCLE
  5
2396
  8
0
 10
70.383901674250609
 20
-0.0000000000000018
 30
-79.180567207178555
 40
3.4587500000000002
210
-0.0000000000000002
220
-1.0
230
0.0
  0
LINE
  5
2397
  8
0
 10
74.383901674250609
 20
79.721817207178546
 30
-0.0000000000000036
 11
66.383901674250609
 21
79.721817207178546
 31
-0.0000000000000018
  0
TEXT
  5
2446
  8
0
 62
     3
 10
0.0
 20
0.0
 30
0.0
 40
10.0
  1
CLH-165FB
  7
STANDARD1
  0
VIEWPORT
  5
1261
 67
     1
  8
0
 10
5.2499996395561626
 20
3.999999883606677
 30
0.0
 40
12.04062743738797
 41
8.9929997457669462
 68
     2
 69
     1
1001
ACAD
1000
MVIEW
1002
{
1070
    16
1010
0.0
1020
0.0
1030
0.0
1010
0.0
1020
0.0
1030
1.0
1040
0.0
1040
8.9929997457669462
1040
5.2499996395561626
1040
3.999999883606677
1040
50.0
1040
0.0
1040
0.0
1070
     0
1070
   500
1070
     1
1070
     1
1070
     0
1070
     0
1070
     0
1070
     0
1040
0.0
1040
0.0
1040
0.0
1040
10.0
1040
10.0
1040
10.0
1040
10.0
1070
     0
1002
{
1002
}
1002
}
  0
VIEWPORT
  5
1263
 67
     1
  8
0
 10
5.24999976158142
 20
3.99999976158142
 30
0.0
 40
8.3999996185302717
 41
6.3999996185302717
 68
     1
 69
     2
1001
ACAD
1000
MVIEW
1002
{
1070
    16
1010
0.0
1020
0.0
1030
0.0
1010
0.0
1020
0.0
1030
1.0
1040
0.0
1040
666.47247834573625
1040
-533.63893377160775
1040
-441.53162407700779
1040
50.0
1040
0.0
1040
0.0
1070
     0
1070
   500
1070
     1
1070
     0
1070
     0
1070
     0
1070
     0
1070
     2
1040
0.0
1040
0.0
1040
0.0
1040
10.0
1040
10.0
1040
10.0
1040
10.0
1070
     0
1002
{
1002
}
1002
}
  0
ENDSEC
  0
EOF
