  0
SECTION
  2
HEADER
  9
$ACADVER
  1
AC1009
  9
$INSBASE
 10
0.0
 20
0.0
 30
0.0
  9
$EXTMIN
 10
0.0
 20
-1.4802182810368341
 30
0.0
  9
$EXTMAX
 10
143.58277487885829
 20
109.77742805755391
 30
0.0
  9
$LIMMIN
 10
0.0
 20
0.0
  9
$LIMMAX
 10
187.5
 20
135.0
  9
$ORTHOMODE
 70
     1
  9
$REGENMODE
 70
     1
  9
$FILLMODE
 70
     1
  9
$QTEXTMODE
 70
     0
  9
$MIRRTEXT
 70
     0
  9
$DRAGMODE
 70
     2
  9
$LTSCALE
 40
5.0
  9
$OSMODE
 70
  3071
  9
$ATTMODE
 70
     1
  9
$TEXTSIZE
 40
0.2
  9
$TRACEWID
 40
0.05
  9
$TEXTSTYLE
  7
STANDARD
  9
$CLAYER
  8
0
  9
$CELTYPE
  6
BYLAYER
  9
$CECOLOR
 62
   256
  9
$DIMSCALE
 40
0.5
  9
$DIMASZ
 40
3.0
  9
$DIMEXO
 40
2.0
  9
$DIMDLI
 40
0.38
  9
$DIMRND
 40
0.0
  9
$DIMDLE
 40
0.0
  9
$DIMEXE
 40
2.0
  9
$DIMTP
 40
0.0
  9
$DIMTM
 40
0.0
  9
$DIMTXT
 40
3.2000000000000002
  9
$DIMCEN
 40
0.0
  9
$DIMTSZ
 40
0.0
  9
$DIMTOL
 70
     0
  9
$DIMLIM
 70
     0
  9
$DIMTIH
 70
     0
  9
$DIMTOH
 70
     0
  9
$DIMSE1
 70
     0
  9
$DIMSE2
 70
     0
  9
$DIMTAD
 70
     1
  9
$DIMZIN
 70
     0
  9
$DIMBLK
  1

  9
$DIMASO
 70
     1
  9
$DIMSHO
 70
     0
  9
$DIMPOST
  1

  9
$DIMAPOST
  1

  9
$DIMALT
 70
     0
  9
$DIMALTD
 70
     2
  9
$DIMALTF
 40
25.399999999999999
  9
$DIMLFAC
 40
1.0
  9
$DIMTOFL
 70
     1
  9
$DIMTVP
 40
1.6000000000000001
  9
$DIMTIX
 70
     1
  9
$DIMSOXD
 70
     0
  9
$DIMSAH
 70
     0
  9
$DIMBLK1
  1

  9
$DIMBLK2
  1

  9
$DIMSTYLE
  2
STANDARD
  9
$DIMCLRD
 70
     0
  9
$DIMCLRE
 70
     0
  9
$DIMCLRT
 70
     0
  9
$DIMTFAC
 40
1.0
  9
$DIMGAP
 40
0.09
  9
$LUNITS
 70
     2
  9
$LUPREC
 70
     4
  9
$SKETCHINC
 40
0.1
  9
$FILLETRAD
 40
0.0
  9
$AUNITS
 70
     0
  9
$AUPREC
 70
     4
  9
$MENU
  1
E:\r13\win\SUPPORT\ACAD
  9
$ELEVATION
 40
0.0
  9
$PELEVATION
 40
0.0
  9
$THICKNESS
 40
0.0
  9
$LIMCHECK
 70
     0
  9
$BLIPMODE
 70
     0
  9
$CHAMFERA
 40
0.0
  9
$CHAMFERB
 40
0.0
  9
$SKPOLY
 70
     0
  9
$TDCREATE
 40
2449839.7900925931
  9
$TDUPDATE
 40
2456598.591163137
  9
$TDINDWG
 40
0.0001424537
  9
$TDUSRTIMER
 40
0.0001424537
  9
$USRTIMER
 70
     1
  9
$ANGBASE
 50
0.0
  9
$ANGDIR
 70
     0
  9
$PDMODE
 70
     0
  9
$PDSIZE
 40
0.0
  9
$PLINEWID
 40
0.0
  9
$COORDS
 70
     1
  9
$SPLFRAME
 70
     0
  9
$SPLINETYPE
 70
     6
  9
$SPLINESEGS
 70
     8
  9
$ATTDIA
 70
     0
  9
$ATTREQ
 70
     1
  9
$HANDLING
 70
     1
  9
$HANDSEED
  5
26C
  9
$SURFTAB1
 70
     6
  9
$SURFTAB2
 70
     6
  9
$SURFTYPE
 70
     6
  9
$SURFU
 70
     6
  9
$SURFV
 70
     6
  9
$UCSNAME
  2

  9
$UCSORG
 10
0.0
 20
0.0
 30
0.0
  9
$UCSXDIR
 10
1.0
 20
0.0
 30
0.0
  9
$UCSYDIR
 10
0.0
 20
1.0
 30
0.0
  9
$PUCSNAME
  2

  9
$PUCSORG
 10
0.0
 20
0.0
 30
0.0
  9
$PUCSXDIR
 10
1.0
 20
0.0
 30
0.0
  9
$PUCSYDIR
 10
0.0
 20
1.0
 30
0.0
  9
$USERI1
 70
     0
  9
$USERI2
 70
     1
  9
$USERI3
 70
     1
  9
$USERI4
 70
     0
  9
$USERI5
 70
     0
  9
$USERR1
 40
0.0
  9
$USERR2
 40
0.0
  9
$USERR3
 40
0.0
  9
$USERR4
 40
0.0
  9
$USERR5
 40
0.0
  9
$WORLDVIEW
 70
     1
  9
$SHADEDGE
 70
     3
  9
$SHADEDIF
 70
    70
  9
$TILEMODE
 70
     1
  9
$MAXACTVP
 70
    16
  9
$PLIMCHECK
 70
     0
  9
$PEXTMIN
 10
1.0000000000000000E+020
 20
1.0000000000000000E+020
 30
1.0000000000000000E+020
  9
$PEXTMAX
 10
-1.0000000000000000E+020
 20
-1.0000000000000000E+020
 30
-1.0000000000000000E+020
  9
$PLIMMIN
 10
0.0
 20
0.0
  9
$PLIMMAX
 10
12.0
 20
9.0
  9
$UNITMODE
 70
     0
  9
$VISRETAIN
 70
     0
  9
$PLINEGEN
 70
     0
  9
$PSLTSCALE
 70
     0
  0
ENDSEC
  0
SECTION
  2
TABLES
  0
TABLE
  2
VPORT
 70
     1
  0
VPORT
  2
*ACTIVE
 70
     0
 10
0.0
 20
0.0
 11
1.0
 21
1.0
 12
97.52905416604365
 22
66.75636307133405
 13
0.0
 23
0.0
 14
5.0
 24
5.0
 15
5.0
 25
5.0
 16
0.0
 26
0.0
 36
1.0
 17
0.0
 27
0.0
 37
0.0
 40
137.71137496815999
 41
1.831871345029239
 42
50.0
 43
0.0
 44
0.0
 50
0.0
 51
0.0
 71
     0
 72
   500
 73
     1
 74
     0
 75
     0
 76
     0
 77
     0
 78
     2
  0
ENDTAB
  0
TABLE
  2
LTYPE
 70
     4
  0
LTYPE
  2
CONTINUOUS
 70
     0
  3
Solid Line
 72
    65
 73
     0
 40
0.0
  0
LTYPE
  2
CENTER
 70
     0
  3
____ _ ____ _ ____ _ ____ _ ____ _ ____ _ ____
 72
    65
 73
     4
 40
2.0
 49
1.25
 49
-0.25
 49
0.25
 49
-0.25
  0
LTYPE
  2
PHANTOM
 70
     0
  3
_____ _ _ _____ _ _ _____ _ _ _____ _ _ ____
 72
    65
 73
     6
 40
2.5
 49
1.25
 49
-0.25
 49
0.25
 49
-0.25
 49
0.25
 49
-0.25
  0
LTYPE
  2
PHANTOM2
 70
     0
  3
___ _ _ ___ _ _ ___ _ _ ___ _ _
 72
    65
 73
     6
 40
1.25
 49
0.625
 49
-0.125
 49
0.125
 49
-0.125
 49
0.125
 49
-0.125
  0
ENDTAB
  0
TABLE
  2
LAYER
 70
     3
  0
LAYER
  2
0
 70
     0
 62
     7
  6
CONTINUOUS
  0
LAYER
  2
1
 70
     0
 62
     1
  6
CENTER
  0
LAYER
  2
5
 70
     0
 62
     3
  6
PHANTOM
  0
ENDTAB
  0
TABLE
  2
STYLE
 70
     2
  0
STYLE
  2
STANDARD
 70
     0
 40
0.0
 41
1.0
 50
0.0
 71
     0
 42
0.2
  3
TXT
  4
BIGFONT
  0
STYLE
  2
STANDARD1
 70
     0
 40
0.0
 41
1.0
 50
0.0
 71
     0
 42
3.0
  3
txt
  4

  0
ENDTAB
  0
TABLE
  2
VIEW
 70
     1
  0
VIEW
  2
ALL
 70
     0
 40
135.0
 10
110.4957983193277
 20
67.5
 41
0.0
 11
0.0
 21
0.0
 31
1.0
 12
0.0
 22
0.0
 32
0.0
 42
0.0
 43
0.0
 44
0.0
 50
0.0
 71
     0
  0
ENDTAB
  0
TABLE
  2
UCS
 70
     0
  0
ENDTAB
  0
TABLE
  2
APPID
 70
     3
  0
APPID
  2
ACAD
 70
     0
  0
APPID
  2
ACAD_MLEADERVER
 70
     0
  0
APPID
  2
ACAD_NAV_VCDISPLAY
 70
     0
  0
ENDTAB
  0
TABLE
  2
DIMSTYLE
 70
     1
  0
DIMSTYLE
  2
STANDARD
 70
     0
  3

  4

  5

  6

  7

 40
1.0
 41
0.18
 42
0.0625
 43
0.38
 44
0.18
 45
0.0
 46
0.0
 47
0.0
 48
0.0
140
0.18
141
0.09
142
0.0
143
25.399999999999999
144
1.0
145
0.0
146
1.0
147
0.09
 71
     0
 72
     0
 73
     1
 74
     1
 75
     0
 76
     0
 77
     0
 78
     0
170
     0
171
     2
172
     0
173
     0
174
     0
175
     0
176
     0
177
     0
178
     0
  0
ENDTAB
  0
ENDSEC
  0
SECTION
  2
BLOCKS
  0
BLOCK
  8
0
  2
$MODEL_SPACE
 70
     0
 10
0.0
 20
0.0
 30
0.0
  3
$MODEL_SPACE
  1

  0
ENDBLK
  5
ED
  8
0
  0
BLOCK
 67
     1
  8
0
  2
$PAPER_SPACE
 70
     0
 10
0.0
 20
0.0
 30
0.0
  3
$PAPER_SPACE
  1

  0
ENDBLK
  5
EB
 67
     1
  8
0
  0
ENDSEC
  0
SECTION
  2
ENTITIES
  0
CIRCLE
  5
35
  8
0
 10
73.120255624681661
 20
70.066996402877692
 30
0.0
 40
4.0
  0
LINE
  5
36
  8
1
 10
79.620255624681661
 20
70.066996402877692
 30
0.0
 11
66.620255624681661
 21
70.066996402877692
 31
0.0
  0
LINE
  5
37
  8
1
 10
73.120255624681661
 20
76.566996402877692
 30
0.0
 11
73.120255624681661
 21
63.566996402877699
 31
0.0
  0
LINE
  5
38
  8
1
 10
137.08277487885829
 20
76.566996402877692
 30
0.0
 11
137.08277487885829
 21
63.566996402877699
 31
0.0
  0
LINE
  5
39
  8
1
 10
143.58277487885829
 20
70.066996402877692
 30
0.0
 11
130.58277487885829
 21
70.066996402877692
 31
0.0
  0
CIRCLE
  5
3A
  8
0
 10
137.08277487885829
 20
70.066996402877692
 30
0.0
 40
4.0
  0
LINE
  5
44
  8
1
 10
85.151777385555945
 20
70.066996402877692
 30
0.0
 11
110.1517773855559
 21
70.066996402877692
 31
0.0
  0
LINE
  5
45
  8
5
 10
89.034409032965371
 20
74.066996402877692
 30
0.0
 11
104.9517773855559
 21
74.066996402877692
 31
0.0
  0
LINE
  5
46
  8
5
 10
90.351777385555962
 20
66.066996402877692
 30
0.0
 11
106.26914669182079
 21
66.066996402877692
 31
0.0
  0
LINE
  5
47
  8
0
 10
87.651777385555945
 20
74.066996402878175
 30
0.0
 11
87.651777385555945
 21
66.066996402876441
 31
0.0
  0
ARC
  5
48
  8
0
 10
87.65177738555596
 20
73.466996402877697
 30
0.0
 40
0.6
 50
269.99999999999869
 51
90.00000000000135
  0
ARC
  5
49
  8
0
 10
87.65177738555596
 20
66.666996402877686
 30
0.0
 40
0.6
 50
269.99999999999869
 51
90.00000000000135
  0
LINE
  5
4A
  8
0
 10
88.251777385555926
 20
73.466996402877697
 30
0.0
 11
88.251777385555926
 21
66.666996402877686
 31
0.0
  0
CIRCLE
  5
4B
  8
0
 10
89.034408079291055
 20
73.466996402877697
 30
0.0
 40
0.6
  0
CIRCLE
  5
4C
  8
0
 10
90.351777385555962
 20
66.666996402877686
 30
0.0
 40
0.6
  0
LINE
  5
4D
  8
0
 10
90.940825243144076
 20
66.781113103981752
 30
0.0
 11
89.623455936879154
 21
73.581113103981764
 31
0.0
  0
LINE
  5
4E
  8
0
 10
89.762729527967863
 20
66.552879701773605
 30
0.0
 11
88.445360221702956
 21
73.352879701773631
 31
0.0
  0
LINE
  5
4F
  8
0
 10
107.6517773855559
 20
74.066996402878175
 30
0.0
 11
107.6517773855559
 21
66.066996402876441
 31
0.0
  0
ARC
  5
50
  8
0
 10
107.6517773855559
 20
73.466996402877697
 30
0.0
 40
0.6
 50
89.999999999998636
 51
270.00000000000131
  0
LINE
  5
51
  8
0
 10
107.05177738555589
 20
73.466996402877697
 30
0.0
 11
107.05177738555589
 21
66.666996402877686
 31
0.0
  0
ARC
  5
52
  8
0
 10
107.6517773855559
 20
66.666996402877686
 30
0.0
 40
0.6
 50
89.999999999998636
 51
270.00000000000131
  0
CIRCLE
  5
53
  8
0
 10
106.26914669182079
 20
66.666996402877686
 30
0.0
 40
0.6
  0
CIRCLE
  5
54
  8
0
 10
104.9517773855559
 20
73.466996402877697
 30
0.0
 40
0.6
  0
LINE
  5
55
  8
0
 10
106.85819454940891
 20
66.781113103981752
 30
0.0
 11
105.540825243144
 21
73.581113103981764
 31
0.0
  0
LINE
  5
56
  8
0
 10
105.68009883423269
 20
66.552879701773605
 30
0.0
 11
104.3627295279678
 21
73.352879701773631
 31
0.0
  0
LINE
  5
57
  8
5
 10
89.034408079291055
 20
72.866996402877689
 30
0.0
 11
104.9517773855559
 21
72.866996402877689
 31
0.0
  0
LINE
  5
58
  8
5
 10
90.351778339230265
 20
67.266996402877695
 30
0.0
 11
106.26914669182079
 21
67.266996402877695
 31
0.0
  0
LINE
  5
59
  8
5
 10
89.034409427990198
 20
100.47742805755389
 30
0.0
 11
106.26914669182079
 21
100.47742805755389
 31
0.0
  0
LINE
  5
5A
  8
5
 10
89.034408079291055
 20
106.0774280575539
 30
0.0
 11
106.26914669182079
 21
106.0774280575539
 31
0.0
  0
CIRCLE
  5
5B
  8
0
 10
106.26914669182079
 20
99.877428057553956
 30
0.0
 40
0.6
  0
ARC
  5
5C
  8
0
 10
107.6517773855559
 20
99.877428057553956
 30
0.0
 40
0.6
 50
89.999999999998636
 51
270.00000000000131
  0
LINE
  5
5D
  8
0
 10
107.05177738555589
 20
106.6774280575539
 30
0.0
 11
107.05177738555589
 21
99.877428057553956
 31
0.0
  0
ARC
  5
5E
  8
0
 10
107.6517773855559
 20
106.6774280575539
 30
0.0
 40
0.6
 50
89.999999999998636
 51
270.00000000000131
  0
LINE
  5
5F
  8
0
 10
107.6517773855559
 20
107.2774280575544
 30
0.0
 11
107.6517773855559
 21
99.277428057552697
 31
0.0
  0
CIRCLE
  5
60
  8
0
 10
89.034408079291055
 20
106.6774280575539
 30
0.0
 40
0.6
  0
LINE
  5
61
  8
0
 10
88.251777385555926
 20
106.6774280575539
 30
0.0
 11
88.251777385555926
 21
99.877428057553956
 31
0.0
  0
ARC
  5
62
  8
0
 10
87.65177738555596
 20
99.877428057553956
 30
0.0
 40
0.6
 50
269.99999999999869
 51
90.00000000000135
  0
ARC
  5
63
  8
0
 10
87.65177738555596
 20
106.6774280575539
 30
0.0
 40
0.6
 50
269.99999999999869
 51
90.00000000000135
  0
LINE
  5
64
  8
0
 10
87.651777385555945
 20
107.2774280575544
 30
0.0
 11
87.651777385555945
 21
99.277428057552697
 31
0.0
  0
LINE
  5
65
  8
5
 10
89.034409427990198
 20
99.277428057553948
 30
0.0
 11
106.26914669182079
 21
99.277428057553948
 31
0.0
  0
LINE
  5
66
  8
5
 10
89.034409032965371
 20
107.27742805755391
 30
0.0
 11
106.26914534312171
 21
107.27742805755391
 31
0.0
  0
LINE
  5
67
  8
1
 10
85.151777385555945
 20
103.27742805755391
 30
0.0
 11
110.1517773855559
 21
103.27742805755391
 31
0.0
  0
LINE
  5
68
  8
0
 10
107.6517773855559
 20
70.312331077670748
 30
0.0
 11
107.0627295279678
 21
73.352879701773631
 31
0.0
  0
CIRCLE
  5
69
  8
0
 10
137.08277487885829
 20
70.066996402877692
 30
0.0
 40
2.7999999999999989
  0
LINE
  5
6A
  8
0
 10
133.0903056056714
 20
70.312331077670606
 30
0.0
 11
134.2880463876273
 21
70.238730675232745
 31
0.0
  0
CIRCLE
  5
6B
  8
0
 10
89.034408079291055
 20
99.877428057553956
 30
0.0
 40
0.6
  0
CIRCLE
  5
6C
  8
0
 10
106.26914669182079
 20
106.6774280575539
 30
0.0
 40
0.6
  0
LINE
  5
6D
  8
0
 10
89.634408079291049
 20
106.6774280575539
 30
0.0
 11
89.634408079291049
 21
99.877428057553956
 31
0.0
  0
LINE
  5
6E
  8
0
 10
88.434408079291046
 20
106.6774280575539
 30
0.0
 11
88.434408079291046
 21
99.877428057553956
 31
0.0
  0
LINE
  5
6F
  8
0
 10
105.6691466918209
 20
106.6774280575539
 30
0.0
 11
105.6691466918209
 21
99.877428057553956
 31
0.0
  0
LINE
  5
70
  8
0
 10
106.8691466918209
 20
106.6774280575539
 30
0.0
 11
106.8691466918209
 21
99.877428057553956
 31
0.0
  0
LINE
  5
71
  8
0
 10
106.8691466918209
 20
39.292086330935263
 30
0.0
 11
106.8691466918209
 21
32.492086330935251
 31
0.0
  0
LINE
  5
72
  8
0
 10
105.6691466918209
 20
39.292086330935263
 30
0.0
 11
105.6691466918209
 21
32.492086330935251
 31
0.0
  0
LINE
  5
73
  8
0
 10
88.434408079291046
 20
39.292086330935263
 30
0.0
 11
88.434408079291046
 21
32.492086330935251
 31
0.0
  0
LINE
  5
74
  8
0
 10
89.634408079291049
 20
39.292086330935263
 30
0.0
 11
89.634408079291049
 21
32.492086330935251
 31
0.0
  0
CIRCLE
  5
75
  8
0
 10
106.26914669182079
 20
39.292086330935263
 30
0.0
 40
0.6
  0
CIRCLE
  5
76
  8
0
 10
89.034408079291055
 20
32.492086330935251
 30
0.0
 40
0.6
  0
LINE
  5
77
  8
1
 10
85.151777385555945
 20
35.892086330935257
 30
0.0
 11
110.1517773855559
 21
35.892086330935257
 31
0.0
  0
LINE
  5
78
  8
5
 10
89.034409032965371
 20
39.892086330935257
 30
0.0
 11
106.26914534312171
 21
39.892086330935257
 31
0.0
  0
LINE
  5
79
  8
5
 10
89.034409427990198
 20
31.89208633093526
 30
0.0
 11
106.26914669182079
 21
31.89208633093526
 31
0.0
  0
LINE
  5
7A
  8
0
 10
87.651777385555945
 20
39.892086330935747
 30
0.0
 11
87.651777385555945
 21
31.89208633093401
 31
0.0
  0
ARC
  5
7B
  8
0
 10
87.65177738555596
 20
39.292086330935263
 30
0.0
 40
0.6
 50
269.99999999999869
 51
90.00000000000135
  0
ARC
  5
7C
  8
0
 10
87.65177738555596
 20
32.492086330935251
 30
0.0
 40
0.6
 50
269.99999999999869
 51
90.00000000000135
  0
LINE
  5
7D
  8
0
 10
88.251777385555926
 20
39.292086330935263
 30
0.0
 11
88.251777385555926
 21
32.492086330935251
 31
0.0
  0
CIRCLE
  5
7E
  8
0
 10
89.034408079291055
 20
39.292086330935263
 30
0.0
 40
0.6
  0
LINE
  5
7F
  8
0
 10
107.6517773855559
 20
39.892086330935747
 30
0.0
 11
107.6517773855559
 21
31.89208633093401
 31
0.0
  0
ARC
  5
80
  8
0
 10
107.6517773855559
 20
39.292086330935263
 30
0.0
 40
0.6
 50
89.999999999998636
 51
270.00000000000131
  0
LINE
  5
81
  8
0
 10
107.05177738555589
 20
39.292086330935263
 30
0.0
 11
107.05177738555589
 21
32.492086330935251
 31
0.0
  0
ARC
  5
82
  8
0
 10
107.6517773855559
 20
32.492086330935251
 30
0.0
 40
0.6
 50
89.999999999998636
 51
270.00000000000131
  0
CIRCLE
  5
83
  8
0
 10
106.26914669182079
 20
32.492086330935251
 30
0.0
 40
0.6
  0
LINE
  5
84
  8
5
 10
89.034408079291055
 20
38.692086330935261
 30
0.0
 11
106.26914669182079
 21
38.692086330935261
 31
0.0
  0
LINE
  5
85
  8
5
 10
89.034409427990198
 20
33.09208633093526
 30
0.0
 11
106.26914669182079
 21
33.09208633093526
 31
0.0
  0
LINE
  5
86
  8
1
 10
39.080562398920378
 20
76.566996402877692
 30
0.0
 11
39.080562398920378
 21
63.566996402877699
 31
0.0
  0
LINE
  5
87
  8
1
 10
45.580562398920378
 20
70.066996402877692
 30
0.0
 11
32.580562398920378
 21
70.066996402877692
 31
0.0
  0
CIRCLE
  5
88
  8
0
 10
39.080562398920378
 20
70.066996402877692
 30
0.0
 40
4.0
  0
LINE
  5
89
  8
1
 10
73.120255624681661
 20
109.77742805755391
 30
0.0
 11
73.120255624681661
 21
96.777428057553948
 31
0.0
  0
LINE
  5
8A
  8
1
 10
79.620255624681661
 20
103.27742805755391
 30
0.0
 11
66.620255624681661
 21
103.27742805755391
 31
0.0
  0
CIRCLE
  5
8B
  8
0
 10
73.120255624681661
 20
103.27742805755391
 30
0.0
 40
4.0
  0
LINE
  5
8C
  8
1
 10
73.120255624681647
 20
42.39208633093525
 30
0.0
 11
73.120255624681647
 21
29.392086330935271
 31
0.0
  0
LINE
  5
8D
  8
1
 10
79.620255624681647
 20
35.892086330935257
 30
0.0
 11
66.620255624681647
 21
35.892086330935257
 31
0.0
  0
CIRCLE
  5
8E
  8
0
 10
73.120255624681647
 20
35.892086330935257
 30
0.0
 40
4.0
  0
TEXT
  5
1DD
  8
0
 62
     3
 10
0.0
 20
0.0
 30
0.0
 40
5.0
  1
CLB54
  7
STANDARD1
  0
ENDSEC
  0
EOF
