  0
SECTION
  2
HEADER
  9
$ACADVER
  1
AC1009
  9
$INSBASE
 10
0.0
 20
0.0
 30
0.0
  9
$EXTMIN
 10
0.0
 20
-1.4802182810368341
 30
0.0
  9
$EXTMAX
 10
103.0604511011566
 20
72.390449715035061
 30
0.0
  9
$LIMMIN
 10
0.0
 20
0.0
  9
$LIMMAX
 10
375.0
 20
270.0
  9
$ORTHOMODE
 70
     1
  9
$REGENMODE
 70
     1
  9
$FILLMODE
 70
     1
  9
$QTEXTMODE
 70
     0
  9
$MIRRTEXT
 70
     0
  9
$DRAGMODE
 70
     2
  9
$LTSCALE
 40
2.5
  9
$OSMODE
 70
  3071
  9
$ATTMODE
 70
     1
  9
$TEXTSIZE
 40
2.0
  9
$TRACEWID
 40
0.05
  9
$TEXTSTYLE
  7
STANDARD
  9
$CLAYER
  8
0
  9
$CELTYPE
  6
BYLAYER
  9
$CECOLOR
 62
   256
  9
$DIMSCALE
 40
1.0
  9
$DIMASZ
 40
2.5
  9
$DIMEXO
 40
2.0
  9
$DIMDLI
 40
0.38
  9
$DIMRND
 40
0.0
  9
$DIMDLE
 40
0.0
  9
$DIMEXE
 40
2.0
  9
$DIMTP
 40
0.0
  9
$DIMTM
 40
0.0
  9
$DIMTXT
 40
3.0
  9
$DIMCEN
 40
0.09
  9
$DIMTSZ
 40
0.0
  9
$DIMTOL
 70
     0
  9
$DIMLIM
 70
     0
  9
$DIMTIH
 70
     0
  9
$DIMTOH
 70
     0
  9
$DIMSE1
 70
     0
  9
$DIMSE2
 70
     0
  9
$DIMTAD
 70
     1
  9
$DIMZIN
 70
     0
  9
$DIMBLK
  1

  9
$DIMASO
 70
     1
  9
$DIMSHO
 70
     0
  9
$DIMPOST
  1

  9
$DIMAPOST
  1

  9
$DIMALT
 70
     0
  9
$DIMALTD
 70
     2
  9
$DIMALTF
 40
25.399999999999999
  9
$DIMLFAC
 40
1.0
  9
$DIMTOFL
 70
     0
  9
$DIMTVP
 40
1.6000000000000001
  9
$DIMTIX
 70
     1
  9
$DIMSOXD
 70
     0
  9
$DIMSAH
 70
     0
  9
$DIMBLK1
  1

  9
$DIMBLK2
  1

  9
$DIMSTYLE
  2
STANDARD
  9
$DIMCLRD
 70
     0
  9
$DIMCLRE
 70
     0
  9
$DIMCLRT
 70
     0
  9
$DIMTFAC
 40
1.0
  9
$DIMGAP
 40
0.09
  9
$LUNITS
 70
     2
  9
$LUPREC
 70
     4
  9
$SKETCHINC
 40
0.1
  9
$FILLETRAD
 40
2.5
  9
$AUNITS
 70
     0
  9
$AUPREC
 70
     0
  9
$MENU
  1
E:\r13\win\SUPPORT\ACAD
  9
$ELEVATION
 40
0.0
  9
$PELEVATION
 40
0.0
  9
$THICKNESS
 40
0.0
  9
$LIMCHECK
 70
     0
  9
$BLIPMODE
 70
     0
  9
$CHAMFERA
 40
0.0
  9
$CHAMFERB
 40
0.0
  9
$SKPOLY
 70
     0
  9
$TDCREATE
 40
2448650.5678784722
  9
$TDUPDATE
 40
2456598.5910612852
  9
$TDINDWG
 40
0.1127209144
  9
$TDUSRTIMER
 40
0.1127209144
  9
$USRTIMER
 70
     1
  9
$ANGBASE
 50
0.0
  9
$ANGDIR
 70
     0
  9
$PDMODE
 70
     0
  9
$PDSIZE
 40
0.0
  9
$PLINEWID
 40
0.0
  9
$COORDS
 70
     1
  9
$SPLFRAME
 70
     0
  9
$SPLINETYPE
 70
     6
  9
$SPLINESEGS
 70
     8
  9
$ATTDIA
 70
     0
  9
$ATTREQ
 70
     1
  9
$HANDLING
 70
     1
  9
$HANDSEED
  5
99C
  9
$SURFTAB1
 70
     6
  9
$SURFTAB2
 70
     6
  9
$SURFTYPE
 70
     6
  9
$SURFU
 70
     6
  9
$SURFV
 70
     6
  9
$UCSNAME
  2

  9
$UCSORG
 10
0.0
 20
0.0
 30
0.0
  9
$UCSXDIR
 10
1.0
 20
0.0
 30
0.0
  9
$UCSYDIR
 10
0.0
 20
1.0
 30
0.0
  9
$PUCSNAME
  2

  9
$PUCSORG
 10
0.0
 20
0.0
 30
0.0
  9
$PUCSXDIR
 10
1.0
 20
0.0
 30
0.0
  9
$PUCSYDIR
 10
0.0
 20
1.0
 30
0.0
  9
$USERI1
 70
     0
  9
$USERI2
 70
     1
  9
$USERI3
 70
     1
  9
$USERI4
 70
     0
  9
$USERI5
 70
     0
  9
$USERR1
 40
0.0
  9
$USERR2
 40
0.0
  9
$USERR3
 40
0.0
  9
$USERR4
 40
0.0
  9
$USERR5
 40
0.0
  9
$WORLDVIEW
 70
     1
  9
$SHADEDGE
 70
     3
  9
$SHADEDIF
 70
    70
  9
$TILEMODE
 70
     1
  9
$MAXACTVP
 70
    16
  9
$PLIMCHECK
 70
     0
  9
$PEXTMIN
 10
1.0000000000000000E+020
 20
1.0000000000000000E+020
 30
1.0000000000000000E+020
  9
$PEXTMAX
 10
-1.0000000000000000E+020
 20
-1.0000000000000000E+020
 30
-1.0000000000000000E+020
  9
$PLIMMIN
 10
0.0
 20
0.0
  9
$PLIMMAX
 10
12.0
 20
9.0
  9
$UNITMODE
 70
     0
  9
$VISRETAIN
 70
     0
  9
$PLINEGEN
 70
     1
  9
$PSLTSCALE
 70
     0
  0
ENDSEC
  0
SECTION
  2
TABLES
  0
TABLE
  2
VPORT
 70
     1
  0
VPORT
  2
*ACTIVE
 70
     0
 10
0.0
 20
0.0
 11
1.0
 21
1.0
 12
195.01701172807989
 22
134.25430329196891
 13
0.0
 23
0.0
 14
10.0
 24
10.0
 15
10.0
 25
10.0
 16
0.0
 26
0.0
 36
1.0
 17
0.0
 27
0.0
 37
0.0
 40
273.92629380544389
 41
1.831871345029239
 42
50.0
 43
0.0
 44
0.0
 50
0.0
 51
0.0
 71
     0
 72
   500
 73
     1
 74
     0
 75
     0
 76
     0
 77
     0
 78
     2
  0
ENDTAB
  0
TABLE
  2
LTYPE
 70
     4
  0
LTYPE
  2
CONTINUOUS
 70
     0
  3
Solid Line
 72
    65
 73
     0
 40
0.0
  0
LTYPE
  2
CENTER
 70
     0
  3
____ _ ____ _ ____ _ ____ _ ____ _ ____ _ ____
 72
    65
 73
     4
 40
2.0
 49
1.25
 49
-0.25
 49
0.25
 49
-0.25
  0
LTYPE
  2
PHANTOM
 70
     0
  3
_____ _ _ _____ _ _ _____ _ _ _____ _ _ ____
 72
    65
 73
     6
 40
2.5
 49
1.25
 49
-0.25
 49
0.25
 49
-0.25
 49
0.25
 49
-0.25
  0
LTYPE
  2
PHANTOM2
 70
     0
  3
___ _ _ ___ _ _ ___ _ _ ___ _ _
 72
    65
 73
     6
 40
1.25
 49
0.625
 49
-0.125
 49
0.125
 49
-0.125
 49
0.125
 49
-0.125
  0
ENDTAB
  0
TABLE
  2
LAYER
 70
     3
  0
LAYER
  2
0
 70
     0
 62
     7
  6
CONTINUOUS
  0
LAYER
  2
1
 70
     0
 62
     1
  6
CENTER
  0
LAYER
  2
5
 70
     0
 62
     3
  6
PHANTOM
  0
ENDTAB
  0
TABLE
  2
STYLE
 70
     2
  0
STYLE
  2
STANDARD
 70
     0
 40
0.0
 41
1.0
 50
0.0
 71
     0
 42
2.0
  3
TXT
  4
BIGFONT
  0
STYLE
  2
STANDARD1
 70
     0
 40
0.0
 41
1.0
 50
0.0
 71
     0
 42
3.0
  3
txt
  4

  0
ENDTAB
  0
TABLE
  2
VIEW
 70
     1
  0
VIEW
  2
ALL
 70
     0
 40
270.0
 10
220.99159663865549
 20
135.0
 41
0.0
 11
0.0
 21
0.0
 31
1.0
 12
0.0
 22
0.0
 32
0.0
 42
0.0
 43
0.0
 44
0.0
 50
0.0
 71
     0
  0
ENDTAB
  0
TABLE
  2
UCS
 70
     0
  0
ENDTAB
  0
TABLE
  2
APPID
 70
     3
  0
APPID
  2
ACAD
 70
     0
  0
APPID
  2
ACAD_MLEADERVER
 70
     0
  0
APPID
  2
ACAD_NAV_VCDISPLAY
 70
     0
  0
ENDTAB
  0
TABLE
  2
DIMSTYLE
 70
     1
  0
DIMSTYLE
  2
STANDARD
 70
     0
  3

  4

  5

  6

  7

 40
1.0
 41
0.18
 42
0.0625
 43
0.38
 44
0.18
 45
0.0
 46
0.0
 47
0.0
 48
0.0
140
0.18
141
0.09
142
0.0
143
25.399999999999999
144
1.0
145
0.0
146
1.0
147
0.09
 71
     0
 72
     0
 73
     1
 74
     1
 75
     0
 76
     0
 77
     0
 78
     0
170
     0
171
     2
172
     0
173
     0
174
     0
175
     0
176
     0
177
     0
178
     0
  0
ENDTAB
  0
ENDSEC
  0
SECTION
  2
BLOCKS
  0
BLOCK
  8
0
  2
$MODEL_SPACE
 70
     0
 10
0.0
 20
0.0
 30
0.0
  3
$MODEL_SPACE
  1

  0
ENDBLK
  5
217
  8
0
  0
BLOCK
 67
     1
  8
0
  2
$PAPER_SPACE
 70
     0
 10
0.0
 20
0.0
 30
0.0
  3
$PAPER_SPACE
  1

  0
ENDBLK
  5
215
 67
     1
  8
0
  0
ENDSEC
  0
SECTION
  2
ENTITIES
  0
LINE
  5
6ED
  8
1
 10
27.060451101156669
 20
47.890449715035061
 30
0.0
 11
18.060451101156669
 21
47.890449715035061
 31
0.0
  0
LINE
  5
6EE
  8
1
 10
22.560451101156669
 20
52.390449715035061
 30
0.0
 11
22.560451101156669
 21
43.390449715035061
 31
0.0
  0
CIRCLE
  5
718
  8
0
 10
22.560451101156669
 20
47.890449715035061
 30
0.0
 40
2.0
  0
CIRCLE
  5
722
  8
0
 10
46.560451101156673
 20
47.890449715035061
 30
0.0
 40
2.0
  0
LINE
  5
723
  8
1
 10
51.060451101156673
 20
47.890449715035061
 30
0.0
 11
42.060451101156673
 21
47.890449715035061
 31
0.0
  0
LINE
  5
724
  8
1
 10
46.560451101156673
 20
52.390449715035061
 30
0.0
 11
46.560451101156673
 21
43.390449715035061
 31
0.0
  0
LINE
  5
725
  8
5
 10
64.31045110115673
 20
49.890449715035061
 30
0.0
 11
75.060451101156616
 21
49.890449715035061
 31
0.0
  0
LINE
  5
726
  8
5
 10
65.06045110115673
 20
45.890449715035061
 30
0.0
 11
75.810451101156616
 21
45.890449715035039
 31
0.0
  0
ARC
  5
779
  8
0
 10
63.560451101156787
 20
49.590449715035049
 30
0.0
 40
0.3
 50
269.99999999998909
 51
90.000000000010857
  0
ARC
  5
77A
  8
0
 10
63.560451101156723
 20
46.190449715035037
 30
0.0
 40
0.3
 50
269.99999999998909
 51
90.000000000010857
  0
CIRCLE
  5
782
  8
0
 10
65.06045110115673
 20
46.190449715035037
 30
0.0
 40
0.3
  0
CIRCLE
  5
783
  8
0
 10
64.31045110115673
 20
49.590449715035049
 30
0.0
 40
0.3
  0
LINE
  5
786
  8
0
 10
64.760451101156718
 20
46.190449715035037
 30
0.0
 11
64.010451101156718
 21
49.590449715035049
 31
0.0
  0
LINE
  5
787
  8
0
 10
64.610451101156741
 20
49.590449715035049
 30
0.0
 11
65.360451101156741
 21
46.190449715035037
 31
0.0
  0
LINE
  5
789
  8
0
 10
63.560451101156673
 20
45.890449715035039
 30
0.0
 11
63.560451101156673
 21
49.890449715035047
 31
0.0
  0
LINE
  5
78A
  8
0
 10
63.860451101156741
 20
46.190449715035037
 30
0.0
 11
63.860451101156798
 21
49.590449715035049
 31
0.0
  0
CIRCLE
  5
792
  8
0
 10
75.810451101156616
 20
46.190449715035037
 30
0.0
 40
0.3
  0
LINE
  5
793
  8
0
 10
75.510451101156605
 20
46.190449715035037
 30
0.0
 11
74.760451101156605
 21
49.590449715035049
 31
0.0
  0
LINE
  5
794
  8
0
 10
75.360451101156613
 20
49.590449715035049
 30
0.0
 11
76.110451101156627
 21
46.190449715035037
 31
0.0
  0
CIRCLE
  5
795
  8
0
 10
75.060451101156616
 20
49.590449715035049
 30
0.0
 40
0.3
  0
LINE
  5
79B
  8
1
 10
61.060451101156673
 20
47.890449715035061
 30
0.0
 11
79.06045110115673
 21
47.890449715035047
 31
0.0
  0
LINE
  5
7A2
  8
1
 10
61.060451101156673
 20
67.890449715035061
 30
0.0
 11
79.06045110115673
 21
67.890449715035061
 31
0.0
  0
CIRCLE
  5
7A3
  8
0
 10
75.810451101156616
 20
69.590449715035049
 30
0.0
 40
0.3
  0
LINE
  5
7A4
  8
0
 10
76.110451101156627
 20
69.590449715035049
 30
0.0
 11
76.110451101156627
 21
66.190449715035044
 31
0.0
  0
LINE
  5
7A5
  8
0
 10
75.510451101156605
 20
66.190449715035044
 30
0.0
 11
75.510451101156605
 21
69.590449715035049
 31
0.0
  0
CIRCLE
  5
7A6
  8
0
 10
75.810451101156616
 20
66.190449715035044
 30
0.0
 40
0.3
  0
ARC
  5
7A8
  8
0
 10
76.560451101156545
 20
69.590449715035049
 30
0.0
 40
0.3
 50
89.999999999989157
 51
270.0000000000108
  0
ARC
  5
7A9
  8
0
 10
76.560451101156616
 20
66.190449715035044
 30
0.0
 40
0.3
 50
89.999999999989157
 51
270.0000000000108
  0
LINE
  5
7AA
  8
0
 10
76.260451101156605
 20
66.190449715035044
 30
0.0
 11
76.260451101156534
 21
69.590449715035049
 31
0.0
  0
LINE
  5
7AB
  8
0
 10
76.560451101156673
 20
65.890449715035047
 30
0.0
 11
76.560451101156673
 21
69.890449715035061
 31
0.0
  0
LINE
  5
7AC
  8
0
 10
63.860451101156741
 20
66.190449715035044
 30
0.0
 11
63.860451101156798
 21
69.590449715035049
 31
0.0
  0
LINE
  5
7AD
  8
0
 10
63.560451101156673
 20
65.890449715035047
 30
0.0
 11
63.560451101156673
 21
69.890449715035061
 31
0.0
  0
LINE
  5
7AE
  8
0
 10
64.610451101156741
 20
69.590449715035049
 30
0.0
 11
64.610451101156684
 21
66.190449715035044
 31
0.0
  0
LINE
  5
7AF
  8
0
 10
64.010451101156661
 20
66.190449715035044
 30
0.0
 11
64.010451101156718
 21
69.590449715035049
 31
0.0
  0
CIRCLE
  5
7B1
  8
0
 10
64.31045110115673
 20
69.590449715035049
 30
0.0
 40
0.3
  0
CIRCLE
  5
7B2
  8
0
 10
64.310451101156673
 20
66.190449715035044
 30
0.0
 40
0.3
  0
ARC
  5
7B3
  8
0
 10
63.560451101156723
 20
66.190449715035044
 30
0.0
 40
0.3
 50
269.99999999998909
 51
90.000000000010857
  0
ARC
  5
7B4
  8
0
 10
63.560451101156787
 20
69.590449715035049
 30
0.0
 40
0.3
 50
269.99999999998909
 51
90.000000000010857
  0
LINE
  5
7B5
  8
5
 10
64.310451101156673
 20
65.890449715035061
 30
0.0
 11
75.810451101156616
 21
65.890449715035047
 31
0.0
  0
LINE
  5
7B6
  8
5
 10
64.31045110115673
 20
69.890449715035061
 30
0.0
 11
75.810451101156616
 21
69.890449715035061
 31
0.0
  0
LINE
  5
7B8
  8
5
 10
65.06045110115673
 20
46.490449715035048
 30
0.0
 11
75.810451101156616
 21
46.490449715035027
 31
0.0
  0
LINE
  5
7B9
  8
5
 10
64.31045110115673
 20
49.290449715035059
 30
0.0
 11
75.060451101156616
 21
49.290449715035074
 31
0.0
  0
LINE
  5
7BA
  8
5
 10
64.310451101156673
 20
66.490449715035055
 30
0.0
 11
75.810451101156616
 21
66.490449715035027
 31
0.0
  0
LINE
  5
7BC
  8
5
 10
64.31045110115673
 20
69.290449715035052
 30
0.0
 11
75.810451101156616
 21
69.290449715035052
 31
0.0
  0
LINE
  5
7BD
  8
1
 10
46.560451101156673
 20
72.390449715035061
 30
0.0
 11
46.560451101156673
 21
63.390449715035061
 31
0.0
  0
LINE
  5
7BE
  8
1
 10
51.060451101156673
 20
67.890449715035061
 30
0.0
 11
42.060451101156673
 21
67.890449715035061
 31
0.0
  0
CIRCLE
  5
7BF
  8
0
 10
46.560451101156673
 20
67.890449715035061
 30
0.0
 40
2.0
  0
CIRCLE
  5
7C0
  8
0
 10
46.560451101156673
 20
27.890449715035071
 30
0.0
 40
2.0
  0
LINE
  5
7C1
  8
1
 10
51.060451101156673
 20
27.890449715035071
 30
0.0
 11
42.060451101156673
 21
27.890449715035071
 31
0.0
  0
LINE
  5
7C2
  8
1
 10
46.560451101156673
 20
32.390449715035068
 30
0.0
 11
46.560451101156673
 21
23.390449715035061
 31
0.0
  0
LINE
  5
7C3
  8
5
 10
64.31045110115673
 20
29.290449715035049
 30
0.0
 11
75.810451101156616
 21
29.290449715035049
 31
0.0
  0
LINE
  5
7C4
  8
5
 10
64.310451101156673
 20
26.490449715035052
 30
0.0
 11
75.810451101156616
 21
26.49044971503503
 31
0.0
  0
LINE
  5
7C5
  8
5
 10
64.31045110115673
 20
29.890449715035061
 30
0.0
 11
75.810451101156616
 21
29.890449715035061
 31
0.0
  0
LINE
  5
7C6
  8
5
 10
64.310451101156673
 20
25.890449715035061
 30
0.0
 11
75.810451101156616
 21
25.89044971503505
 31
0.0
  0
ARC
  5
7C7
  8
0
 10
63.560451101156787
 20
29.590449715035049
 30
0.0
 40
0.3
 50
269.99999999998909
 51
90.000000000010857
  0
ARC
  5
7C8
  8
0
 10
63.560451101156723
 20
26.190449715035051
 30
0.0
 40
0.3
 50
269.99999999998909
 51
90.000000000010857
  0
CIRCLE
  5
7C9
  8
0
 10
64.310451101156673
 20
26.190449715035051
 30
0.0
 40
0.3
  0
CIRCLE
  5
7CA
  8
0
 10
64.31045110115673
 20
29.590449715035049
 30
0.0
 40
0.3
  0
LINE
  5
7CB
  8
0
 10
64.010451101156661
 20
26.190449715035051
 30
0.0
 11
64.010451101156718
 21
29.590449715035049
 31
0.0
  0
LINE
  5
7CC
  8
0
 10
64.610451101156741
 20
29.590449715035049
 30
0.0
 11
64.610451101156684
 21
26.190449715035051
 31
0.0
  0
LINE
  5
7CD
  8
0
 10
63.560451101156673
 20
25.89044971503505
 30
0.0
 11
63.560451101156673
 21
29.890449715035061
 31
0.0
  0
LINE
  5
7CE
  8
0
 10
63.860451101156741
 20
26.190449715035051
 30
0.0
 11
63.860451101156798
 21
29.590449715035049
 31
0.0
  0
LINE
  5
7CF
  8
0
 10
76.560451101156673
 20
25.89044971503505
 30
0.0
 11
76.560451101156673
 21
29.890449715035061
 31
0.0
  0
LINE
  5
7D0
  8
0
 10
76.260451101156605
 20
26.190449715035051
 30
0.0
 11
76.260451101156534
 21
29.590449715035049
 31
0.0
  0
ARC
  5
7D1
  8
0
 10
76.560451101156616
 20
26.190449715035051
 30
0.0
 40
0.3
 50
89.999999999989157
 51
270.0000000000108
  0
ARC
  5
7D2
  8
0
 10
76.560451101156545
 20
29.590449715035049
 30
0.0
 40
0.3
 50
89.999999999989157
 51
270.0000000000108
  0
CIRCLE
  5
7D3
  8
0
 10
75.810451101156616
 20
26.190449715035051
 30
0.0
 40
0.3
  0
LINE
  5
7D4
  8
0
 10
75.510451101156605
 20
26.190449715035051
 30
0.0
 11
75.510451101156605
 21
29.590449715035049
 31
0.0
  0
LINE
  5
7D5
  8
0
 10
76.110451101156627
 20
29.590449715035049
 30
0.0
 11
76.110451101156627
 21
26.190449715035051
 31
0.0
  0
CIRCLE
  5
7D6
  8
0
 10
75.810451101156616
 20
29.590449715035049
 30
0.0
 40
0.3
  0
LINE
  5
7D7
  8
1
 10
61.060451101156673
 20
27.890449715035061
 30
0.0
 11
79.06045110115673
 21
27.890449715035061
 31
0.0
  0
LINE
  5
7D8
  8
1
 10
98.560451101156673
 20
52.390449715035061
 30
0.0
 11
98.560451101156673
 21
43.390449715035061
 31
0.0
  0
LINE
  5
7D9
  8
1
 10
94.060451101156687
 20
47.890449715035061
 30
0.0
 11
103.0604511011566
 21
47.890449715035061
 31
0.0
  0
CIRCLE
  5
7E4
  8
0
 10
98.560451101156673
 20
47.890449715035061
 30
0.0
 40
2.0
  0
CIRCLE
  5
7E5
  8
0
 10
98.560451101156673
 20
47.890449715035061
 30
0.0
 40
1.399999999999999
  0
LINE
  5
7EC
  8
0
 10
96.82286756914614
 20
48.880804938823857
 30
0.0
 11
97.344142628749296
 21
48.58369837168722
 31
0.0
  0
LINE
  5
7FA
  8
0
 10
63.821107858412972
 20
46.338969258855613
 30
0.0
 11
63.560451101156623
 21
46.900094491246222
 31
0.0
  0
LINE
  5
856
  8
0
 10
76.260451101156661
 20
46.190449715035037
 30
0.0
 11
76.260451101156605
 21
49.590449715035049
 31
0.0
  0
LINE
  5
857
  8
0
 10
76.56045110115673
 20
45.890449715035039
 30
0.0
 11
76.56045110115673
 21
49.890449715035047
 31
0.0
  0
ARC
  5
858
  8
0
 10
76.560451101156673
 20
46.190449715035037
 30
0.0
 40
0.3
 50
89.999999999989157
 51
270.0000000000108
  0
ARC
  5
859
  8
0
 10
76.560451101156616
 20
49.590449715035049
 30
0.0
 40
0.3
 50
89.999999999989157
 51
270.0000000000108
  0
LINE
  5
85F
  8
0
 10
76.299794343900373
 20
49.441930171214487
 30
0.0
 11
76.56045110115673
 21
48.880804938823879
 31
0.0
  0
TEXT
  5
90D
  8
0
 62
     3
 10
0.0
 20
0.0
 30
0.0
 40
5.0
  1
CLB32
  7
STANDARD1
  0
ENDSEC
  0
EOF
