  0
SECTION
  2
HEADER
  9
$ACADVER
  1
AC1009
  9
$INSBASE
 10
0.0
 20
0.0
 30
0.0
  9
$EXTMIN
 10
0.0
 20
-2.960436562073669
 30
0.0
  9
$EXTMAX
 10
328.40603073792141
 20
233.40000000000001
 30
0.0
  9
$LIMMIN
 10
0.0
 20
0.0
  9
$LIMMAX
 10
375.0
 20
270.0
  9
$ORTHOMODE
 70
     1
  9
$REGENMODE
 70
     1
  9
$FILLMODE
 70
     1
  9
$QTEXTMODE
 70
     0
  9
$MIRRTEXT
 70
     0
  9
$DRAGMODE
 70
     2
  9
$LTSCALE
 40
10.0
  9
$OSMODE
 70
  3071
  9
$ATTMODE
 70
     1
  9
$TEXTSIZE
 40
4.000000000000048
  9
$TRACEWID
 40
0.05
  9
$TEXTSTYLE
  7
STANDARD
  9
$CLAYER
  8
0
  9
$CELTYPE
  6
BYLAYER
  9
$CECOLOR
 62
   256
  9
$DIMSCALE
 40
1.0
  9
$DIMASZ
 40
3.0
  9
$DIMEXO
 40
2.0
  9
$DIMDLI
 40
0.38
  9
$DIMRND
 40
0.0
  9
$DIMDLE
 40
0.0
  9
$DIMEXE
 40
2.0
  9
$DIMTP
 40
0.0
  9
$DIMTM
 40
0.0
  9
$DIMTXT
 40
3.2000000000000002
  9
$DIMCEN
 40
0.0
  9
$DIMTSZ
 40
0.0
  9
$DIMTOL
 70
     0
  9
$DIMLIM
 70
     0
  9
$DIMTIH
 70
     0
  9
$DIMTOH
 70
     0
  9
$DIMSE1
 70
     0
  9
$DIMSE2
 70
     0
  9
$DIMTAD
 70
     1
  9
$DIMZIN
 70
     0
  9
$DIMBLK
  1

  9
$DIMASO
 70
     1
  9
$DIMSHO
 70
     0
  9
$DIMPOST
  1

  9
$DIMAPOST
  1

  9
$DIMALT
 70
     0
  9
$DIMALTD
 70
     2
  9
$DIMALTF
 40
25.399999999999999
  9
$DIMLFAC
 40
1.0
  9
$DIMTOFL
 70
     1
  9
$DIMTVP
 40
1.6000000000000001
  9
$DIMTIX
 70
     1
  9
$DIMSOXD
 70
     0
  9
$DIMSAH
 70
     0
  9
$DIMBLK1
  1

  9
$DIMBLK2
  1

  9
$DIMSTYLE
  2
STANDARD
  9
$DIMCLRD
 70
     0
  9
$DIMCLRE
 70
     0
  9
$DIMCLRT
 70
     0
  9
$DIMTFAC
 40
1.0
  9
$DIMGAP
 40
0.09
  9
$LUNITS
 70
     2
  9
$LUPREC
 70
     4
  9
$SKETCHINC
 40
0.1
  9
$FILLETRAD
 40
0.0
  9
$AUNITS
 70
     0
  9
$AUPREC
 70
     4
  9
$MENU
  1
E:\r13\win\SUPPORT\ACAD
  9
$ELEVATION
 40
0.0
  9
$PELEVATION
 40
0.0
  9
$THICKNESS
 40
0.0
  9
$LIMCHECK
 70
     0
  9
$BLIPMODE
 70
     0
  9
$CHAMFERA
 40
0.0
  9
$CHAMFERB
 40
0.0
  9
$SKPOLY
 70
     0
  9
$TDCREATE
 40
2449839.789988426
  9
$TDUPDATE
 40
2456598.5909571992
  9
$TDINDWG
 40
0.000180787
  9
$TDUSRTIMER
 40
0.000180787
  9
$USRTIMER
 70
     1
  9
$ANGBASE
 50
0.0
  9
$ANGDIR
 70
     0
  9
$PDMODE
 70
     0
  9
$PDSIZE
 40
0.0
  9
$PLINEWID
 40
0.0
  9
$COORDS
 70
     1
  9
$SPLFRAME
 70
     0
  9
$SPLINETYPE
 70
     6
  9
$SPLINESEGS
 70
     8
  9
$ATTDIA
 70
     0
  9
$ATTREQ
 70
     1
  9
$HANDLING
 70
     1
  9
$HANDSEED
  5
3AA
  9
$SURFTAB1
 70
     6
  9
$SURFTAB2
 70
     6
  9
$SURFTYPE
 70
     6
  9
$SURFU
 70
     6
  9
$SURFV
 70
     6
  9
$UCSNAME
  2

  9
$UCSORG
 10
0.0
 20
0.0
 30
0.0
  9
$UCSXDIR
 10
1.0
 20
0.0
 30
0.0
  9
$UCSYDIR
 10
0.0
 20
1.0
 30
0.0
  9
$PUCSNAME
  2

  9
$PUCSORG
 10
0.0
 20
0.0
 30
0.0
  9
$PUCSXDIR
 10
1.0
 20
0.0
 30
0.0
  9
$PUCSYDIR
 10
0.0
 20
1.0
 30
0.0
  9
$USERI1
 70
     0
  9
$USERI2
 70
     1
  9
$USERI3
 70
     1
  9
$USERI4
 70
     0
  9
$USERI5
 70
     0
  9
$USERR1
 40
0.0
  9
$USERR2
 40
0.0
  9
$USERR3
 40
0.0
  9
$USERR4
 40
0.0
  9
$USERR5
 40
0.0
  9
$WORLDVIEW
 70
     1
  9
$SHADEDGE
 70
     3
  9
$SHADEDIF
 70
    70
  9
$TILEMODE
 70
     1
  9
$MAXACTVP
 70
    16
  9
$PLIMCHECK
 70
     0
  9
$PEXTMIN
 10
1.0000000000000000E+020
 20
1.0000000000000000E+020
 30
1.0000000000000000E+020
  9
$PEXTMAX
 10
-1.0000000000000000E+020
 20
-1.0000000000000000E+020
 30
-1.0000000000000000E+020
  9
$PLIMMIN
 10
0.0
 20
0.0
  9
$PLIMMAX
 10
12.0
 20
9.0
  9
$UNITMODE
 70
     0
  9
$VISRETAIN
 70
     0
  9
$PLINEGEN
 70
     0
  9
$PSLTSCALE
 70
     0
  0
ENDSEC
  0
SECTION
  2
TABLES
  0
TABLE
  2
VPORT
 70
     1
  0
VPORT
  2
*ACTIVE
 70
     0
 10
0.0
 20
0.0
 11
1.0
 21
1.0
 12
195.0581083320873
 22
133.5127261426681
 13
0.0
 23
0.0
 14
10.0
 24
10.0
 15
10.0
 25
10.0
 16
0.0
 26
0.0
 36
1.0
 17
0.0
 27
0.0
 37
0.0
 40
275.42274993631997
 41
1.831871345029239
 42
50.0
 43
0.0
 44
0.0
 50
0.0
 51
0.0
 71
     0
 72
   500
 73
     1
 74
     0
 75
     0
 76
     0
 77
     0
 78
     2
  0
ENDTAB
  0
TABLE
  2
LTYPE
 70
     4
  0
LTYPE
  2
CONTINUOUS
 70
     0
  3
Solid Line
 72
    65
 73
     0
 40
0.0
  0
LTYPE
  2
CENTER
 70
     0
  3
____ _ ____ _ ____ _ ____ _ ____ _ ____ _ ____
 72
    65
 73
     4
 40
2.0
 49
1.25
 49
-0.25
 49
0.25
 49
-0.25
  0
LTYPE
  2
HIDDEN
 70
     0
  3
_ _ _ _ _ _ _ _ _ _ _ _ _ _ _ _ _ _ _ _ _ _ _
 72
    65
 73
     2
 40
0.375
 49
0.25
 49
-0.125
  0
LTYPE
  2
PHANTOM2
 70
     0
  3
___ _ _ ___ _ _ ___ _ _ ___ _ _
 72
    65
 73
     6
 40
1.25
 49
0.625
 49
-0.125
 49
0.125
 49
-0.125
 49
0.125
 49
-0.125
  0
ENDTAB
  0
TABLE
  2
LAYER
 70
     3
  0
LAYER
  2
0
 70
     0
 62
     7
  6
CONTINUOUS
  0
LAYER
  2
1
 70
     0
 62
     1
  6
CENTER
  0
LAYER
  2
2
 70
     0
 62
     2
  6
HIDDEN
  0
ENDTAB
  0
TABLE
  2
STYLE
 70
     2
  0
STYLE
  2
STANDARD
 70
     0
 40
0.0
 41
1.0
 50
0.0
 71
     0
 42
4.000000000000048
  3
TXT
  4
BIGFONT
  0
STYLE
  2
STANDARD1
 70
     0
 40
0.0
 41
1.0
 50
0.0
 71
     0
 42
3.0
  3
txt
  4

  0
ENDTAB
  0
TABLE
  2
VIEW
 70
     1
  0
VIEW
  2
ALL
 70
     0
 40
270.0
 10
220.99159663865549
 20
135.0
 41
0.0
 11
0.0
 21
0.0
 31
1.0
 12
0.0
 22
0.0
 32
0.0
 42
0.0
 43
0.0
 44
0.0
 50
0.0
 71
     0
  0
ENDTAB
  0
TABLE
  2
UCS
 70
     0
  0
ENDTAB
  0
TABLE
  2
APPID
 70
     3
  0
APPID
  2
ACAD
 70
     0
  0
APPID
  2
ACAD_MLEADERVER
 70
     0
  0
APPID
  2
ACAD_NAV_VCDISPLAY
 70
     0
  0
ENDTAB
  0
TABLE
  2
DIMSTYLE
 70
     1
  0
DIMSTYLE
  2
STANDARD
 70
     0
  3

  4

  5

  6

  7

 40
1.0
 41
0.18
 42
0.0625
 43
0.38
 44
0.18
 45
0.0
 46
0.0
 47
0.0
 48
0.0
140
0.18
141
0.09
142
0.0
143
25.399999999999999
144
1.0
145
0.0
146
1.0
147
0.09
 71
     0
 72
     0
 73
     1
 74
     1
 75
     0
 76
     0
 77
     0
 78
     0
170
     0
171
     2
172
     0
173
     0
174
     0
175
     0
176
     0
177
     0
178
     0
  0
ENDTAB
  0
ENDSEC
  0
SECTION
  2
BLOCKS
  0
BLOCK
  8
0
  2
$MODEL_SPACE
 70
     0
 10
0.0
 20
0.0
 30
0.0
  3
$MODEL_SPACE
  1

  0
ENDBLK
  5
22B
  8
0
  0
BLOCK
 67
     1
  8
0
  2
$PAPER_SPACE
 70
     0
 10
0.0
 20
0.0
 30
0.0
  3
$PAPER_SPACE
  1

  0
ENDBLK
  5
229
 67
     1
  8
0
  0
ENDSEC
  0
SECTION
  2
ENTITIES
  0
LINE
  5
35
  8
0
 10
151.59999999999999
 20
120.0
 30
0.0
 11
188.40000000000001
 21
120.0
 31
0.0
  0
LINE
  5
36
  8
0
 10
185.87450786638749
 20
130.0
 30
0.0
 11
151.59999999999999
 21
130.0
 31
0.0
  0
LINE
  5
37
  8
0
 10
183.8191774203035
 20
139.69999999999999
 30
0.0
 11
156.1808225796965
 21
139.69999999999999
 31
0.0
  0
LINE
  5
38
  8
0
 10
188.5
 20
123.2
 30
0.0
 11
185.87450786638749
 21
123.2
 31
0.0
  0
LINE
  5
39
  8
0
 10
185.87450786638749
 20
123.2
 30
0.0
 11
185.87450786638749
 21
130.0
 31
0.0
  0
LINE
  5
3A
  8
0
 10
185.87450786638749
 20
130.0
 30
0.0
 11
182.63517278141779
 21
138.90000000000001
 31
0.0
  0
LINE
  5
3B
  8
0
 10
182.63517278141779
 20
138.90000000000001
 30
0.0
 11
185.2606649150309
 21
138.90000000000001
 31
0.0
  0
LINE
  5
3C
  8
0
 10
185.26066491503099
 20
138.90000000000001
 30
0.0
 11
190.5
 21
138.90000000000001
 31
0.0
  0
LINE
  5
3D
  8
0
 10
192.5
 20
123.2
 30
0.0
 11
188.5
 21
123.1999999999997
 31
0.0
  0
LINE
  5
3E
  8
0
 10
161.0
 20
120.0
 30
0.0
 11
161.0
 21
119.7
 31
0.0
  0
LINE
  5
3F
  8
0
 10
179.0
 20
119.7
 30
0.0
 11
179.0
 21
120.0
 31
0.0
  0
LINE
  5
40
  8
1
 10
170.0
 20
120.5080776915126
 30
0.0
 11
253.13179136108971
 21
159.27306863933239
 31
0.0
  0
LINE
  5
41
  8
0
 10
242.9494169430217
 20
163.35197282168539
 30
0.0
 11
249.71130913087271
 21
148.8510482290994
 31
0.0
  0
ARC
  5
42
  8
0
 10
221.41101881480699
 20
144.4814294784079
 30
0.0
 40
30.0
 50
9.7424768217385651
 51
40.257523985448671
  0
LINE
  5
43
  8
0
 10
229.7461221056565
 20
138.43775070378149
 30
0.0
 11
250.13393182386571
 21
147.94474250839039
 31
0.0
  0
ARC
  5
44
  8
0
 10
249.50000000000239
 20
149.3042021226176
 30
0.0
 40
1.5
 50
294.99993690541521
 51
9.7424854804411254
  0
ARC
  5
45
  8
0
 10
243.16072607389199
 20
162.8988189281672
 30
0.0
 40
1.5
 50
40.257514519558903
 51
115.0000630945848
  0
LINE
  5
46
  8
0
 10
222.1389933943239
 20
154.7512908704413
 30
0.0
 11
242.5267971842309
 21
164.25827991063639
 31
0.0
  0
ARC
  5
47
  8
0
 10
215.93665272080759
 20
134.45219088738941
 30
0.0
 40
0.8
 50
205.0
 51
289.28940686250041
  0
LINE
  5
48
  8
0
 10
209.48427539770259
 20
146.39639744400489
 30
0.0
 11
215.2116064911782
 21
134.11409627799679
 31
0.0
  0
LINE
  5
49
  8
0
 10
216.20092463465249
 20
133.6971012532712
 30
0.0
 11
229.7461221056565
 21
138.43775070378149
 31
0.0
  0
LINE
  5
4A
  8
0
 10
222.1389933943239
 20
154.75129087044121
 30
0.0
 11
209.8007601208665
 21
147.42229834548471
 31
0.0
  0
LINE
  5
4B
  8
0
 10
222.1389933943239
 20
154.75129087044121
 30
0.0
 11
229.7461221056565
 21
138.43775070378149
 31
0.0
  0
LINE
  5
4C
  8
0
 10
192.5
 20
136.0000000000004
 30
0.0
 11
210.43282983664281
 21
144.36221588521761
 31
0.0
  0
LINE
  5
4D
  8
0
 10
192.5000000000002
 20
126.0000000000005
 30
0.0
 11
214.26305205223781
 21
136.1482778367847
 31
0.0
  0
LINE
  5
4E
  8
0
 10
192.5
 20
136.90000000000001
 30
0.0
 11
192.5
 21
123.2
 31
0.0
  0
ARC
  5
4F
  8
0
 10
190.5
 20
136.90000000000001
 30
0.0
 40
2.0
 50
0.0
 51
90.0
  0
LINE
  5
50
  8
1
 10
170.0
 20
144.69999999999999
 30
0.0
 11
170.0
 21
114.2
 31
0.0
  0
CIRCLE
  5
51
  8
0
 10
170.0
 20
60.0
 30
0.0
 40
9.0000000000000142
  0
CIRCLE
  5
52
  8
0
 10
170.0
 20
60.0
 30
0.0
 40
4.0
  0
CIRCLE
  5
53
  8
0
 10
170.0
 20
60.0
 30
0.0
 40
4.5
  0
LINE
  5
54
  8
1
 10
175.0
 20
73.0
 30
0.0
 11
165.0
 21
73.000000000000014
 31
0.0
  0
LINE
  5
55
  8
1
 10
175.0
 20
47.0
 30
0.0
 11
165.0
 21
47.0
 31
0.0
  0
LINE
  5
56
  8
1
 10
256.00000000000239
 20
60.0
 30
0.0
 11
146.60000000000011
 21
60.0
 31
0.0
  0
LINE
  5
57
  8
1
 10
170.0
 20
83.399999999999821
 30
0.0
 11
170.0
 21
36.59999999999993
 31
0.0
  0
LINE
  5
58
  8
0
 10
192.5
 20
68.004013374011294
 30
0.0
 11
192.5
 21
51.995986625988699
 31
0.0
  0
LINE
  5
59
  8
0
 10
185.87450786638749
 20
69.5
 30
0.0
 11
191.58715574274771
 21
69.00020807210305
 31
0.0
  0
LINE
  5
5A
  8
0
 10
185.87450786638749
 20
50.5
 30
0.0
 11
191.58715574274771
 21
50.99979192789695
 31
0.0
  0
ARC
  5
5B
  8
0
 10
191.5
 20
68.004013374011294
 30
0.0
 40
1.0
 50
359.99999999999977
 51
84.999999999999915
  0
ARC
  5
5C
  8
0
 10
191.5
 20
51.995986625988699
 30
0.0
 40
1.0
 50
275.0
 51
359.99999999999977
  0
LINE
  5
5D
  8
0
 10
212.3479409444405
 20
65.0
 30
0.0
 11
192.5
 21
65.0
 31
0.0
  0
LINE
  5
5E
  8
0
 10
212.3479409444405
 20
55.0
 30
0.0
 11
192.5
 21
55.0
 31
0.0
  0
POLYLINE
  5
5F
  8
0
 66
     1
 10
0.0
 20
0.0
 30
0.0
  0
VERTEX
  5
60
  8
0
 10
212.3479409444405
 20
55.000000000000007
 30
0.0
 42
0.209095400401893
  0
VERTEX
  5
61
  8
0
 10
212.9577735187963
 20
55.266686126485062
 30
0.0
 42
0.0954151108896258
  0
VERTEX
  5
62
  8
0
 10
213.70212899548969
 20
56.464466094067269
 30
0.0
 42
0.052158127834655
 70
     2
 50
69.042049829208111
  0
VERTEX
  5
63
  8
0
 10
214.10212893389169
 20
57.958696449519827
 30
0.0
 42
0.0393557021712679
 50
69.042049829208111
  0
VERTEX
  5
64
  8
0
 10
214.26305205223781
 20
60.0
 30
0.0
 42
0.0393557021712794
  0
VERTEX
  5
65
  8
0
 10
214.10212893389161
 20
62.041303550480279
 30
0.0
 42
0.0521581278346637
  0
VERTEX
  5
66
  8
0
 10
213.70212899548969
 20
63.535533905932731
 30
0.0
 42
0.0954151108895964
 70
     2
 50
110.9579501707919
  0
VERTEX
  5
67
  8
0
 10
212.9577735187963
 20
64.733313873514959
 30
0.0
 42
0.2090954004018561
 50
110.9579501707919
  0
VERTEX
  5
68
  8
0
 10
212.3479409444405
 20
65.0
 30
0.0
 42
0.2090954004018892
  0
SEQEND
  5
69
  8
0
  0
POLYLINE
  5
6A
  8
0
 66
     1
 10
0.0
 20
0.0
 30
0.0
  0
VERTEX
  5
6B
  8
0
 10
212.3479409444405
 20
67.0
 30
0.0
 42
0.1873770534736212
  0
VERTEX
  5
6C
  8
0
 10
211.298024254295
 20
66.592222266892975
 30
0.0
 42
0.0987542361626199
  0
VERTEX
  5
6D
  8
0
 10
210.12975628848909
 20
65.0
 30
0.0
 42
0.0600169768245073
 70
     2
 50
245.63873128775401
  0
SEQEND
  5
6E
  8
0
  0
POLYLINE
  5
6F
  8
0
 66
     1
 10
0.0
 20
0.0
 30
0.0
  0
VERTEX
  5
70
  8
0
 10
210.12975628848949
 20
55.0
 30
0.0
 42
0.0987542361626155
 70
     2
 50
294.3612687122461
  0
VERTEX
  5
71
  8
0
 10
211.298024254295
 20
53.407777733107011
 30
0.0
 42
0.1873770534736198
 50
294.3612687122461
  0
VERTEX
  5
72
  8
0
 10
212.3479409444405
 20
53.0
 30
0.0
 42
0.1873770534736181
  0
VERTEX
  5
73
  8
0
 10
213.39785763458599
 20
53.407777733107018
 30
0.0
 42
0.101520447248999
  0
VERTEX
  5
74
  8
0
 10
214.5892127349164
 20
55.05025253169417
 30
0.0
 42
0.0600169768245043
 70
     2
 50
65.63873128775397
  0
VERTEX
  5
75
  8
0
 10
215.25331925660021
 20
57.157546319760961
 30
0.0
 42
0.0463842385330136
 50
65.63873128775397
  0
VERTEX
  5
76
  8
0
 10
215.51757790749571
 20
60.0
 30
0.0
 42
0.0463842385330153
  0
VERTEX
  5
77
  8
0
 10
215.25331925660021
 20
62.842453680238918
 30
0.0
 42
0.060016976824512
  0
VERTEX
  5
78
  8
0
 10
214.5892127349164
 20
64.94974746830583
 30
0.0
 42
0.1015204472490039
 70
     2
 50
114.361268712246
  0
VERTEX
  5
79
  8
0
 10
213.39785763458599
 20
66.592222266893032
 30
0.0
 42
0.1873770534736094
 50
114.361268712246
  0
VERTEX
  5
7A
  8
0
 10
212.3479409444405
 20
67.0
 30
0.0
 42
0.1873770534736212
  0
SEQEND
  5
7B
  8
0
  0
LINE
  5
7C
  8
0
 10
246.3303630369472
 20
69.0
 30
0.0
 11
225.94255774999019
 21
69.0
 31
0.0
  0
LINE
  5
7D
  8
0
 10
246.3303630369472
 20
51.0
 30
0.0
 11
225.94255774999019
 21
51.000000000000007
 31
0.0
  0
LINE
  5
7E
  8
0
 10
212.34794094444041
 20
67.00000000000162
 30
0.0
 11
225.94255774999019
 21
69.0
 31
0.0
  0
LINE
  5
7F
  8
0
 10
212.34794094444041
 20
52.999999999998209
 30
0.0
 11
225.94255774999019
 21
51.0
 31
0.0
  0
POLYLINE
  5
80
  8
0
 66
     1
 10
0.0
 20
0.0
 30
0.0
  0
VERTEX
  5
81
  8
0
 10
225.9425577499901
 20
51.0
 30
0.0
 42
0.1963035385081511
  0
VERTEX
  5
82
  8
0
 10
227.1823784781667
 20
51.50627160866587
 30
0.0
 42
0.0992211290414754
  0
VERTEX
  5
83
  8
0
 10
228.63208389856121
 20
53.636038969321042
 30
0.0
 42
0.0566989648329719
 70
     2
 50
67.090192874856172
  0
VERTEX
  5
84
  8
0
 10
229.42789152867269
 20
56.336561881841931
 30
0.0
 42
0.043351695034915
 50
67.090192874856172
  0
VERTEX
  5
85
  8
0
 10
229.7461221056565
 20
59.999999999999972
 30
0.0
 42
0.0433516950349047
  0
VERTEX
  5
86
  8
0
 10
229.4278915286728
 20
63.663438118157842
 30
0.0
 42
0.0566989648329653
  0
VERTEX
  5
87
  8
0
 10
228.63208389856129
 20
66.363961030678908
 30
0.0
 42
0.099221129041472
 70
     2
 50
112.9098071251431
  0
VERTEX
  5
88
  8
0
 10
227.1823784781669
 20
68.493728391334102
 30
0.0
 42
0.1963035385081468
 50
112.9098071251431
  0
VERTEX
  5
89
  8
0
 10
225.94255774999019
 20
69.0
 30
0.0
 42
0.1963035385081402
  0
SEQEND
  5
8A
  8
0
  0
POLYLINE
  5
8B
  8
0
 66
     1
 10
0.0
 20
0.0
 30
0.0
  0
VERTEX
  5
8C
  8
0
 10
246.3303630369472
 20
51.000000000000007
 30
0.0
 42
0.1700418254938422
  0
VERTEX
  5
8D
  8
0
 10
247.92515883231161
 20
51.558512944157627
 30
0.0
 42
0.1049984754035466
  0
VERTEX
  5
8E
  8
0
 10
249.632294999203
 20
53.636038969321092
 30
0.0
 42
0.0668288315586692
 70
     2
 50
62.577523846513898
  0
VERTEX
  5
8F
  8
0
 10
250.61393763368889
 20
56.366270025533602
 30
0.0
 42
0.0529729816485297
 50
62.577523846513898
  0
VERTEX
  5
90
  8
0
 10
251.00000000000239
 20
60.000000000000007
 30
0.0
 42
0.0529729816485364
  0
VERTEX
  5
91
  8
0
 10
250.61393763368881
 20
63.633729974466398
 30
0.0
 42
0.066828831558678
  0
VERTEX
  5
92
  8
0
 10
249.63229499920291
 20
66.363961030678936
 30
0.0
 42
0.1049984754035439
 70
     2
 50
117.4224761534863
  0
VERTEX
  5
93
  8
0
 10
247.9251588323115
 20
68.441487055842401
 30
0.0
 42
0.1700418254938381
 50
117.4224761534863
  0
VERTEX
  5
94
  8
0
 10
246.3303630369472
 20
69.0
 30
0.0
 42
0.1700418254938382
  0
SEQEND
  5
95
  8
0
  0
LINE
  5
96
  8
0
 10
88.999999999999986
 20
119.7
 30
0.0
 11
88.999999999999986
 21
120.0
 31
0.0
  0
LINE
  5
97
  8
0
 10
93.91917742030347
 20
139.69999999999999
 30
0.0
 11
66.187240356944088
 21
139.69999999999999
 31
0.0
  0
LINE
  5
98
  8
0
 10
61.59999999999998
 20
120.0
 30
0.0
 11
98.399999999999977
 21
120.0
 31
0.0
  0
LINE
  5
99
  8
1
 10
79.999999999999972
 20
169.39881892816729
 30
0.0
 11
79.999999999999972
 21
114.2
 31
0.0
  0
LINE
  5
9A
  8
1
 10
93.0
 20
117.5
 30
0.0
 11
93.0
 21
139.0
 31
0.0
  0
LINE
  5
9B
  8
2
 10
90.5
 20
133.0
 30
0.0
 11
95.5
 21
133.0
 31
0.0
  0
LINE
  5
9C
  8
2
 10
90.499999999999972
 20
137.90000000000001
 30
0.0
 11
69.499999999999972
 21
137.90000000000001
 31
0.0
  0
LINE
  5
9D
  8
2
 10
90.499999999999972
 20
138.69999999999999
 30
0.0
 11
69.499999999999972
 21
138.69999999999999
 31
0.0
  0
LINE
  5
9E
  8
2
 10
69.499999999999986
 20
139.69999999999999
 30
0.0
 11
69.499999999999986
 21
137.90000000000001
 31
0.0
  0
LINE
  5
9F
  8
2
 10
90.499999999999972
 20
139.69999999999999
 30
0.0
 11
90.499999999999972
 21
137.90000000000001
 31
0.0
  0
LINE
  5
A0
  8
2
 10
83.999999999999957
 20
136.19999999999999
 30
0.0
 11
83.999999999999957
 21
120.2
 31
0.0
  0
LINE
  5
A1
  8
2
 10
75.999999999999986
 20
136.19999999999999
 30
0.0
 11
75.999999999999986
 21
120.2
 31
0.0
  0
LINE
  5
A2
  8
0
 10
70.999999999999986
 20
119.7000000000001
 30
0.0
 11
88.999999999999986
 21
119.7
 31
0.0
  0
LINE
  5
A3
  8
2
 10
71.0
 20
136.69999999999999
 30
0.0
 11
89.0
 21
136.69999999999999
 31
0.0
  0
LINE
  5
A4
  8
2
 10
83.999999999999957
 20
120.2
 30
0.0
 11
84.499999999999972
 21
119.7
 31
0.0
  0
LINE
  5
A5
  8
2
 10
75.999999999999986
 20
120.2
 30
0.0
 11
75.499999999999986
 21
119.7
 31
0.0
  0
LINE
  5
A6
  8
2
 10
75.999999999999986
 20
136.19999999999999
 30
0.0
 11
75.499999999999986
 21
136.69999999999999
 31
0.0
  0
LINE
  5
A7
  8
2
 10
83.999999999999957
 20
136.19999999999999
 30
0.0
 11
84.499999999999972
 21
136.69999999999999
 31
0.0
  0
LINE
  5
A8
  8
2
 10
83.999999999999957
 20
120.2
 30
0.0
 11
75.999999999999986
 21
120.2
 31
0.0
  0
LINE
  5
A9
  8
2
 10
83.999999999999957
 20
136.19999999999999
 30
0.0
 11
75.999999999999986
 21
136.19999999999999
 31
0.0
  0
LINE
  5
AA
  8
2
 10
85.999999999999972
 20
136.69999999999999
 30
0.0
 11
86.692820323027533
 21
137.90000000000001
 31
0.0
  0
LINE
  5
AB
  8
2
 10
73.999999999999972
 20
136.69999999999999
 30
0.0
 11
73.307179676972424
 21
137.90000000000001
 31
0.0
  0
LINE
  5
AC
  8
1
 10
66.999999999999943
 20
117.5
 30
0.0
 11
66.999999999999943
 21
139.0
 31
0.0
  0
LINE
  5
AD
  8
0
 10
161.0
 20
119.7
 30
0.0
 11
179.0
 21
119.7
 31
0.0
  0
LINE
  5
AE
  8
1
 10
156.19999999999999
 20
127.5
 30
0.0
 11
156.19999999999999
 21
117.5
 31
0.0
  0
LINE
  5
AF
  8
2
 10
154.05000000000001
 20
130.00000000000031
 30
0.0
 11
154.0499999999999
 21
120.0
 31
0.0
  0
LINE
  5
B0
  8
2
 10
158.34999999999999
 20
136.14287108403769
 30
0.0
 11
158.34999999999991
 21
120.0
 31
0.0
  0
LINE
  5
B1
  8
2
 10
154.0499999999999
 20
130.0000000000004
 30
0.0
 11
156.41030737921409
 21
136.48489122736331
 31
0.0
  0
ARC
  5
B2
  8
2
 10
157.34999999999999
 20
136.14287108403769
 30
0.0
 40
1.0
 50
359.99999999999989
 51
160.0000000000002
  0
ARC
  5
B3
  8
0
 10
170.0
 20
60.0
 30
0.0
 40
15.949999999999999
 50
298.00000000000028
 51
331.8038262762409
  0
ARC
  5
B4
  8
0
 10
170.0
 20
60.0
 30
0.0
 40
11.650000000000031
 50
298.0
 51
323.0711333093372
  0
ARC
  5
B5
  8
0
 10
163.52129243355469
 20
72.184676781453192
 30
0.0
 40
2.149999999999999
 50
298.00000000000023
 51
117.9999999999999
  0
ARC
  5
B6
  8
0
 10
176.47870756644519
 20
72.184676781453163
 30
0.0
 40
2.150000000000027
 50
62.000000000000028
 51
242.0000000000008
  0
ARC
  5
B7
  8
0
 10
163.52129243355469
 20
47.81532321854678
 30
0.0
 40
2.1499999999999089
 50
242.0
 51
62.000000000000412
  0
ARC
  5
B8
  8
0
 10
176.47870756644531
 20
47.815323218546823
 30
0.0
 40
2.1499999999999551
 50
118.0000000000004
 51
297.9999999999996
  0
ARC
  5
B9
  8
0
 10
170.0
 20
60.0
 30
0.0
 40
15.949999999999999
 50
117.9999999999999
 51
242.0000000000002
  0
ARC
  5
BA
  8
0
 10
170.0
 20
60.0
 30
0.0
 40
11.650000000000031
 50
118.0000000000001
 51
242.0
  0
LINE
  5
BB
  8
0
 10
183.616625866932
 20
66.799999999999983
 30
0.0
 11
179.71249195623861
 21
66.799999999999983
 31
0.0
  0
LINE
  5
BC
  8
0
 10
183.6166258669318
 20
53.200000000000003
 30
0.0
 11
179.71249195623861
 21
53.200000000000003
 31
0.0
  0
ARC
  5
BD
  8
0
 10
170.0
 20
60.0
 30
0.0
 40
15.949999999999999
 50
28.196173723758879
 51
62.000000000000149
  0
ARC
  5
BE
  8
0
 10
170.0
 20
60.0
 30
0.0
 40
11.650000000000031
 50
36.928866690662808
 51
62.000000000000227
  0
ARC
  5
BF
  8
0
 10
179.71249195623861
 20
67.299999999999997
 30
0.0
 40
0.5
 50
216.9288666906638
 51
270.0
  0
ARC
  5
C0
  8
0
 10
183.616625866932
 20
67.299999999999997
 30
0.0
 40
0.5
 50
270.0
 51
28.1961737237589
  0
ARC
  5
C1
  8
0
 10
179.71249195623861
 20
52.700000000000003
 30
0.0
 40
0.5
 50
90.0
 51
143.07113330933629
  0
ARC
  5
C2
  8
0
 10
183.6166258669318
 20
52.700000000000003
 30
0.0
 40
0.5
 50
331.80382627624078
 51
90.0
  0
LINE
  5
C3
  8
1
 10
179.81195566222519
 20
78.453604690751632
 30
0.0
 11
160.1880443377749
 21
41.546395309248453
 31
0.0
  0
LINE
  5
C4
  8
1
 10
179.8119556622253
 20
41.546395309248169
 30
0.0
 11
160.18804433777501
 21
78.453604690751163
 31
0.0
  0
CIRCLE
  5
C5
  8
0
 10
170.0
 20
73.0
 30
0.0
 40
2.5
  0
CIRCLE
  5
C6
  8
0
 10
170.0
 20
47.0
 30
0.0
 40
2.5
  0
LINE
  5
C7
  8
2
 10
95.5
 20
120.0
 30
0.0
 11
95.5
 21
133.0
 31
0.0
  0
LINE
  5
C8
  8
2
 10
90.5
 20
120.0
 30
0.0
 11
90.5
 21
133.0
 31
0.0
  0
LINE
  5
C9
  8
2
 10
93.0
 20
136.5
 30
0.0
 11
95.5
 21
133.0
 31
0.0
  0
LINE
  5
CA
  8
2
 10
93.0
 20
136.5
 30
0.0
 11
90.5
 21
133.0
 31
0.0
  0
LINE
  5
CB
  8
2
 10
66.999999999999943
 20
136.5
 30
0.0
 11
69.499999999999943
 21
133.0
 31
0.0
  0
LINE
  5
CC
  8
2
 10
66.999999999999943
 20
136.5
 30
0.0
 11
64.499999999999943
 21
133.0
 31
0.0
  0
LINE
  5
CD
  8
2
 10
69.499999999999943
 20
120.0
 30
0.0
 11
69.499999999999943
 21
133.0
 31
0.0
  0
LINE
  5
CE
  8
2
 10
64.499999999999943
 20
120.0
 30
0.0
 11
64.499999999999943
 21
133.0
 31
0.0
  0
LINE
  5
CF
  8
2
 10
69.499999999999943
 20
133.0
 30
0.0
 11
64.499999999999943
 21
133.0
 31
0.0
  0
CIRCLE
  5
D0
  8
0
 10
170.0
 20
59.999999999999943
 30
0.0
 40
18.399999999999999
  0
LINE
  5
D1
  8
0
 10
151.59999999999999
 20
120.0
 30
0.0
 11
151.59999999999999
 21
130.0000000000004
 31
0.0
  0
LINE
  5
D2
  8
0
 10
188.40000000000001
 20
120.0
 30
0.0
 11
188.40000000000001
 21
123.2
 31
0.0
  0
LINE
  5
D3
  8
0
 10
151.59999999999999
 20
130.00000000000031
 30
0.0
 11
154.7712836485176
 21
138.71303021498849
 31
0.0
  0
ARC
  5
D4
  8
0
 10
183.8191774203035
 20
138.19999999999999
 30
0.0
 40
1.5
 50
27.81813928459291
 51
89.999999999999986
  0
LINE
  5
D5
  8
0
 10
61.59999999999998
 20
120.0
 30
0.0
 11
61.59999999999998
 21
130.0000000000004
 31
0.0
  0
LINE
  5
D6
  8
0
 10
61.593969262078581
 20
129.96579798566779
 30
0.0
 11
64.777701425765216
 21
138.71303021498849
 31
0.0
  0
ARC
  5
D7
  8
0
 10
66.187240356944088
 20
138.19999999999999
 30
0.0
 40
1.5
 50
90.000000000000057
 51
160.00000000000031
  0
ARC
  5
D8
  8
0
 10
93.812759643055884
 20
138.19999999999999
 30
0.0
 40
1.5
 50
19.999999999999659
 51
89.999999999999986
  0
LINE
  5
D9
  8
0
 10
98.406030737921412
 20
129.96579798566779
 30
0.0
 11
95.222298574234756
 21
138.71303021498849
 31
0.0
  0
LINE
  5
DA
  8
0
 10
98.399999999999977
 20
120.0
 30
0.0
 11
98.399999999999977
 21
130.0000000000004
 31
0.0
  0
LINE
  5
DB
  8
0
 10
70.999999999999986
 20
120.0
 30
0.0
 11
70.999999999999986
 21
119.7
 31
0.0
  0
LINE
  5
DC
  8
2
 10
70.999999999999986
 20
136.69999999999999
 30
0.0
 11
71.0
 21
120.0
 31
0.0
  0
LINE
  5
DD
  8
2
 10
88.999999999999986
 20
136.69999999999999
 30
0.0
 11
88.999999999999986
 21
120.0
 31
0.0
  0
LINE
  5
DE
  8
0
 10
74.999999999999986
 20
140.2552468610009
 30
0.0
 11
75.0
 21
139.69999999999999
 31
0.0
  0
LINE
  5
DF
  8
0
 10
85.0
 20
140.2552468610009
 30
0.0
 11
84.999999999999986
 21
139.69999999999999
 31
0.0
  0
POLYLINE
  5
E0
  8
0
 66
     1
 10
0.0
 20
0.0
 30
0.0
  0
VERTEX
  5
E1
  8
0
 10
84.999999999999986
 20
140.2552468610009
 30
0.0
 42
0.1173002955688756
  0
VERTEX
  5
E2
  8
0
 10
84.636240854831286
 20
141.78445891727509
 30
0.0
 42
0.1043965553558729
  0
VERTEX
  5
E3
  8
0
 10
83.535533905932724
 20
143.15931250814759
 30
0.0
 42
0.09016909640038
 70
     2
 50
140.6005287789078
  0
VERTEX
  5
E4
  8
0
 10
81.955235661137067
 20
144.03870453059471
 30
0.0
 42
0.0821709099916736
 50
140.6005287789078
  0
VERTEX
  5
E5
  8
0
 10
79.999999999999986
 20
144.36221588521761
 30
0.0
 42
0.0821709099916676
  0
VERTEX
  5
E6
  8
0
 10
78.044764338863104
 20
144.03870453059471
 30
0.0
 42
0.0901690964003926
  0
VERTEX
  5
E7
  8
0
 10
76.464466094067248
 20
143.15931250814759
 30
0.0
 42
0.1043965553558767
 70
     2
 50
219.39947122109211
  0
VERTEX
  5
E8
  8
0
 10
75.3637591451687
 20
141.78445891727509
 30
0.0
 42
0.11730029556888
 50
219.39947122109211
  0
VERTEX
  5
E9
  8
0
 10
74.999999999999986
 20
140.2552468610009
 30
0.0
 42
0.1173002955688798
  0
SEQEND
  5
EA
  8
0
  0
POLYLINE
  5
EB
  8
0
 66
     1
 10
0.0
 20
0.0
 30
0.0
  0
VERTEX
  5
EC
  8
0
 10
72.999999999999972
 20
140.2552468610009
 30
0.0
 42
0.0210437584728689
  0
VERTEX
  5
ED
  8
0
 10
73.023379314961886
 20
139.69999999999999
 30
0.0
 42
0.0995499527687983
  0
SEQEND
  5
EE
  8
0
  0
LINE
  5
EF
  8
0
 10
70.999999999999972
 20
156.36941981812751
 30
0.0
 11
70.999999999999972
 21
146.59452269446001
 31
0.0
  0
LINE
  5
F0
  8
0
 10
88.999999999999957
 20
156.36941981812751
 30
0.0
 11
88.999999999999957
 21
146.59452078711129
 31
0.0
  0
LINE
  5
F1
  8
0
 10
71.356636240303985
 20
144.32293442255511
 30
0.0
 11
72.844910056682735
 21
139.69999999999999
 31
0.0
  0
POLYLINE
  5
F2
  8
0
 66
     1
 10
0.0
 20
0.0
 30
0.0
  0
VERTEX
  5
F3
  8
0
 10
79.999999999999972
 20
147.05255526377579
 30
0.0
 42
0.0958969456912198
  0
VERTEX
  5
F4
  8
0
 10
77.311599149518941
 20
146.5321506455258
 30
0.0
 42
0.0973786067071162
  0
VERTEX
  5
F5
  8
0
 10
75.050252531694269
 20
145.06166972641941
 30
0.0
 42
0.0995499527687962
 70
     2
 50
224.15834760055651
  0
VERTEX
  5
F6
  8
0
 10
73.399895412237669
 20
142.65782716131909
 30
0.0
 42
0.1196985281109091
 50
224.15834760055651
  0
VERTEX
  5
F7
  8
0
 10
73.000000000000142
 20
140.2552468610009
 30
0.0
 42
0.021043758472869
  0
VERTEX
  5
F8
  8
0
 10
73.023379314962
 20
139.69999999999999
 30
0.0
 42
0.0995499527687939
  0
SEQEND
  5
F9
  8
0
  0
POLYLINE
  5
FA
  8
0
 66
     1
 10
0.0
 20
0.0
 30
0.0
  0
VERTEX
  5
FB
  8
0
 10
86.976620685037858
 20
139.69999999999999
 30
0.0
 42
0.0210437584728667
 50
44.158347600556439
  0
VERTEX
  5
FC
  8
0
 10
86.999999999999787
 20
140.2552468610009
 30
0.0
 42
0.1011416804018426
  0
VERTEX
  5
FD
  8
0
 10
86.470348944250674
 20
142.84682391557189
 30
0.0
 42
0.0995499527687928
  0
VERTEX
  5
FE
  8
0
 10
84.949747468305688
 20
145.06166972641941
 30
0.0
 42
0.0973786067071275
 70
     2
 50
135.8416523994436
  0
VERTEX
  5
FF
  8
0
 10
82.688400850480875
 20
146.5321506455258
 30
0.0
 42
0.0958969456912243
 50
135.8416523994436
  0
VERTEX
  5
100
  8
0
 10
79.999999999999972
 20
147.05255526377579
 30
0.0
 42
0.0958969456912198
  0
SEQEND
  5
101
  8
0
  0
LINE
  5
102
  8
0
 10
88.643363759695987
 20
144.32293442255511
 30
0.0
 11
87.155089943317222
 21
139.69999999999999
 31
0.0
  0
POLYLINE
  5
103
  8
0
 66
     1
 10
0.0
 20
0.0
 30
0.0
  0
VERTEX
  5
104
  8
0
 10
88.643363759695916
 20
144.32293442255491
 30
0.0
 42
0.0780215256610764
 50
42.186261181045538
  0
VERTEX
  5
105
  8
0
 10
88.999999999999957
 20
146.59452078711129
 30
0.0
 42
0.1075842303698571
  0
VERTEX
  5
106
  8
0
 10
88.329236250969814
 20
149.67582778350521
 30
0.0
 42
0.1018043092900662
  0
VERTEX
  5
107
  8
0
 10
86.363961030678865
 20
152.36222822561351
 30
0.0
 42
0.0945713081281342
 70
     2
 50
137.81373881895439
  0
VERTEX
  5
108
  8
0
 10
83.483984165600191
 20
154.11888529450269
 30
0.0
 42
0.0900234319787224
 50
137.81373881895439
  0
VERTEX
  5
109
  8
0
 10
79.999999999999957
 20
154.7512908704413
 30
0.0
 42
0.0900234319787272
  0
VERTEX
  5
10A
  8
0
 10
76.516015834399639
 20
154.11888529450269
 30
0.0
 42
0.0945713081281344
  0
VERTEX
  5
10B
  8
0
 10
73.636038969321035
 20
152.36222822561351
 30
0.0
 42
0.1018043092900614
 70
     2
 50
222.1862611810455
  0
VERTEX
  5
10C
  8
0
 10
71.670763749030058
 20
149.6758277835053
 30
0.0
 42
0.1871768975314307
 50
222.1862611810455
  0
VERTEX
  5
10D
  8
0
 10
71.356636240304027
 20
144.32293442255499
 30
0.0
 42
0.1075842303698538
  0
SEQEND
  5
10E
  8
0
  0
POLYLINE
  5
10F
  8
0
 66
     1
 10
0.0
 20
0.0
 30
0.0
  0
VERTEX
  5
110
  8
0
 10
88.999999999999957
 20
156.36941981812751
 30
0.0
 42
0.1090969793077106
  0
VERTEX
  5
111
  8
0
 10
88.331681935109955
 20
159.3959181072043
 30
0.0
 42
0.1022701612695424
  0
VERTEX
  5
112
  8
0
 10
86.363961030678908
 20
162.0470623776898
 30
0.0
 42
0.0938960845130856
 70
     2
 50
138.26207833523691
  0
VERTEX
  5
113
  8
0
 10
83.489945638679558
 20
163.77460581018991
 30
0.0
 42
0.0887261818806369
 50
138.26207833523691
  0
VERTEX
  5
114
  8
0
 10
79.999999999999972
 20
164.3988189281672
 30
0.0
 42
0.0887261818806357
  0
VERTEX
  5
115
  8
0
 10
76.510054361320385
 20
163.77460581018991
 30
0.0
 42
0.0938960845130842
  0
VERTEX
  5
116
  8
0
 10
73.636038969321035
 20
162.0470623776898
 30
0.0
 42
0.1022701612695375
 70
     2
 50
221.73792166476301
  0
VERTEX
  5
117
  8
0
 10
71.668318064890002
 20
159.39591810720441
 30
0.0
 42
0.1090969793077098
 50
221.73792166476301
  0
VERTEX
  5
118
  8
0
 10
70.999999999999972
 20
156.36941981812751
 30
0.0
 42
0.1090969793077079
  0
SEQEND
  5
119
  8
0
  0
LINE
  5
11A
  8
2
 10
164.0
 20
136.69999999999999
 30
0.0
 11
163.3071796769724
 21
137.90000000000001
 31
0.0
  0
LINE
  5
11B
  8
2
 10
176.0
 20
136.69999999999999
 30
0.0
 11
176.69282032302749
 21
137.90000000000001
 31
0.0
  0
LINE
  5
11C
  8
2
 10
174.0
 20
136.19999999999999
 30
0.0
 11
166.0
 21
136.19999999999999
 31
0.0
  0
LINE
  5
11D
  8
2
 10
174.0
 20
136.19999999999999
 30
0.0
 11
174.5
 21
136.69999999999999
 31
0.0
  0
LINE
  5
11E
  8
2
 10
166.0
 20
136.19999999999999
 30
0.0
 11
165.5
 21
136.69999999999999
 31
0.0
  0
LINE
  5
11F
  8
2
 10
161.0
 20
136.69999999999999
 30
0.0
 11
179.0
 21
136.69999999999999
 31
0.0
  0
LINE
  5
120
  8
2
 10
180.5
 20
139.69999999999999
 30
0.0
 11
180.5
 21
137.90000000000001
 31
0.0
  0
LINE
  5
121
  8
2
 10
159.5
 20
139.69999999999999
 30
0.0
 11
159.5
 21
137.90000000000001
 31
0.0
  0
LINE
  5
122
  8
2
 10
180.5
 20
138.69999999999999
 30
0.0
 11
159.5
 21
138.69999999999999
 31
0.0
  0
LINE
  5
123
  8
2
 10
180.5
 20
137.90000000000001
 30
0.0
 11
159.5
 21
137.90000000000001
 31
0.0
  0
LINE
  5
124
  8
2
 10
161.0
 20
136.69999999999999
 30
0.0
 11
161.0
 21
120.0
 31
0.0
  0
LINE
  5
125
  8
2
 10
166.0
 20
136.19999999999999
 30
0.0
 11
166.0
 21
120.2
 31
0.0
  0
LINE
  5
126
  8
2
 10
174.0
 20
136.19999999999999
 30
0.0
 11
174.0
 21
120.2
 31
0.0
  0
LINE
  5
127
  8
2
 10
179.0
 20
136.69999999999999
 30
0.0
 11
179.0
 21
120.0
 31
0.0
  0
LINE
  5
128
  8
2
 10
174.0
 20
120.2
 30
0.0
 11
166.0
 21
120.2
 31
0.0
  0
LINE
  5
129
  8
2
 10
166.0
 20
120.2
 30
0.0
 11
165.5
 21
119.7
 31
0.0
  0
LINE
  5
12A
  8
2
 10
174.0
 20
120.2
 30
0.0
 11
174.5
 21
119.7
 31
0.0
  0
ARC
  5
12B
  8
0
 10
170.0
 20
210.0
 30
0.0
 40
18.40000000000002
 50
26.008667413898308
 51
333.99133258610198
  0
LINE
  5
12C
  8
1
 10
256.00000000000227
 20
210.0
 30
0.0
 11
146.59999999999999
 21
210.0
 31
0.0
  0
LINE
  5
12D
  8
1
 10
170.0
 20
233.40000000000001
 30
0.0
 11
170.0
 21
186.59999999999991
 31
0.0
  0
ARC
  5
12E
  8
0
 10
156.1808225796965
 20
138.19999999999999
 30
0.0
 40
1.5
 50
89.999999999999943
 51
160.00000000000051
  0
CIRCLE
  5
12F
  8
0
 10
170.0
 20
210.0
 30
0.0
 40
14.869488727618091
  0
CIRCLE
  5
130
  8
0
 10
170.0
 20
210.0
 30
0.0
 40
10.5
  0
LINE
  5
131
  8
0
 10
185.8745078663878
 20
219.5
 30
0.0
 11
191.5871557427476
 21
219.00020807210311
 31
0.0
  0
LINE
  5
132
  8
0
 10
192.5
 20
216.63046882598229
 30
0.0
 11
192.5
 21
205.0
 31
0.0
  0
LINE
  5
133
  8
0
 10
191.5871557427476
 20
200.99979192789681
 30
0.0
 11
185.8745078663874
 21
200.49999999999989
 31
0.0
  0
ARC
  5
134
  8
0
 10
191.5
 20
201.99598662598859
 30
0.0
 40
1.0
 50
274.99999999999937
 51
0.0
  0
ARC
  5
135
  8
0
 10
191.5
 20
218.00401337401141
 30
0.0
 40
1.0
 50
0.0000000000001018
 51
85.000000000000597
  0
LINE
  5
136
  8
0
 10
191.5871557427476
 20
217.6266635240741
 30
0.0
 11
182.35817537083349
 21
218.4340946825198
 31
0.0
  0
LINE
  5
137
  8
0
 10
191.5871557427476
 20
202.3733364759259
 30
0.0
 11
182.35817537083409
 21
201.5659053174802
 31
0.0
  0
ARC
  5
138
  8
0
 10
191.5
 20
216.63046882598229
 30
0.0
 40
1.0
 50
0.0000000000001018
 51
85.000000000000114
  0
LINE
  5
139
  8
0
 10
192.5
 20
203.7319737823409
 30
0.0
 11
192.5
 21
203.36953117401771
 31
0.0
  0
ARC
  5
13A
  8
0
 10
191.5
 20
203.3695311740176
 30
0.0
 40
1.0
 50
274.99999999999972
 51
0.0000000000009414
  0
LINE
  5
13B
  8
0
 10
192.5
 20
218.00401337401141
 30
0.0
 11
192.5
 21
215.00000000000071
 31
0.0
  0
LINE
  5
13C
  8
0
 10
192.5
 20
201.99598662598859
 30
0.0
 11
192.5
 21
205.0
 31
0.0
  0
LINE
  5
13D
  8
0
 10
192.5
 20
205.0
 30
0.0
 11
210.12975628849031
 21
205.0
 31
0.0
  0
LINE
  5
13E
  8
0
 10
192.5
 20
215.00000000000071
 30
0.0
 11
210.12975628848889
 21
215.00000000000071
 31
0.0
  0
ARC
  5
13F
  8
0
 10
210.20932162733189
 20
146.7344920533975
 30
0.0
 40
0.8
 50
120.7105931374999
 51
205.00000000000011
  0
LINE
  5
140
  8
0
 10
247.56245644161029
 20
219.0
 30
0.0
 11
225.9425530779645
 21
219.0
 31
0.0
  0
LINE
  5
141
  8
0
 10
247.56245374421201
 20
201.0
 30
0.0
 11
225.9425577499901
 21
201.0
 31
0.0
  0
LINE
  5
142
  8
0
 10
212.1212774343108
 20
216.98339712441151
 30
0.0
 11
225.68445809230539
 21
218.98109445802049
 31
0.0
  0
LINE
  5
143
  8
0
 10
212.1212774343108
 20
203.01660287558849
 30
0.0
 11
225.68445809230539
 21
201.01890554197951
 31
0.0
  0
POLYLINE
  5
144
  8
0
 66
     1
 10
0.0
 20
0.0
 30
0.0
  0
VERTEX
  5
145
  8
0
 10
225.94255348502901
 20
219.0
 30
0.0
 42
0.1963029133407455
  0
VERTEX
  5
146
  8
0
 10
224.70273702181379
 20
218.49372839133409
 30
0.0
 42
0.0992211290414705
  0
VERTEX
  5
147
  8
0
 10
223.25303160141939
 20
216.36396103067889
 30
0.0
 42
0.0566989648329644
 70
     2
 50
247.0901928748587
  0
VERTEX
  5
148
  8
0
 10
222.457223971308
 20
213.66343811815801
 30
0.0
 42
0.0433516950349082
 50
247.0901928748587
  0
VERTEX
  5
149
  8
0
 10
222.1389933943243
 20
210.0
 30
0.0
 42
0.0433516950349076
  0
VERTEX
  5
14A
  8
0
 10
222.457223971308
 20
206.3365618818421
 30
0.0
 42
0.0566989648329642
  0
VERTEX
  5
14B
  8
0
 10
223.25303160141939
 20
203.63603896932111
 30
0.0
 42
0.0992211290414814
 70
     2
 50
292.9098071251413
  0
VERTEX
  5
14C
  8
0
 10
224.70273702181379
 20
201.5062716086658
 30
0.0
 42
0.1963035385081652
 50
292.9098071251413
  0
VERTEX
  5
14D
  8
0
 10
225.9425577499901
 20
201.0
 30
0.0
 42
0.1963035385081527
  0
SEQEND
  5
14E
  8
0
  0
POLYLINE
  5
14F
  8
0
 66
     1
 10
0.0
 20
0.0
 30
0.0
  0
VERTEX
  5
150
  8
0
 10
212.34794094444041
 20
217.0
 30
0.0
 42
0.1873770534736149
  0
VERTEX
  5
151
  8
0
 10
211.29802425429489
 20
216.592222266893
 30
0.0
 42
0.1015204472489967
  0
VERTEX
  5
152
  8
0
 10
210.1066691539645
 20
214.94974746830579
 30
0.0
 42
0.0600169768245044
 70
     2
 50
245.63873128775381
  0
VERTEX
  5
153
  8
0
 10
209.35659341002281
 20
212.5696624907026
 30
0.0
 42
0.0581316728208828
 50
245.63873128775381
  0
VERTEX
  5
154
  8
0
 10
209.1783039813852
 20
210.0
 30
0.0
 42
0.0463842385330204
  0
VERTEX
  5
155
  8
0
 10
209.4425626322807
 20
207.15754631976111
 30
0.0
 42
0.0600169768245148
  0
VERTEX
  5
156
  8
0
 10
210.1066691539645
 20
205.05025253169421
 30
0.0
 42
0.1015204472489895
 70
     2
 50
294.36126871224621
  0
VERTEX
  5
157
  8
0
 10
211.2980242542948
 20
203.407777733107
 30
0.0
 42
0.1497750781665265
 50
294.36126871224621
  0
VERTEX
  5
158
  8
0
 10
212.1212774343108
 20
203.01660287559139
 30
0.0
 42
0.1873770534736121
  0
SEQEND
  5
159
  8
0
  0
POLYLINE
  5
15A
  8
0
 66
     1
 10
0.0
 20
0.0
 30
0.0
  0
VERTEX
  5
15B
  8
0
 10
247.56245374421201
 20
219.0
 30
0.0
 42
0.1891980285593258
  0
VERTEX
  5
15C
  8
0
 10
246.2358149926751
 20
218.47936866304121
 30
0.0
 42
0.1010772471353784
  0
VERTEX
  5
15D
  8
0
 10
244.7212113789374
 20
216.36396103067889
 30
0.0
 42
0.0593298405534988
 70
     2
 50
245.94123673967511
  0
VERTEX
  5
15E
  8
0
 10
243.7701149213537
 20
213.30432893340469
 30
0.0
 42
0.0573824718265657
 50
245.94123673967511
  0
VERTEX
  5
15F
  8
0
 10
243.54433025725169
 20
210.0
 30
0.0
 42
0.0457476595631169
  0
VERTEX
  5
160
  8
0
 10
243.87958289654489
 20
206.3435177935514
 30
0.0
 42
0.0593298405535016
  0
VERTEX
  5
161
  8
0
 10
244.7212113789374
 20
203.63603896932111
 30
0.0
 42
0.1010772471353664
 70
     2
 50
294.05876326032501
  0
VERTEX
  5
162
  8
0
 10
246.23581499267499
 20
201.52063133695879
 30
0.0
 42
0.1891980285592727
 50
294.05876326032501
  0
VERTEX
  5
163
  8
0
 10
247.56245374421201
 20
201.0000000000008
 30
0.0
 42
0.1891980285593279
  0
SEQEND
  5
164
  8
0
  0
POLYLINE
  5
165
  8
0
 66
     1
 10
0.0
 20
0.0
 30
0.0
  0
VERTEX
  5
166
  8
0
 10
247.56245374421201
 20
201.0
 30
0.0
 42
0.209460142836877
  0
VERTEX
  5
167
  8
0
 10
248.65634259589831
 20
201.47927994349769
 30
0.0
 42
0.0952985582640436
  0
VERTEX
  5
168
  8
0
 10
249.9931660123238
 20
203.63603896932111
 30
0.0
 42
0.052032206860936
 70
     2
 50
69.095663932862379
  0
VERTEX
  5
169
  8
0
 10
250.7111172793378
 20
206.32536977390731
 30
0.0
 42
0.03924717930711
 50
69.095663932862379
  0
VERTEX
  5
16A
  8
0
 10
251.00000000000239
 20
210.0
 30
0.0
 42
0.0392471793071199
  0
VERTEX
  5
16B
  8
0
 10
250.7111172793378
 20
213.67463022609289
 30
0.0
 42
0.0520322068609458
  0
VERTEX
  5
16C
  8
0
 10
249.9931660123238
 20
216.36396103067889
 30
0.0
 42
0.0952985582640482
 70
     2
 50
110.90433606713761
  0
VERTEX
  5
16D
  8
0
 10
248.65634259589831
 20
218.52072005650231
 30
0.0
 42
0.2094601428368916
 50
110.90433606713761
  0
VERTEX
  5
16E
  8
0
 10
247.56245374421201
 20
219.0
 30
0.0
 42
0.2094601428368756
  0
SEQEND
  5
16F
  8
0
  0
LINE
  5
170
  8
0
 10
61.59999999999998
 20
129.98236730192949
 30
0.0
 11
98.399999999999977
 21
129.9823673019294
 31
0.0
  0
LINE
  5
171
  8
0
 10
291.60000000000002
 20
129.98236730192949
 30
0.0
 11
301.19492291197651
 21
129.98236730192949
 31
0.0
  0
LINE
  5
172
  8
0
 10
301.0
 20
120.0
 30
0.0
 11
301.0
 21
119.7
 31
0.0
  0
LINE
  5
173
  8
0
 10
328.39999999999998
 20
120.0
 30
0.0
 11
328.39999999999998
 21
130.0000000000004
 31
0.0
  0
LINE
  5
174
  8
0
 10
328.40603073792141
 20
129.96579798566779
 30
0.0
 11
325.2222985742348
 21
138.71303021498849
 31
0.0
  0
ARC
  5
175
  8
0
 10
323.81275964305593
 20
138.19999999999999
 30
0.0
 40
1.5
 50
19.999999999999659
 51
89.999999999999986
  0
ARC
  5
176
  8
0
 10
296.18724035694419
 20
138.19999999999999
 30
0.0
 40
1.5
 50
90.000000000000057
 51
160.00000000000031
  0
LINE
  5
177
  8
0
 10
291.59396926207859
 20
129.96579798566779
 30
0.0
 11
294.77770142576531
 21
138.71303021498849
 31
0.0
  0
LINE
  5
178
  8
0
 10
291.60000000000002
 20
120.0
 30
0.0
 11
291.60000000000002
 21
130.0000000000004
 31
0.0
  0
LINE
  5
179
  8
0
 10
301.0
 20
119.7000000000001
 30
0.0
 11
319.0
 21
119.7
 31
0.0
  0
LINE
  5
17A
  8
0
 10
291.60000000000002
 20
120.0
 30
0.0
 11
328.39999999999998
 21
120.0
 31
0.0
  0
LINE
  5
17B
  8
0
 10
323.91917742030353
 20
139.69999999999999
 30
0.0
 11
317.10622772050903
 21
139.69999999999999
 31
0.0
  0
LINE
  5
17C
  8
0
 10
319.0
 20
119.7
 30
0.0
 11
319.0
 21
120.0
 31
0.0
  0
LINE
  5
17D
  8
1
 10
310.0
 20
169.39881892816729
 30
0.0
 11
310.0
 21
114.2
 31
0.0
  0
LINE
  5
17E
  8
0
 10
300.60000000000019
 20
123.1823673019295
 30
0.0
 11
301.9735720173573
 21
138.88236730192949
 31
0.0
  0
LINE
  5
17F
  8
0
 10
301.17965000000038
 20
123.1823673019295
 30
0.0
 11
302.55322201735828
 21
138.88236730192949
 31
0.0
  0
LINE
  5
180
  8
0
 10
319.60000000000019
 20
123.1823673019295
 30
0.0
 11
300.60000000000019
 21
123.1823673019295
 31
0.0
  0
LINE
  5
181
  8
0
 10
301.9735720173573
 20
138.88236730192949
 30
0.0
 11
303.16570088089202
 21
138.88236730192949
 31
0.0
  0
LINE
  5
182
  8
0
 10
316.83429911910798
 20
138.88236730192961
 30
0.0
 11
318.22642798264337
 21
138.88236730192949
 31
0.0
  0
LINE
  5
183
  8
0
 10
319.02035000000012
 20
123.1823673019295
 30
0.0
 11
317.64677798264319
 21
138.88236730192949
 31
0.0
  0
LINE
  5
184
  8
0
 10
318.22642798264332
 20
138.88236730192949
 30
0.0
 11
319.60000000000019
 21
123.1823673019295
 31
0.0
  0
LINE
  5
185
  8
0
 10
319.005077088024
 20
129.98236730192949
 30
0.0
 11
328.39999999999998
 21
129.9823673019294
 31
0.0
  0
POLYLINE
  5
186
  8
0
 66
     1
 10
0.0
 20
0.0
 30
0.0
  0
VERTEX
  5
187
  8
0
 10
305.0
 20
130.10696902421651
 30
0.0
 42
0.1173002955689044
  0
VERTEX
  5
188
  8
0
 10
305.36375914516867
 20
128.57775696794261
 30
0.0
 42
0.1043965553558921
  0
VERTEX
  5
189
  8
0
 10
306.46446609406718
 20
127.2029033770702
 30
0.0
 42
0.0901690964003901
 70
     2
 50
320.60052877891218
  0
VERTEX
  5
18A
  8
0
 10
308.19963257582032
 20
126.23733148790561
 30
0.0
 42
0.0987585406394695
 50
320.60052877891218
  0
VERTEX
  5
18B
  8
0
 10
310.0
 20
126.0000000000004
 30
0.0
 42
0.0821709099916649
  0
VERTEX
  5
18C
  8
0
 10
311.9552356611369
 20
126.32351135462319
 30
0.0
 42
0.0901690964003859
  0
VERTEX
  5
18D
  8
0
 10
313.53553390593271
 20
127.2029033770702
 30
0.0
 42
0.1043965553558859
 70
     2
 50
39.39947122108785
  0
VERTEX
  5
18E
  8
0
 10
314.63624085483133
 20
128.57775696794261
 30
0.0
 42
0.1173002955689355
 50
39.39947122108785
  0
VERTEX
  5
18F
  8
0
 10
315.00000000000182
 20
130.10696902421651
 30
0.0
 42
0.117300295568918
  0
SEQEND
  5
190
  8
0
  0
LINE
  5
191
  8
0
 10
305.0
 20
135.69266807580539
 30
0.0
 11
305.0
 21
130.10697172161491
 31
0.0
  0
LINE
  5
192
  8
0
 10
315.0
 20
135.69266807580649
 30
0.0
 11
315.0
 21
130.10696362942349
 31
0.0
  0
LINE
  5
193
  8
0
 10
301.0
 20
156.36941981812751
 30
0.0
 11
301.0
 21
146.59452078711129
 31
0.0
  0
LINE
  5
194
  8
0
 10
319.0
 20
156.36941981812751
 30
0.0
 11
319.0
 21
146.59452348450969
 31
0.0
  0
LINE
  5
195
  8
0
 10
301.3788094634009
 20
144.25517782393939
 30
0.0
 11
303.33763178416427
 21
138.36540686599179
 31
0.0
  0
POLYLINE
  5
196
  8
0
 66
     1
 10
0.0
 20
0.0
 30
0.0
  0
VERTEX
  5
197
  8
0
 10
301.0
 20
146.59452078711129
 30
0.0
 42
0.1075842303698456
  0
VERTEX
  5
198
  8
0
 10
301.67076374903002
 20
143.5132137907174
 30
0.0
 42
0.1018043092900527
  0
VERTEX
  5
199
  8
0
 10
303.63603896932102
 20
140.82681334860919
 30
0.0
 42
0.0945713081281334
 70
     2
 50
317.81373881895479
  0
VERTEX
  5
19A
  8
0
 10
306.78212295266979
 20
138.90784284031051
 30
0.0
 42
0.1074426711751639
 50
317.81373881895479
  0
VERTEX
  5
19B
  8
0
 10
310.0
 20
138.43775070378149
 30
0.0
 42
0.0900234319787225
  0
VERTEX
  5
19C
  8
0
 10
313.4839841656003
 20
139.07015627972009
 30
0.0
 42
0.0945713081281315
  0
VERTEX
  5
19D
  8
0
 10
316.36396103067898
 20
140.82681334860919
 30
0.0
 42
0.1018043092900633
 70
     2
 50
42.186261181045232
  0
VERTEX
  5
19E
  8
0
 10
318.32923625096993
 20
143.5132137907174
 30
0.0
 42
0.1075842303698545
 50
42.186261181045232
  0
VERTEX
  5
19F
  8
0
 10
319.0
 20
146.59452078711129
 30
0.0
 42
0.1075842303698576
  0
SEQEND
  5
1A0
  8
0
  0
LINE
  5
1A1
  8
0
 10
318.6211905365991
 20
144.25517782393939
 30
0.0
 11
316.66236821583578
 21
138.36540686599179
 31
0.0
  0
POLYLINE
  5
1A2
  8
0
 66
     1
 10
0.0
 20
0.0
 30
0.0
  0
VERTEX
  5
1A3
  8
0
 10
303.3376306418246
 20
138.3654103007693
 30
0.0
 42
0.0205210254052683
  0
VERTEX
  5
1A4
  8
0
 10
303.52966662485289
 20
137.85846757755749
 30
0.0
 42
0.0995450143395259
  0
VERTEX
  5
1A5
  8
0
 10
305.05025253169413
 20
135.64335678919471
 30
0.0
 42
0.0973840637551202
 70
     2
 50
315.83762010579471
  0
VERTEX
  5
1A6
  8
0
 10
307.51185751639531
 20
134.0424456651408
 30
0.0
 42
0.1139335850742134
 50
315.83762010579471
  0
VERTEX
  5
1A7
  8
0
 10
310.0
 20
133.65219088738939
 30
0.0
 42
0.0959092462088857
  0
VERTEX
  5
1A8
  8
0
 10
312.68835550417651
 20
134.17265471728589
 30
0.0
 42
0.0973840637551151
  0
VERTEX
  5
1A9
  8
0
 10
314.94974746830587
 20
135.64335678919471
 30
0.0
 42
0.0995450143395249
 70
     2
 50
44.16237989420528
  0
VERTEX
  5
1AA
  8
0
 10
316.47033337514722
 20
137.85846757755769
 30
0.0
 42
0.0205208883796655
 50
44.16237989420528
  0
VERTEX
  5
1AB
  8
0
 10
316.6623682158359
 20
138.36540686599179
 30
0.0
 42
0.1011288462296098
  0
SEQEND
  5
1AC
  8
0
  0
LINE
  5
1AD
  8
0
 10
302.89377227949109
 20
139.69999999999999
 30
0.0
 11
296.18724035694419
 21
139.69999999999999
 31
0.0
  0
POLYLINE
  5
1AE
  8
0
 66
     1
 10
0.0
 20
0.0
 30
0.0
  0
VERTEX
  5
1AF
  8
0
 10
319.0
 20
156.36941981812751
 30
0.0
 42
0.1090969793076917
  0
VERTEX
  5
1B0
  8
0
 10
318.33168193511023
 20
159.39591810720421
 30
0.0
 42
0.1022701612695335
  0
VERTEX
  5
1B1
  8
0
 10
316.36396103067898
 20
162.0470623776898
 30
0.0
 42
0.0938960845130902
 70
     2
 50
138.26207833523699
  0
VERTEX
  5
1B2
  8
0
 10
313.48994563867939
 20
163.77460581019
 30
0.0
 42
0.0887261818806305
 50
138.26207833523699
  0
VERTEX
  5
1B3
  8
0
 10
310.0
 20
164.3988189281672
 30
0.0
 42
0.0887261818806358
  0
VERTEX
  5
1B4
  8
0
 10
306.51005436132039
 20
163.77460581018991
 30
0.0
 42
0.0938960845130863
  0
VERTEX
  5
1B5
  8
0
 10
303.63603896932102
 20
162.0470623776898
 30
0.0
 42
0.1022701612695404
 70
     2
 50
221.73792166476321
  0
VERTEX
  5
1B6
  8
0
 10
301.66831806488989
 20
159.39591810720421
 30
0.0
 42
0.1090969793077084
 50
221.73792166476321
  0
VERTEX
  5
1B7
  8
0
 10
301.0
 20
156.36941981812751
 30
0.0
 42
0.1090969793077168
  0
SEQEND
  5
1B8
  8
0
  0
POLYLINE
  5
1B9
  8
0
 66
     1
 10
0.0
 20
0.0
 30
0.0
  0
VERTEX
  5
1BA
  8
0
 10
301.0
 20
156.36941981812751
 30
0.0
 42
0.1219790270836176
  0
VERTEX
  5
1BB
  8
0
 10
301.64683240842402
 20
153.75746388951211
 30
0.0
 42
0.1053208982609643
  0
VERTEX
  5
1BC
  8
0
 10
303.63604002808279
 20
151.37355568502369
 30
0.0
 42
0.088015960803347
 70
     2
 50
321.86723347684199
  0
VERTEX
  5
1BD
  8
0
 10
306.75034176264052
 20
149.71257259282709
 30
0.0
 42
0.0949705391248774
 50
321.86723347684199
  0
VERTEX
  5
1BE
  8
0
 10
310.00000149731522
 20
149.30420212261771
 30
0.0
 42
0.0787581428479766
  0
VERTEX
  5
1BF
  8
0
 10
313.53430963919118
 20
149.86438872741971
 30
0.0
 42
0.0880159608033532
  0
VERTEX
  5
1C0
  8
0
 10
316.36396208944069
 20
151.373558382422
 30
0.0
 42
0.1053208982609829
 70
     2
 50
38.13279080827531
  0
VERTEX
  5
1C1
  8
0
 10
318.35316869866722
 20
153.7574674300464
 30
0.0
 42
0.1219788541598353
 50
38.13279080827531
  0
VERTEX
  5
1C2
  8
0
 10
318.99999999999989
 20
156.36941981812751
 30
0.0
 42
0.1219790270836236
  0
SEQEND
  5
1C3
  8
0
  0
TEXT
  5
31B
  8
0
 62
     3
 10
0.0
 20
0.0
 30
0.0
 40
10.0
  1
CL37
  7
STANDARD1
  0
ENDSEC
  0
EOF
