  0
SECTION
  2
HEADER
  9
$ACADVER
  1
AC1009
  9
$INSBASE
 10
0.0
 20
0.0
 30
0.0
  9
$EXTMIN
 10
-0.0005
 20
-2.960436562073669
 30
0.0
  9
$EXTMAX
 10
360.32302237870061
 20
215.09442412513161
 30
0.0
  9
$LIMMIN
 10
0.0
 20
0.0
  9
$LIMMAX
 10
375.0
 20
270.0
  9
$ORTHOMODE
 70
     1
  9
$REGENMODE
 70
     1
  9
$FILLMODE
 70
     1
  9
$QTEXTMODE
 70
     0
  9
$MIRRTEXT
 70
     0
  9
$DRAGMODE
 70
     2
  9
$LTSCALE
 40
10.0
  9
$OSMODE
 70
  3071
  9
$ATTMODE
 70
     1
  9
$TEXTSIZE
 40
0.2
  9
$TRACEWID
 40
0.05
  9
$TEXTSTYLE
  7
STANDARD
  9
$CLAYER
  8
0
  9
$CELTYPE
  6
BYLAYER
  9
$CECOLOR
 62
   256
  9
$DIMSCALE
 40
1.0
  9
$DIMASZ
 40
3.0
  9
$DIMEXO
 40
2.0
  9
$DIMDLI
 40
0.38
  9
$DIMRND
 40
0.0
  9
$DIMDLE
 40
0.0
  9
$DIMEXE
 40
2.0
  9
$DIMTP
 40
0.0
  9
$DIMTM
 40
0.0
  9
$DIMTXT
 40
3.0
  9
$DIMCEN
 40
0.0
  9
$DIMTSZ
 40
0.0
  9
$DIMTOL
 70
     0
  9
$DIMLIM
 70
     0
  9
$DIMTIH
 70
     0
  9
$DIMTOH
 70
     0
  9
$DIMSE1
 70
     0
  9
$DIMSE2
 70
     0
  9
$DIMTAD
 70
     1
  9
$DIMZIN
 70
     0
  9
$DIMBLK
  1

  9
$DIMASO
 70
     0
  9
$DIMSHO
 70
     0
  9
$DIMPOST
  1

  9
$DIMAPOST
  1

  9
$DIMALT
 70
     0
  9
$DIMALTD
 70
     2
  9
$DIMALTF
 40
25.399999999999999
  9
$DIMLFAC
 40
1.0
  9
$DIMTOFL
 70
     1
  9
$DIMTVP
 40
1.6000000000000001
  9
$DIMTIX
 70
     1
  9
$DIMSOXD
 70
     0
  9
$DIMSAH
 70
     0
  9
$DIMBLK1
  1

  9
$DIMBLK2
  1

  9
$DIMSTYLE
  2
STANDARD
  9
$DIMCLRD
 70
     0
  9
$DIMCLRE
 70
     0
  9
$DIMCLRT
 70
     0
  9
$DIMTFAC
 40
1.0
  9
$DIMGAP
 40
0.09
  9
$LUNITS
 70
     2
  9
$LUPREC
 70
     4
  9
$SKETCHINC
 40
0.1
  9
$FILLETRAD
 40
0.0
  9
$AUNITS
 70
     0
  9
$AUPREC
 70
     4
  9
$MENU
  1
E:\r13\win\SUPPORT\ACAD
  9
$ELEVATION
 40
0.0
  9
$PELEVATION
 40
0.0
  9
$THICKNESS
 40
0.0
  9
$LIMCHECK
 70
     0
  9
$BLIPMODE
 70
     0
  9
$CHAMFERA
 40
0.0
  9
$CHAMFERB
 40
0.0
  9
$SKPOLY
 70
     0
  9
$TDCREATE
 40
2449840.6294097221
  9
$TDUPDATE
 40
2456598.588579502
  9
$TDINDWG
 40
0.0336396296
  9
$TDUSRTIMER
 40
0.0336396296
  9
$USRTIMER
 70
     1
  9
$ANGBASE
 50
0.0
  9
$ANGDIR
 70
     0
  9
$PDMODE
 70
     0
  9
$PDSIZE
 40
0.0
  9
$PLINEWID
 40
0.0
  9
$COORDS
 70
     1
  9
$SPLFRAME
 70
     0
  9
$SPLINETYPE
 70
     6
  9
$SPLINESEGS
 70
     8
  9
$ATTDIA
 70
     0
  9
$ATTREQ
 70
     1
  9
$HANDLING
 70
     1
  9
$HANDSEED
  5
4B8
  9
$SURFTAB1
 70
     6
  9
$SURFTAB2
 70
     6
  9
$SURFTYPE
 70
     6
  9
$SURFU
 70
     6
  9
$SURFV
 70
     6
  9
$UCSNAME
  2

  9
$UCSORG
 10
0.0
 20
0.0
 30
0.0
  9
$UCSXDIR
 10
1.0
 20
0.0
 30
0.0
  9
$UCSYDIR
 10
0.0
 20
1.0
 30
0.0
  9
$PUCSNAME
  2

  9
$PUCSORG
 10
0.0
 20
0.0
 30
0.0
  9
$PUCSXDIR
 10
1.0
 20
0.0
 30
0.0
  9
$PUCSYDIR
 10
0.0
 20
1.0
 30
0.0
  9
$USERI1
 70
     0
  9
$USERI2
 70
     1
  9
$USERI3
 70
     1
  9
$USERI4
 70
     0
  9
$USERI5
 70
     0
  9
$USERR1
 40
0.0
  9
$USERR2
 40
0.0
  9
$USERR3
 40
0.0
  9
$USERR4
 40
0.0
  9
$USERR5
 40
0.0
  9
$WORLDVIEW
 70
     1
  9
$SHADEDGE
 70
     3
  9
$SHADEDIF
 70
    70
  9
$TILEMODE
 70
     1
  9
$MAXACTVP
 70
    16
  9
$PLIMCHECK
 70
     0
  9
$PEXTMIN
 10
1.0000000000000000E+020
 20
1.0000000000000000E+020
 30
1.0000000000000000E+020
  9
$PEXTMAX
 10
-1.0000000000000000E+020
 20
-1.0000000000000000E+020
 30
-1.0000000000000000E+020
  9
$PLIMMIN
 10
0.0
 20
0.0
  9
$PLIMMAX
 10
12.0
 20
9.0
  9
$UNITMODE
 70
     0
  9
$VISRETAIN
 70
     0
  9
$PLINEGEN
 70
     0
  9
$PSLTSCALE
 70
     0
  0
ENDSEC
  0
SECTION
  2
TABLES
  0
TABLE
  2
VPORT
 70
     1
  0
VPORT
  2
*ACTIVE
 70
     0
 10
0.0
 20
0.0
 11
1.0
 21
1.0
 12
195.0578723315511
 22
133.51247338845729
 13
0.0
 23
0.0
 14
10.0
 24
10.0
 15
10.0
 25
10.0
 16
0.0
 26
0.0
 36
1.0
 17
0.0
 27
0.0
 37
0.0
 40
275.42325997844938
 41
1.831871345029239
 42
50.0
 43
0.0
 44
0.0
 50
0.0
 51
0.0
 71
     0
 72
   500
 73
     1
 74
     0
 75
     0
 76
     0
 77
     0
 78
     2
  0
ENDTAB
  0
TABLE
  2
LTYPE
 70
     4
  0
LTYPE
  2
CONTINUOUS
 70
     0
  3
Solid Line
 72
    65
 73
     0
 40
0.0
  0
LTYPE
  2
CENTER
 70
     0
  3
____ _ ____ _ ____ _ ____ _ ____ _ ____ _ ____
 72
    65
 73
     4
 40
2.0
 49
1.25
 49
-0.25
 49
0.25
 49
-0.25
  0
LTYPE
  2
HIDDEN
 70
     0
  3
_ _ _ _ _ _ _ _ _ _ _ _ _ _ _ _ _ _ _ _ _ _ _
 72
    65
 73
     2
 40
0.375
 49
0.25
 49
-0.125
  0
LTYPE
  2
PHANTOM2
 70
     0
  3
___ _ _ ___ _ _ ___ _ _ ___ _ _
 72
    65
 73
     6
 40
1.25
 49
0.625
 49
-0.125
 49
0.125
 49
-0.125
 49
0.125
 49
-0.125
  0
ENDTAB
  0
TABLE
  2
LAYER
 70
     4
  0
LAYER
  2
0
 70
     0
 62
     7
  6
CONTINUOUS
  0
LAYER
  2
1
 70
     0
 62
     1
  6
CENTER
  0
LAYER
  2
2
 70
     0
 62
     2
  6
HIDDEN
  0
LAYER
  2
ITTEN
 70
     0
 62
     1
  6
CENTER
  0
ENDTAB
  0
TABLE
  2
STYLE
 70
     2
  0
STYLE
  2
STANDARD
 70
     0
 40
0.0
 41
1.0
 50
0.0
 71
     0
 42
0.2
  3
TXT
  4
BIGFONT
  0
STYLE
  2
STANDARD1
 70
     0
 40
0.0
 41
1.0
 50
0.0
 71
     0
 42
3.0
  3
txt
  4

  0
ENDTAB
  0
TABLE
  2
VIEW
 70
     1
  0
VIEW
  2
ALL
 70
     0
 40
270.0
 10
220.99159663865549
 20
135.0
 41
0.0
 11
0.0
 21
0.0
 31
1.0
 12
0.0
 22
0.0
 32
0.0
 42
0.0
 43
0.0
 44
0.0
 50
0.0
 71
     0
  0
ENDTAB
  0
TABLE
  2
UCS
 70
     0
  0
ENDTAB
  0
TABLE
  2
APPID
 70
     4
  0
APPID
  2
ACAD
 70
     0
  0
APPID
  2
DCO15
 70
     0
  0
APPID
  2
ACAD_MLEADERVER
 70
     0
  0
APPID
  2
ACAD_NAV_VCDISPLAY
 70
     0
  0
ENDTAB
  0
TABLE
  2
DIMSTYLE
 70
     1
  0
DIMSTYLE
  2
STANDARD
 70
     0
  3

  4

  5

  6

  7

 40
1.0
 41
0.18
 42
0.0625
 43
0.38
 44
0.18
 45
0.0
 46
0.0
 47
0.0
 48
0.0
140
0.18
141
0.09
142
0.0
143
25.399999999999999
144
1.0
145
0.0
146
1.0
147
0.09
 71
     0
 72
     0
 73
     1
 74
     1
 75
     0
 76
     0
 77
     0
 78
     0
170
     0
171
     2
172
     0
173
     0
174
     0
175
     0
176
     0
177
     0
178
     0
  0
ENDTAB
  0
ENDSEC
  0
SECTION
  2
BLOCKS
  0
BLOCK
  8
0
  2
$MODEL_SPACE
 70
     0
 10
0.0
 20
0.0
 30
0.0
  3
$MODEL_SPACE
  1

  0
ENDBLK
  5
8A
  8
0
  0
BLOCK
 67
     1
  8
0
  2
$PAPER_SPACE
 70
     0
 10
0.0
 20
0.0
 30
0.0
  3
$PAPER_SPACE
  1

  0
ENDBLK
  5
88
 67
     1
  8
0
  0
BLOCK
  8
0
  2
BATU
 70
     0
 10
0.0
 20
0.0
 30
0.0
  3
BATU
  1

  0
LINE
  5
370
  8
ITTEN
 10
0.5
 20
0.0
 30
0.0
 11
-0.5
 21
0.0
 31
0.0
  0
LINE
  5
371
  8
ITTEN
 10
0.0
 20
0.5
 30
0.0
 11
0.0
 21
-0.5
 31
0.0
  0
ENDBLK
  5
373
  8
0
  0
ENDSEC
  0
SECTION
  2
ENTITIES
  0
LINE
  5
3E
  8
0
 10
139.4644561358694
 20
101.29946043165459
 30
0.0
 11
289.46445613586951
 21
101.29946043165459
 31
0.0
  0
LINE
  5
3F
  8
0
 10
139.4644561358694
 20
136.29946058065471
 30
0.0
 11
139.4644561358694
 21
101.29946043165459
 31
0.0
  0
LINE
  5
40
  8
0
 10
289.4644561358694
 20
136.29946058065471
 30
0.0
 11
289.46445613586951
 21
101.29946043165459
 31
0.0
  0
LINE
  5
4A
  8
0
 10
139.46445613586951
 20
185.09442446043161
 30
0.0
 11
139.4644561358694
 21
215.09442412513161
 31
0.0
  0
LINE
  5
4B
  8
0
 10
289.46445613586951
 20
185.09442446043161
 30
0.0
 11
289.46445613586951
 21
215.09442412513161
 31
0.0
  0
LINE
  5
50
  8
1
 10
134.4644561358694
 20
200.09442446043161
 30
0.0
 11
294.4644561358694
 21
200.09442446043161
 31
0.0
  0
LINE
  5
10E
  8
0
 10
139.4644561358694
 20
200.59442448418159
 30
0.0
 11
289.46445613586951
 21
200.59442448418159
 31
0.0
  0
LINE
  5
10F
  8
0
 10
139.4644561358694
 20
200.09442446043161
 30
0.0
 11
289.46445613586951
 21
200.09442446043161
 31
0.0
  0
LINE
  5
110
  8
0
 10
139.4644561358694
 20
199.59442443668161
 30
0.0
 11
289.46445613586951
 21
199.59442443668161
 31
0.0
  0
LINE
  5
2F9
  8
0
 10
84.105889916838322
 20
101.29946043165459
 30
0.0
 11
97.605890325138319
 21
101.29946043165459
 31
0.0
  0
LINE
  5
2FA
  8
0
 10
92.955889842338294
 20
115.9994606059547
 30
0.0
 11
89.105889863238332
 21
115.9994606059547
 31
0.0
  0
LINE
  5
2FB
  8
0
 10
90.255889772338321
 20
124.0994608160547
 30
0.0
 11
92.955889842338294
 21
124.0994608160547
 31
0.0
  0
LINE
  5
2FC
  8
0
 10
97.605890325138319
 20
136.29946058065471
 30
0.0
 11
90.255889772338321
 21
136.29946058065471
 31
0.0
  0
LINE
  5
2FD
  8
0
 10
68.605890228338325
 20
135.29946227935471
 30
0.0
 11
68.605890228338325
 21
102.2994604791547
 31
0.0
  0
LINE
  5
2FE
  8
1
 10
83.605889893038324
 20
96.299460431654666
 30
0.0
 11
83.605889893038324
 21
141.29946058065471
 31
0.0
  0
LINE
  5
2FF
  8
0
 10
69.605889460938329
 20
101.29946043165459
 30
0.0
 11
83.105889869338313
 21
101.29946043165459
 31
0.0
  0
ARC
  5
300
  8
0
 10
69.605889893038324
 20
102.29946043165459
 30
0.0
 40
1.0
 50
180.0
 51
270.0
  0
LINE
  5
301
  8
0
 10
83.605889893038324
 20
101.7994604553547
 30
0.0
 11
84.105889916838322
 21
101.29946043165459
 31
0.0
  0
LINE
  5
302
  8
0
 10
83.105889869338313
 20
101.29946043165459
 30
0.0
 11
83.605889893038324
 21
101.7994604553547
 31
0.0
  0
LINE
  5
303
  8
0
 10
74.25588994373831
 20
115.9994606059547
 30
0.0
 11
74.25588994373831
 21
124.0994608160547
 31
0.0
  0
LINE
  5
304
  8
0
 10
83.105889869338313
 20
109.4994604718547
 30
0.0
 11
78.105889922838344
 21
109.4994604718547
 31
0.0
  0
LINE
  5
305
  8
0
 10
78.105889922838344
 20
109.4994604718547
 30
0.0
 11
78.105889922838344
 21
115.9994606059547
 31
0.0
  0
LINE
  5
306
  8
0
 10
78.105889922838344
 20
115.9994606059547
 30
0.0
 11
74.25588994373831
 21
115.9994606059547
 31
0.0
  0
LINE
  5
307
  8
0
 10
89.105889863238332
 20
115.9994606059547
 30
0.0
 11
89.105889863238332
 21
109.4994604718547
 31
0.0
  0
LINE
  5
308
  8
0
 10
89.105889863238332
 20
109.4994604718547
 30
0.0
 11
84.105889916838322
 21
109.4994604718547
 31
0.0
  0
LINE
  5
309
  8
0
 10
84.105889916838322
 20
109.4994604718547
 30
0.0
 11
83.605889893038324
 21
108.9994603898547
 31
0.0
  0
LINE
  5
30A
  8
0
 10
83.605889893038324
 20
108.9994603898547
 30
0.0
 11
83.105889869338313
 21
109.4994604718547
 31
0.0
  0
LINE
  5
30B
  8
0
 10
77.455890095738312
 20
124.59945996665471
 30
0.0
 11
77.455890095738312
 21
135.79945956735469
 31
0.0
  0
ARC
  5
30C
  8
0
 10
76.955889893038318
 20
124.59946043165471
 30
0.0
 40
0.5
 50
270.0
 51
0.0
  0
LINE
  5
30D
  8
0
 10
74.25588994373831
 20
124.0994608160547
 30
0.0
 11
76.955890013738326
 21
124.0994608160547
 31
0.0
  0
LINE
  5
30E
  8
0
 10
76.955890013738326
 20
136.29946058065471
 30
0.0
 11
69.605889460938329
 21
136.29946058065471
 31
0.0
  0
ARC
  5
30F
  8
0
 10
69.605889893038324
 20
135.29946043165469
 30
0.0
 40
1.0
 50
90.0
 51
180.0
  0
ARC
  5
310
  8
0
 10
76.955889893038318
 20
135.79946043165469
 30
0.0
 40
0.5
 50
0.0
 51
90.0
  0
LINE
  5
311
  8
0
 10
89.755889690338336
 20
135.79945956735469
 30
0.0
 11
89.755889690338336
 21
124.59945996665471
 31
0.0
  0
ARC
  5
312
  8
0
 10
90.255889893038315
 20
124.59946043165471
 30
0.0
 40
0.5
 50
180.0
 51
270.0
  0
ARC
  5
313
  8
0
 10
90.255889893038315
 20
135.79946043165469
 30
0.0
 40
0.5
 50
90.0
 51
180.0
  0
LINE
  5
314
  8
0
 10
98.605889557738337
 20
102.2994604791547
 30
0.0
 11
98.605889557738337
 21
135.29946227935471
 31
0.0
  0
ARC
  5
315
  8
0
 10
97.605889893038324
 20
102.29946043165459
 30
0.0
 40
1.0
 50
270.0
 51
0.0
  0
LINE
  5
316
  8
0
 10
92.955889842338294
 20
124.0994608160547
 30
0.0
 11
92.955889842338294
 21
115.9994606059547
 31
0.0
  0
ARC
  5
317
  8
0
 10
97.605889893038324
 20
135.29946043165469
 30
0.0
 40
1.0
 50
0.0
 51
90.0
  0
LINE
  5
31A
  8
1
 10
345.3230223787005
 20
96.299460431654666
 30
0.0
 11
345.3230223787005
 21
141.29946058065471
 31
0.0
  0
LINE
  5
31B
  8
0
 10
351.97302225800053
 20
136.29946058065471
 30
0.0
 11
359.32302281080052
 21
136.29946058065471
 31
0.0
  0
LINE
  5
31C
  8
0
 10
359.32302281080052
 20
101.29946043165459
 30
0.0
 11
345.82302240240051
 21
101.29946043165459
 31
0.0
  0
LINE
  5
31D
  8
0
 10
360.3230220434005
 20
135.29946227935471
 30
0.0
 11
360.3230220434005
 21
102.2994604791547
 31
0.0
  0
ARC
  5
31E
  8
0
 10
359.3230223787005
 20
102.29946043165459
 30
0.0
 40
1.0
 50
270.0
 51
0.000000000000007
  0
ARC
  5
31F
  8
0
 10
359.3230223787005
 20
135.29946043165469
 30
0.0
 40
1.0
 50
0.000000000000007
 51
90.0
  0
LINE
  5
320
  8
0
 10
335.97302242940049
 20
124.0994608160547
 30
0.0
 11
335.97302242940049
 21
115.9994606059547
 31
0.0
  0
LINE
  5
321
  8
0
 10
354.67302232800051
 20
115.9994606059547
 30
0.0
 11
354.67302232800051
 21
124.0994608160547
 31
0.0
  0
LINE
  5
322
  8
0
 10
330.32302271400061
 20
102.2994604791547
 30
0.0
 11
330.32302271400061
 21
135.29946227935471
 31
0.0
  0
LINE
  5
323
  8
0
 10
339.82302240850049
 20
109.4994604718547
 30
0.0
 11
344.8230223549005
 21
109.4994604718547
 31
0.0
  0
LINE
  5
324
  8
0
 10
344.8230223549005
 20
101.29946043165459
 30
0.0
 11
331.32302194660048
 21
101.29946043165459
 31
0.0
  0
LINE
  5
325
  8
0
 10
345.82302240240051
 20
101.29946043165459
 30
0.0
 11
345.3230223787005
 21
101.7994604553547
 31
0.0
  0
LINE
  5
326
  8
0
 10
345.3230223787005
 20
101.7994604553547
 30
0.0
 11
344.8230223549005
 21
101.29946043165459
 31
0.0
  0
LINE
  5
327
  8
0
 10
345.82302240240051
 20
109.4994604718547
 30
0.0
 11
350.82302234890051
 21
109.4994604718547
 31
0.0
  0
LINE
  5
328
  8
0
 10
350.82302234890051
 20
109.4994604718547
 30
0.0
 11
350.82302234890051
 21
115.9994606059547
 31
0.0
  0
LINE
  5
329
  8
0
 10
350.82302234890051
 20
115.9994606059547
 30
0.0
 11
354.67302232800051
 21
115.9994606059547
 31
0.0
  0
LINE
  5
32A
  8
0
 10
345.3230223787005
 20
108.9994603898547
 30
0.0
 11
345.82302240240051
 21
109.4994604718547
 31
0.0
  0
LINE
  5
32B
  8
0
 10
344.8230223549005
 20
109.4994604718547
 30
0.0
 11
345.3230223787005
 21
108.9994603898547
 31
0.0
  0
ARC
  5
32C
  8
0
 10
331.32302237870061
 20
102.29946043165459
 30
0.0
 40
1.0
 50
180.0
 51
270.0
  0
LINE
  5
32D
  8
0
 10
339.82302240850049
 20
115.9994606059547
 30
0.0
 11
339.82302240850049
 21
109.4994604718547
 31
0.0
  0
LINE
  5
32E
  8
0
 10
335.97302242940049
 20
115.9994606059547
 30
0.0
 11
339.82302240850049
 21
115.9994606059547
 31
0.0
  0
LINE
  5
32F
  8
0
 10
351.4730221760006
 20
124.59945996665471
 30
0.0
 11
351.4730221760006
 21
135.79945956735469
 31
0.0
  0
LINE
  5
330
  8
0
 10
354.67302232800051
 20
124.0994608160547
 30
0.0
 11
351.97302225800053
 21
124.0994608160547
 31
0.0
  0
ARC
  5
331
  8
0
 10
351.97302237870048
 20
124.59946043165471
 30
0.0
 40
0.5
 50
180.0
 51
270.0
  0
ARC
  5
332
  8
0
 10
351.97302237870048
 20
135.79946043165469
 30
0.0
 40
0.5
 50
90.0
 51
180.0
  0
LINE
  5
333
  8
0
 10
339.17302258140052
 20
135.79945956735469
 30
0.0
 11
339.17302258140052
 21
124.59945996665471
 31
0.0
  0
ARC
  5
334
  8
0
 10
338.67302237870052
 20
124.59946043165471
 30
0.0
 40
0.5
 50
270.0
 51
0.000000000000007
  0
LINE
  5
335
  8
0
 10
338.67302249940047
 20
124.0994608160547
 30
0.0
 11
335.97302242940049
 21
124.0994608160547
 31
0.0
  0
LINE
  5
336
  8
0
 10
331.32302194660048
 20
136.29946058065471
 30
0.0
 11
338.67302249940047
 21
136.29946058065471
 31
0.0
  0
ARC
  5
337
  8
0
 10
338.67302237870052
 20
135.79946043165469
 30
0.0
 40
0.5
 50
0.000000000000007
 51
90.0
  0
ARC
  5
338
  8
0
 10
331.32302237870061
 20
135.29946043165469
 30
0.0
 40
1.0
 50
90.0
 51
180.0
  0
LINE
  5
339
  8
0
 10
139.4644561358694
 20
136.29946058065471
 30
0.0
 11
289.4644561358694
 21
136.29946058065471
 31
0.0
  0
LINE
  5
359
  8
0
 10
139.4644561358694
 20
215.09442412513161
 30
0.0
 11
289.46445613586951
 21
215.09442412513161
 31
0.0
  0
LINE
  5
35A
  8
0
 10
139.4644561358694
 20
205.59442443063159
 30
0.0
 11
289.46445613586951
 21
205.59442443063159
 31
0.0
  0
LINE
  5
35B
  8
0
 10
139.4644561358694
 20
206.24442425773159
 30
0.0
 11
289.46445613586951
 21
206.24442425773211
 31
0.0
  0
LINE
  5
35C
  8
0
 10
139.46445613586951
 20
185.09442446043161
 30
0.0
 11
289.46445613586951
 21
185.09442446043161
 31
0.0
  0
LINE
  5
35E
  8
0
 10
139.46445613586951
 20
194.5944244902316
 30
0.0
 11
289.46445613586951
 21
194.5944244902316
 31
0.0
  0
LINE
  5
35F
  8
0
 10
139.46445613586951
 20
193.9444246631316
 30
0.0
 11
289.46445613586951
 21
193.94442466313129
 31
0.0
  0
LINE
  5
361
  8
2
 10
139.4644561358694
 20
209.44442440973171
 30
0.0
 11
289.46445613586951
 21
209.44442440973171
 31
0.0
  0
LINE
  5
362
  8
2
 10
139.46445613586951
 20
190.7444245111316
 30
0.0
 11
289.46445613586951
 21
190.7444245111316
 31
0.0
  0
INSERT
  5
374
  8
0
  2
BATU
 10
0.0
 20
0.0
 30
0.0
 41
0.001
 42
0.001
 43
0.001
  0
TEXT
  5
427
  8
0
 62
     3
 10
0.0
 20
0.0
 30
0.0
 40
10.0
  1
CG60AL-2M
  7
STANDARD1
  0
ENDSEC
  0
EOF
