  0
SECTION
  2
HEADER
  9
$ACADVER
  1
AC1009
  9
$INSBASE
 10
0.0
 20
0.0
 30
0.0
  9
$EXTMIN
 10
0.0
 20
-2.960436562073669
 30
0.0
  9
$EXTMAX
 10
192.5
 20
163.0
 30
0.0
  9
$LIMMIN
 10
0.0
 20
0.0
  9
$LIMMAX
 10
187.5
 20
135.0
  9
$ORTHOMODE
 70
     1
  9
$REGENMODE
 70
     1
  9
$FILLMODE
 70
     1
  9
$QTEXTMODE
 70
     0
  9
$MIRRTEXT
 70
     0
  9
$DRAGMODE
 70
     2
  9
$LTSCALE
 40
5.0
  9
$OSMODE
 70
    37
  9
$ATTMODE
 70
     1
  9
$TEXTSIZE
 40
0.2
  9
$TRACEWID
 40
0.05
  9
$TEXTSTYLE
  7
STANDARD
  9
$CLAYER
  8
0
  9
$CELTYPE
  6
BYLAYER
  9
$CECOLOR
 62
   256
  9
$DIMSCALE
 40
0.5
  9
$DIMASZ
 40
3.0
  9
$DIMEXO
 40
2.0
  9
$DIMDLI
 40
0.38
  9
$DIMRND
 40
0.0
  9
$DIMDLE
 40
0.0
  9
$DIMEXE
 40
2.0
  9
$DIMTP
 40
0.0
  9
$DIMTM
 40
0.0
  9
$DIMTXT
 40
3.0
  9
$DIMCEN
 40
0.0
  9
$DIMTSZ
 40
0.0
  9
$DIMTOL
 70
     0
  9
$DIMLIM
 70
     0
  9
$DIMTIH
 70
     0
  9
$DIMTOH
 70
     0
  9
$DIMSE1
 70
     0
  9
$DIMSE2
 70
     0
  9
$DIMTAD
 70
     1
  9
$DIMZIN
 70
     8
  9
$DIMBLK
  1

  9
$DIMASO
 70
     1
  9
$DIMSHO
 70
     0
  9
$DIMPOST
  1

  9
$DIMAPOST
  1

  9
$DIMALT
 70
     0
  9
$DIMALTD
 70
     2
  9
$DIMALTF
 40
25.399999999999999
  9
$DIMLFAC
 40
1.0
  9
$DIMTOFL
 70
     1
  9
$DIMTVP
 40
1.6000000000000001
  9
$DIMTIX
 70
     1
  9
$DIMSOXD
 70
     0
  9
$DIMSAH
 70
     0
  9
$DIMBLK1
  1

  9
$DIMBLK2
  1

  9
$DIMSTYLE
  2
STANDARD
  9
$DIMCLRD
 70
     0
  9
$DIMCLRE
 70
     0
  9
$DIMCLRT
 70
     0
  9
$DIMTFAC
 40
1.0
  9
$DIMGAP
 40
0.09
  9
$LUNITS
 70
     2
  9
$LUPREC
 70
     1
  9
$SKETCHINC
 40
0.1
  9
$FILLETRAD
 40
0.0
  9
$AUNITS
 70
     0
  9
$AUPREC
 70
     1
  9
$MENU
  1
E:\r13\win\SUPPORT\ACAD
  9
$ELEVATION
 40
0.0
  9
$PELEVATION
 40
0.0
  9
$THICKNESS
 40
0.0
  9
$LIMCHECK
 70
     0
  9
$BLIPMODE
 70
     0
  9
$CHAMFERA
 40
0.0
  9
$CHAMFERB
 40
0.0
  9
$SKPOLY
 70
     0
  9
$TDCREATE
 40
2449839.7946412042
  9
$TDUPDATE
 40
2458970.3923952552
  9
$TDINDWG
 40
0.0372781019
  9
$TDUSRTIMER
 40
0.0372781019
  9
$USRTIMER
 70
     1
  9
$ANGBASE
 50
0.0
  9
$ANGDIR
 70
     0
  9
$PDMODE
 70
     0
  9
$PDSIZE
 40
0.0
  9
$PLINEWID
 40
0.0
  9
$COORDS
 70
     1
  9
$SPLFRAME
 70
     0
  9
$SPLINETYPE
 70
     6
  9
$SPLINESEGS
 70
     8
  9
$ATTDIA
 70
     0
  9
$ATTREQ
 70
     1
  9
$HANDLING
 70
     1
  9
$HANDSEED
  5
4E4
  9
$SURFTAB1
 70
     6
  9
$SURFTAB2
 70
     6
  9
$SURFTYPE
 70
     6
  9
$SURFU
 70
     6
  9
$SURFV
 70
     6
  9
$UCSNAME
  2

  9
$UCSORG
 10
0.0
 20
0.0
 30
0.0
  9
$UCSXDIR
 10
1.0
 20
0.0
 30
0.0
  9
$UCSYDIR
 10
0.0
 20
1.0
 30
0.0
  9
$PUCSNAME
  2

  9
$PUCSORG
 10
0.0
 20
0.0
 30
0.0
  9
$PUCSXDIR
 10
1.0
 20
0.0
 30
0.0
  9
$PUCSYDIR
 10
0.0
 20
1.0
 30
0.0
  9
$USERI1
 70
     0
  9
$USERI2
 70
     1
  9
$USERI3
 70
     1
  9
$USERI4
 70
     0
  9
$USERI5
 70
     0
  9
$USERR1
 40
0.0
  9
$USERR2
 40
0.0
  9
$USERR3
 40
0.0
  9
$USERR4
 40
0.0
  9
$USERR5
 40
0.0
  9
$WORLDVIEW
 70
     1
  9
$SHADEDGE
 70
     3
  9
$SHADEDIF
 70
    70
  9
$TILEMODE
 70
     1
  9
$MAXACTVP
 70
    16
  9
$PLIMCHECK
 70
     0
  9
$PEXTMIN
 10
1.0000000000000000E+020
 20
1.0000000000000000E+020
 30
1.0000000000000000E+020
  9
$PEXTMAX
 10
-1.0000000000000000E+020
 20
-1.0000000000000000E+020
 30
-1.0000000000000000E+020
  9
$PLIMMIN
 10
0.0
 20
0.0
  9
$PLIMMAX
 10
12.0
 20
9.0
  9
$UNITMODE
 70
     0
  9
$VISRETAIN
 70
     0
  9
$PLINEGEN
 70
     0
  9
$PSLTSCALE
 70
     0
  0
ENDSEC
  0
SECTION
  2
TABLES
  0
TABLE
  2
VPORT
 70
     1
  0
VPORT
  2
*ACTIVE
 70
     0
 10
0.0
 20
0.0
 11
1.0
 21
1.0
 12
241.56441717791409
 22
100.0
 13
0.0
 23
0.0
 14
5.0
 24
5.0
 15
5.0
 25
5.0
 16
0.0
 26
0.0
 36
1.0
 17
0.0
 27
0.0
 37
0.0
 40
200.0
 41
2.415644171779141
 42
50.0
 43
0.0
 44
0.0
 50
0.0
 51
0.0
 71
     0
 72
   500
 73
     1
 74
     0
 75
     0
 76
     0
 77
     0
 78
     2
  0
ENDTAB
  0
TABLE
  2
LTYPE
 70
     4
  0
LTYPE
  2
CONTINUOUS
 70
     0
  3
Solid Line
 72
    65
 73
     0
 40
0.0
  0
LTYPE
  2
CENTER
 70
     0
  3
____ _ ____ _ ____ _ ____ _ ____ _ ____ _ ____
 72
    65
 73
     4
 40
2.0
 49
1.25
 49
-0.25
 49
0.25
 49
-0.25
  0
LTYPE
  2
HIDDEN
 70
     0
  3
_ _ _ _ _ _ _ _ _ _ _ _ _ _ _ _ _ _ _ _ _ _ _
 72
    65
 73
     2
 40
0.375
 49
0.25
 49
-0.125
  0
LTYPE
  2
PHANTOM2
 70
     0
  3
___ _ _ ___ _ _ ___ _ _ ___ _ _
 72
    65
 73
     6
 40
1.25
 49
0.625
 49
-0.125
 49
0.125
 49
-0.125
 49
0.125
 49
-0.125
  0
ENDTAB
  0
TABLE
  2
LAYER
 70
     5
  0
LAYER
  2
0
 70
     0
 62
     7
  6
CONTINUOUS
  0
LAYER
  2
1
 70
     0
 62
     1
  6
CENTER
  0
LAYER
  2
2
 70
     0
 62
     2
  6
HIDDEN
  0
LAYER
  2
3
 70
     0
 62
     3
  6
CONTINUOUS
  0
LAYER
  2
DEFPOINTS
 70
     0
 62
     7
  6
CONTINUOUS
  0
ENDTAB
  0
TABLE
  2
STYLE
 70
     2
  0
STYLE
  2
STANDARD
 70
     0
 40
0.0
 41
1.0
 50
0.0
 71
     0
 42
0.2
  3
TXT
  4
BIGFONT
  0
STYLE
  2
STANDARD1
 70
     0
 40
0.0
 41
1.0
 50
0.0
 71
     0
 42
3.0
  3
txt
  4

  0
ENDTAB
  0
TABLE
  2
VIEW
 70
     1
  0
VIEW
  2
ALL
 70
     0
 40
135.0
 10
110.4957983193277
 20
67.5
 41
0.0
 11
0.0
 21
0.0
 31
1.0
 12
0.0
 22
0.0
 32
0.0
 42
0.0
 43
0.0
 44
0.0
 50
0.0
 71
     0
  0
ENDTAB
  0
TABLE
  2
UCS
 70
     0
  0
ENDTAB
  0
TABLE
  2
APPID
 70
     6
  0
APPID
  2
ACAD
 70
     0
  0
APPID
  2
ACAD_MLEADERVER
 70
     0
  0
APPID
  2
ACAD_EXEMPT_FROM_CAD_STANDARDS
 70
     0
  0
APPID
  2
ACAD_NAV_VCDISPLAY
 70
     0
  0
APPID
  2
ACAD_DSTYLE_DIMJAG
 70
     0
  0
APPID
  2
ACAD_DSTYLE_DIMTALN
 70
     0
  0
ENDTAB
  0
TABLE
  2
DIMSTYLE
 70
     1
  0
DIMSTYLE
  2
STANDARD
 70
     0
  3

  4

  5

  6

  7

 40
1.0
 41
0.18
 42
0.0625
 43
0.38
 44
0.18
 45
0.0
 46
0.0
 47
0.0
 48
0.0
140
0.18
141
0.09
142
0.0
143
25.399999999999999
144
1.0
145
0.0
146
1.0
147
0.09
 71
     0
 72
     0
 73
     1
 74
     1
 75
     0
 76
     0
 77
     0
 78
     0
170
     0
171
     2
172
     0
173
     0
174
     0
175
     0
176
     0
177
     0
178
     0
  0
ENDTAB
  0
ENDSEC
  0
SECTION
  2
BLOCKS
  0
BLOCK
  8
0
  2
$MODEL_SPACE
 70
     0
 10
0.0
 20
0.0
 30
0.0
  3
$MODEL_SPACE
  1

  0
ENDBLK
  5
FF
  8
0
  0
BLOCK
 67
     1
  8
0
  2
$PAPER_SPACE
 70
     0
 10
0.0
 20
0.0
 30
0.0
  3
$PAPER_SPACE
  1

  0
ENDBLK
  5
FD
 67
     1
  8
0
  0
ENDSEC
  0
SECTION
  2
ENTITIES
  0
CIRCLE
  5
3F
  8
0
 10
176.5
 20
100.0
 30
0.0
 40
7.4999999999999707
  0
CIRCLE
  5
40
  8
0
 10
176.5
 20
100.0
 30
0.0
 40
7.9999999999997442
  0
CIRCLE
  5
41
  8
3
 10
176.5
 20
100.0
 30
0.0
 40
9.3154999999999841
  0
CIRCLE
  5
42
  8
0
 10
176.5
 20
100.0
 30
0.0
 40
10.47749999999999
  0
CIRCLE
  5
43
  8
0
 10
176.5
 20
100.0
 30
0.0
 40
13.0
  0
LINE
  5
44
  8
0
 10
117.5
 20
113.0
 30
0.0
 11
117.5
 21
86.999999999999972
 31
0.0
  0
LINE
  5
45
  8
0
 10
117.5
 20
36.999999999999957
 30
0.0
 11
117.5
 21
63.000000000000007
 31
0.0
  0
LINE
  5
46
  8
0
 10
125.5
 20
109.3155
 30
0.0
 11
126.5
 21
109.3155
 31
0.0
  0
LINE
  5
47
  8
0
 10
125.5
 20
90.684500000000014
 30
0.0
 11
126.5
 21
90.684500000000014
 31
0.0
  0
LINE
  5
48
  8
0
 10
125.5
 20
89.522499999999965
 30
0.0
 11
125.5
 21
110.47750000000001
 31
0.0
  0
LINE
  5
49
  8
0
 10
114.5
 20
112.9999999999999
 30
0.0
 11
117.5
 21
112.9999999999999
 31
0.0
  0
LINE
  5
4A
  8
0
 10
114.5
 20
86.999999999999929
 30
0.0
 11
117.5
 21
86.999999999999929
 31
0.0
  0
LINE
  5
4B
  8
0
 10
114.5
 20
86.999999999999929
 30
0.0
 11
114.5
 21
112.9999999999999
 31
0.0
  0
LINE
  5
4C
  8
0
 10
116.0
 20
86.999999999999929
 30
0.0
 11
116.0
 21
112.9999999999999
 31
0.0
  0
LINE
  5
4D
  8
0
 10
117.5
 20
89.522499999999965
 30
0.0
 11
125.5
 21
89.522499999999965
 31
0.0
  0
LINE
  5
4E
  8
3
 10
117.5
 20
90.684499999999957
 30
0.0
 11
125.5
 21
90.684500000000028
 31
0.0
  0
LINE
  5
4F
  8
0
 10
117.5
 20
110.47750000000001
 30
0.0
 11
125.5
 21
110.47750000000001
 31
0.0
  0
LINE
  5
50
  8
3
 10
117.5
 20
109.3155
 30
0.0
 11
125.5
 21
109.3154999999999
 31
0.0
  0
LINE
  5
51
  8
0
 10
126.5
 20
90.684500000000014
 30
0.0
 11
126.5
 21
109.3155
 31
0.0
  0
LINE
  5
52
  8
0
 10
110.4517059170057
 20
87.298294082994147
 30
0.0
 11
114.5
 21
87.298294082994175
 31
0.0
  0
LINE
  5
53
  8
0
 10
110.4517059170057
 20
93.649147044081587
 30
0.0
 11
114.5
 21
93.649147044081587
 31
0.0
  0
LINE
  5
54
  8
0
 10
110.4517059170056
 20
106.3508529559183
 30
0.0
 11
114.5
 21
106.3508529559183
 31
0.0
  0
LINE
  5
55
  8
0
 10
110.4517059170056
 20
112.7017059170057
 30
0.0
 11
114.5
 21
112.7017059170057
 31
0.0
  0
LINE
  5
56
  8
0
 10
109.5
 20
88.249999999999972
 30
0.0
 11
109.5
 21
111.75
 31
0.0
  0
LINE
  5
57
  8
0
 10
109.5
 20
111.75
 30
0.0
 11
110.4517059170056
 21
112.7017059170057
 31
0.0
  0
LINE
  5
58
  8
0
 10
109.5
 20
107.4609404667264
 30
0.0
 11
110.4517059170056
 21
106.3508529559183
 31
0.0
  0
LINE
  5
59
  8
0
 10
109.5
 20
104.13067793430839
 30
0.0
 11
110.4517059170057
 21
106.3508529559184
 31
0.0
  0
LINE
  5
5A
  8
0
 10
109.5
 20
95.86932206569162
 30
0.0
 11
110.4517059170057
 21
93.649147044081616
 31
0.0
  0
LINE
  5
5B
  8
0
 10
109.5
 20
92.539059533273615
 30
0.0
 11
110.4517059170056
 21
93.649147044081644
 31
0.0
  0
LINE
  5
5C
  8
0
 10
109.5
 20
88.249999999999972
 30
0.0
 11
110.4517059170056
 21
87.298294082994261
 31
0.0
  0
ARC
  5
5D
  8
0
 10
109.5
 20
100.0
 30
0.0
 40
9.5
 50
90.0
 51
270.0
  0
LINE
  5
5E
  8
1
 10
97.0
 20
100.0
 30
0.0
 11
129.5
 21
100.0
 31
0.0
  0
LINE
  5
5F
  8
0
 10
125.5
 20
40.684500000000028
 30
0.0
 11
126.5
 21
40.684500000000028
 31
0.0
  0
LINE
  5
60
  8
0
 10
125.5
 20
59.3155
 30
0.0
 11
126.5
 21
59.3155
 31
0.0
  0
LINE
  5
61
  8
0
 10
125.5
 20
60.477500000000042
 30
0.0
 11
125.5
 21
39.522499999999987
 31
0.0
  0
LINE
  5
62
  8
0
 10
117.5
 20
60.477500000000042
 30
0.0
 11
125.5
 21
60.477500000000042
 31
0.0
  0
LINE
  5
63
  8
3
 10
117.5
 20
59.31550000000005
 30
0.0
 11
125.5
 21
59.315499999999972
 31
0.0
  0
LINE
  5
64
  8
0
 10
117.5
 20
39.522499999999987
 30
0.0
 11
125.5
 21
39.522499999999987
 31
0.0
  0
LINE
  5
65
  8
3
 10
117.5
 20
40.684499999999971
 30
0.0
 11
125.5
 21
40.68450000000005
 31
0.0
  0
LINE
  5
66
  8
0
 10
126.5
 20
59.3155
 30
0.0
 11
126.5
 21
40.684500000000028
 31
0.0
  0
LINE
  5
67
  8
1
 10
97.0
 20
49.999999999999993
 30
0.0
 11
129.5
 21
49.999999999999993
 31
0.0
  0
CIRCLE
  5
68
  8
2
 10
50.0
 20
100.0
 30
0.0
 40
7.5
  0
ARC
  5
69
  8
0
 10
109.5
 20
49.999999999999993
 30
0.0
 40
9.5
 50
90.0
 51
270.0
  0
LINE
  5
6A
  8
0
 10
109.5
 20
59.077272021488831
 30
0.0
 11
110.4517059118286
 21
60.999999991046863
 31
0.0
  0
LINE
  5
6B
  8
0
 10
109.5
 20
51.922727969552547
 30
0.0
 11
110.4517059118286
 21
49.999999999999993
 31
0.0
  0
LINE
  5
6C
  8
0
 10
109.5
 20
48.077272030447467
 30
0.0
 11
110.4517059118286
 21
50.000000000000043
 31
0.0
  0
LINE
  5
6D
  8
0
 10
109.5
 20
40.922727978511183
 30
0.0
 11
110.4517059118286
 21
39.000000008953172
 31
0.0
  0
ARC
  5
6E
  8
0
 10
50.000000000000021
 20
100.0
 30
0.0
 40
11.75
 50
200.58196933573339
 51
219.41803066431731
  0
ARC
  5
6F
  8
0
 10
50.0
 20
100.0
 30
0.0
 40
11.75
 50
140.58196933573331
 51
159.41803066431689
  0
ARC
  5
70
  8
0
 10
50.0
 20
100.0
 30
0.0
 40
11.75
 50
80.581969335733632
 51
99.418030664317115
  0
ARC
  5
71
  8
0
 10
50.0
 20
100.0
 30
0.0
 40
11.75
 50
20.581969335733412
 51
39.418030664317349
  0
ARC
  5
72
  8
0
 10
50.0
 20
100.0
 30
0.0
 40
11.75
 50
320.58196933573328
 51
339.41803066431692
  0
ARC
  5
73
  8
0
 10
50.0
 20
100.0
 30
0.0
 40
11.75
 50
260.58196933573367
 51
279.4180306643172
  0
LINE
  5
74
  8
0
 10
109.5
 20
39.000000008953201
 30
0.0
 11
109.5
 21
60.999999991045243
 31
0.0
  0
LINE
  5
75
  8
0
 10
114.5
 20
37.000000000000007
 30
0.0
 11
117.5
 21
37.000000000000007
 31
0.0
  0
LINE
  5
76
  8
0
 10
114.5
 20
63.000000000000007
 30
0.0
 11
117.5
 21
63.000000000000007
 31
0.0
  0
LINE
  5
77
  8
0
 10
116.0
 20
63.000000000000007
 30
0.0
 11
116.0
 21
37.000000000000007
 31
0.0
  0
LINE
  5
78
  8
0
 10
110.4517059118286
 20
50.000000000000007
 30
0.0
 11
114.5
 21
50.000000000000007
 31
0.0
  0
LINE
  5
79
  8
0
 10
109.5
 20
60.999999991045243
 30
0.0
 11
114.5
 21
60.999999991045243
 31
0.0
  0
LINE
  5
7A
  8
0
 10
114.5
 20
39.000000008953201
 30
0.0
 11
109.5
 21
39.000000008953201
 31
0.0
  0
LINE
  5
7B
  8
0
 10
114.5
 20
36.999999999999957
 30
0.0
 11
114.5
 21
63.000000000000007
 31
0.0
  0
CIRCLE
  5
7C
  8
0
 10
50.0
 20
100.0
 30
0.0
 40
9.5
  0
LINE
  5
7D
  8
0
 10
49.999999999999247
 20
112.70170591182951
 30
0.0
 11
60.999999999999247
 21
106.3508529507458
 31
0.0
  0
LINE
  5
7E
  8
0
 10
39.000000008953229
 20
106.35085295591929
 30
0.0
 11
50.000000008953222
 21
112.70170591700681
 31
0.0
  0
LINE
  5
7F
  8
0
 10
39.000000008953229
 20
93.649147044087897
 30
0.0
 11
39.000000008953229
 21
106.3508529662589
 31
0.0
  0
LINE
  5
80
  8
0
 10
49.999999999999247
 20
87.298294088171531
 30
0.0
 11
38.999999999999261
 21
93.649147049255191
 31
0.0
  0
LINE
  5
81
  8
0
 10
60.999999991035267
 20
93.649147044081644
 30
0.0
 11
49.999999991045271
 21
87.298294082994232
 31
0.0
  0
LINE
  5
82
  8
0
 10
60.999999991045279
 20
106.3508529559206
 30
0.0
 11
60.999999991045279
 21
93.649147033749557
 31
0.0
  0
CIRCLE
  5
83
  8
0
 10
50.0
 20
100.0
 30
0.0
 40
13.0
  0
LINE
  5
84
  8
1
 10
66.0
 20
100.0
 30
0.0
 11
33.999999999999993
 21
100.0
 31
0.0
  0
LINE
  5
85
  8
1
 10
50.0
 20
116.0
 30
0.0
 11
50.0
 21
84.000000000000057
 31
0.0
  0
LINE
  5
86
  8
1
 10
192.5
 20
100.0
 30
0.0
 11
160.5
 21
100.0
 31
0.0
  0
LINE
  5
87
  8
1
 10
176.5
 20
116.0
 30
0.0
 11
176.5
 21
84.000000000000014
 31
0.0
  0
LINE
  5
88
  8
0
 10
114.5
 20
136.99999999999989
 30
0.0
 11
114.5
 21
163.0
 31
0.0
  0
LINE
  5
89
  8
0
 10
114.5
 20
139.00000000895321
 30
0.0
 11
109.5
 21
139.00000000895321
 31
0.0
  0
LINE
  5
8A
  8
0
 10
109.5
 20
160.9999999910452
 30
0.0
 11
114.5
 21
160.9999999910452
 31
0.0
  0
LINE
  5
8B
  8
0
 10
110.4517059118286
 20
150.0
 30
0.0
 11
114.5
 21
150.0
 31
0.0
  0
LINE
  5
8C
  8
0
 10
116.0
 20
163.0
 30
0.0
 11
116.0
 21
137.0
 31
0.0
  0
LINE
  5
8D
  8
0
 10
114.5
 20
163.0
 30
0.0
 11
117.5
 21
163.0
 31
0.0
  0
LINE
  5
8E
  8
0
 10
114.5
 20
137.0
 30
0.0
 11
117.5
 21
137.0
 31
0.0
  0
LINE
  5
8F
  8
0
 10
109.5
 20
139.00000000895321
 30
0.0
 11
109.5
 21
160.9999999910452
 31
0.0
  0
LINE
  5
90
  8
0
 10
109.5
 20
140.9227279785112
 30
0.0
 11
110.4517059118286
 21
139.00000000895321
 31
0.0
  0
LINE
  5
91
  8
0
 10
109.5
 20
148.07727203044749
 30
0.0
 11
110.4517059118286
 21
150.0
 31
0.0
  0
LINE
  5
92
  8
0
 10
109.5
 20
151.9227279695526
 30
0.0
 11
110.4517059118286
 21
150.0
 31
0.0
  0
LINE
  5
93
  8
0
 10
109.5
 20
159.0772720214888
 30
0.0
 11
110.4517059118286
 21
160.99999999104691
 31
0.0
  0
ARC
  5
94
  8
0
 10
109.5
 20
150.0
 30
0.0
 40
9.5
 50
90.0
 51
270.0
  0
LINE
  5
95
  8
1
 10
97.0
 20
150.0
 30
0.0
 11
129.5
 21
150.0
 31
0.0
  0
LINE
  5
96
  8
0
 10
126.5
 20
159.31549999999999
 30
0.0
 11
126.5
 21
140.68450000000001
 31
0.0
  0
LINE
  5
97
  8
3
 10
117.5
 20
140.6844999999999
 30
0.0
 11
125.5
 21
140.6845000000001
 31
0.0
  0
LINE
  5
98
  8
0
 10
117.5
 20
139.52249999999989
 30
0.0
 11
125.5
 21
139.52249999999989
 31
0.0
  0
LINE
  5
99
  8
3
 10
117.5
 20
159.31549999999999
 30
0.0
 11
125.5
 21
159.31549999999999
 31
0.0
  0
LINE
  5
9A
  8
0
 10
117.5
 20
160.47749999999999
 30
0.0
 11
125.5
 21
160.47749999999999
 31
0.0
  0
LINE
  5
9B
  8
0
 10
125.5
 20
160.47749999999999
 30
0.0
 11
125.5
 21
139.52249999999989
 31
0.0
  0
LINE
  5
9C
  8
0
 10
125.5
 20
159.31549999999999
 30
0.0
 11
126.5
 21
159.31549999999999
 31
0.0
  0
LINE
  5
9D
  8
0
 10
125.5
 20
140.68450000000001
 30
0.0
 11
126.5
 21
140.68450000000001
 31
0.0
  0
LINE
  5
9E
  8
0
 10
117.5
 20
136.99999999999989
 30
0.0
 11
117.5
 21
163.0
 31
0.0
  0
TEXT
  5
2F6
  8
0
 62
     3
 10
0.0
 20
0.0
 30
0.0
 40
10.0
  1
CD-15N-ATEX
  7
STANDARD1
  0
ENDSEC
  0
EOF
