  0
SECTION
  2
HEADER
  9
$ACADVER
  1
AC1009
  9
$INSBASE
 10
0.0
 20
0.0
 30
0.0
  9
$EXTMIN
 10
0.0
 20
-2.960436562073669
 30
-6.496152954592989
  9
$EXTMAX
 10
177.8774620216833
 20
174.65275339143179
 30
17.110311943957061
  9
$LIMMIN
 10
0.0
 20
0.0
  9
$LIMMAX
 10
375.0
 20
270.0
  9
$ORTHOMODE
 70
     0
  9
$REGENMODE
 70
     1
  9
$FILLMODE
 70
     1
  9
$QTEXTMODE
 70
     0
  9
$MIRRTEXT
 70
     0
  9
$DRAGMODE
 70
     2
  9
$LTSCALE
 40
5.0
  9
$OSMODE
 70
  3071
  9
$ATTMODE
 70
     1
  9
$TEXTSIZE
 40
0.2
  9
$TRACEWID
 40
0.05
  9
$TEXTSTYLE
  7
STANDARD
  9
$CLAYER
  8
0
  9
$CELTYPE
  6
BYLAYER
  9
$CECOLOR
 62
   256
  9
$DIMSCALE
 40
1.0
  9
$DIMASZ
 40
3.0
  9
$DIMEXO
 40
2.0
  9
$DIMDLI
 40
0.38
  9
$DIMRND
 40
0.0
  9
$DIMDLE
 40
0.0
  9
$DIMEXE
 40
2.0
  9
$DIMTP
 40
0.0
  9
$DIMTM
 40
0.0
  9
$DIMTXT
 40
3.2000000000000002
  9
$DIMCEN
 40
0.09
  9
$DIMTSZ
 40
0.0
  9
$DIMTOL
 70
     0
  9
$DIMLIM
 70
     0
  9
$DIMTIH
 70
     0
  9
$DIMTOH
 70
     0
  9
$DIMSE1
 70
     0
  9
$DIMSE2
 70
     0
  9
$DIMTAD
 70
     1
  9
$DIMZIN
 70
     0
  9
$DIMBLK
  1

  9
$DIMASO
 70
     1
  9
$DIMSHO
 70
     0
  9
$DIMPOST
  1

  9
$DIMAPOST
  1

  9
$DIMALT
 70
     0
  9
$DIMALTD
 70
     2
  9
$DIMALTF
 40
25.399999999999999
  9
$DIMLFAC
 40
1.0
  9
$DIMTOFL
 70
     0
  9
$DIMTVP
 40
1.6000000000000001
  9
$DIMTIX
 70
     1
  9
$DIMSOXD
 70
     0
  9
$DIMSAH
 70
     0
  9
$DIMBLK1
  1

  9
$DIMBLK2
  1

  9
$DIMSTYLE
  2
STANDARD
  9
$DIMCLRD
 70
     0
  9
$DIMCLRE
 70
     0
  9
$DIMCLRT
 70
     0
  9
$DIMTFAC
 40
1.0
  9
$DIMGAP
 40
0.09
  9
$LUNITS
 70
     2
  9
$LUPREC
 70
     4
  9
$SKETCHINC
 40
0.1
  9
$FILLETRAD
 40
2.0
  9
$AUNITS
 70
     0
  9
$AUPREC
 70
     0
  9
$MENU
  1
E:\r13\win\SUPPORT\ACAD
  9
$ELEVATION
 40
0.0
  9
$PELEVATION
 40
0.0
  9
$THICKNESS
 40
0.0
  9
$LIMCHECK
 70
     0
  9
$BLIPMODE
 70
     0
  9
$CHAMFERA
 40
0.0
  9
$CHAMFERB
 40
0.0
  9
$SKPOLY
 70
     0
  9
$TDCREATE
 40
2447977.5416277782
  9
$TDUPDATE
 40
2456598.5873516551
  9
$TDINDWG
 40
0.0111017593
  9
$TDUSRTIMER
 40
0.0111017593
  9
$USRTIMER
 70
     1
  9
$ANGBASE
 50
0.0
  9
$ANGDIR
 70
     0
  9
$PDMODE
 70
     0
  9
$PDSIZE
 40
0.0
  9
$PLINEWID
 40
0.0
  9
$COORDS
 70
     1
  9
$SPLFRAME
 70
     0
  9
$SPLINETYPE
 70
     6
  9
$SPLINESEGS
 70
     8
  9
$ATTDIA
 70
     0
  9
$ATTREQ
 70
     1
  9
$HANDLING
 70
     1
  9
$HANDSEED
  5
667
  9
$SURFTAB1
 70
     6
  9
$SURFTAB2
 70
     6
  9
$SURFTYPE
 70
     6
  9
$SURFU
 70
     6
  9
$SURFV
 70
     6
  9
$UCSNAME
  2

  9
$UCSORG
 10
0.0
 20
0.0
 30
0.0
  9
$UCSXDIR
 10
1.0
 20
0.0
 30
0.0
  9
$UCSYDIR
 10
0.0
 20
1.0
 30
0.0
  9
$PUCSNAME
  2

  9
$PUCSORG
 10
0.0
 20
0.0
 30
0.0
  9
$PUCSXDIR
 10
1.0
 20
0.0
 30
0.0
  9
$PUCSYDIR
 10
0.0
 20
1.0
 30
0.0
  9
$USERI1
 70
     0
  9
$USERI2
 70
     1
  9
$USERI3
 70
     1
  9
$USERI4
 70
     0
  9
$USERI5
 70
     0
  9
$USERR1
 40
0.0
  9
$USERR2
 40
0.0
  9
$USERR3
 40
0.0
  9
$USERR4
 40
0.0
  9
$USERR5
 40
0.0
  9
$WORLDVIEW
 70
     1
  9
$SHADEDGE
 70
     3
  9
$SHADEDIF
 70
    70
  9
$TILEMODE
 70
     1
  9
$MAXACTVP
 70
    16
  9
$PLIMCHECK
 70
     0
  9
$PEXTMIN
 10
1.0000000000000000E+020
 20
1.0000000000000000E+020
 30
1.0000000000000000E+020
  9
$PEXTMAX
 10
-1.0000000000000000E+020
 20
-1.0000000000000000E+020
 30
-1.0000000000000000E+020
  9
$PLIMMIN
 10
0.0
 20
0.0
  9
$PLIMMAX
 10
12.0
 20
9.0
  9
$UNITMODE
 70
     0
  9
$VISRETAIN
 70
     0
  9
$PLINEGEN
 70
     1
  9
$PSLTSCALE
 70
     0
  0
ENDSEC
  0
SECTION
  2
TABLES
  0
TABLE
  2
VPORT
 70
     1
  0
VPORT
  2
*ACTIVE
 70
     0
 10
0.0
 20
0.0
 11
1.0
 21
1.0
 12
195.0581083320873
 22
133.5127261426681
 13
0.0
 23
0.0
 14
10.0
 24
10.0
 15
10.0
 25
10.0
 16
0.0
 26
0.0
 36
1.0
 17
0.0
 27
0.0
 37
0.0
 40
275.42274993631997
 41
1.831871345029239
 42
50.0
 43
0.0
 44
0.0
 50
0.0
 51
0.0
 71
     0
 72
   500
 73
     1
 74
     0
 75
     0
 76
     0
 77
     0
 78
     2
  0
ENDTAB
  0
TABLE
  2
LTYPE
 70
     4
  0
LTYPE
  2
CONTINUOUS
 70
     0
  3
Solid Line
 72
    65
 73
     0
 40
0.0
  0
LTYPE
  2
CENTER
 70
     0
  3
____ _ ____ _ ____ _ ____ _ ____ _ ____ _ ____
 72
    65
 73
     4
 40
2.0
 49
1.25
 49
-0.25
 49
0.25
 49
-0.25
  0
LTYPE
  2
HIDDEN
 70
     0
  3
_ _ _ _ _ _ _ _ _ _ _ _ _ _ _ _ _ _ _ _ _ _ _
 72
    65
 73
     2
 40
0.375
 49
0.25
 49
-0.125
  0
LTYPE
  2
PHANTOM2
 70
     0
  3
___ _ _ ___ _ _ ___ _ _ ___ _ _
 72
    65
 73
     6
 40
1.25
 49
0.625
 49
-0.125
 49
0.125
 49
-0.125
 49
0.125
 49
-0.125
  0
ENDTAB
  0
TABLE
  2
LAYER
 70
     4
  0
LAYER
  2
0
 70
     0
 62
     7
  6
CONTINUOUS
  0
LAYER
  2
1
 70
     0
 62
     1
  6
CENTER
  0
LAYER
  2
2
 70
     0
 62
     2
  6
HIDDEN
  0
LAYER
  2
3
 70
     0
 62
     3
  6
CONTINUOUS
  0
ENDTAB
  0
TABLE
  2
STYLE
 70
     2
  0
STYLE
  2
STANDARD
 70
     0
 40
0.0
 41
1.0
 50
0.0
 71
     0
 42
0.2
  3
TXT
  4
BIGFONT
  0
STYLE
  2
STANDARD1
 70
     0
 40
0.0
 41
1.0
 50
0.0
 71
     0
 42
3.0
  3
txt
  4

  0
ENDTAB
  0
TABLE
  2
VIEW
 70
     1
  0
VIEW
  2
ALL
 70
     0
 40
270.0
 10
220.99159663865549
 20
135.0
 41
0.0
 11
0.0
 21
0.0
 31
1.0
 12
0.0
 22
0.0
 32
0.0
 42
0.0
 43
0.0
 44
0.0
 50
0.0
 71
     0
  0
ENDTAB
  0
TABLE
  2
UCS
 70
     0
  0
ENDTAB
  0
TABLE
  2
APPID
 70
     3
  0
APPID
  2
ACAD
 70
     0
  0
APPID
  2
ACAD_MLEADERVER
 70
     0
  0
APPID
  2
ACAD_NAV_VCDISPLAY
 70
     0
  0
ENDTAB
  0
TABLE
  2
DIMSTYLE
 70
     1
  0
DIMSTYLE
  2
STANDARD
 70
     0
  3

  4

  5

  6

  7

 40
1.0
 41
0.18
 42
0.0625
 43
0.38
 44
0.18
 45
0.0
 46
0.0
 47
0.0
 48
0.0
140
0.18
141
0.09
142
0.0
143
25.399999999999999
144
1.0
145
0.0
146
1.0
147
0.09
 71
     0
 72
     0
 73
     1
 74
     1
 75
     0
 76
     0
 77
     0
 78
     0
170
     0
171
     2
172
     0
173
     0
174
     0
175
     0
176
     0
177
     0
178
     0
  0
ENDTAB
  0
ENDSEC
  0
SECTION
  2
BLOCKS
  0
BLOCK
  8
0
  2
$MODEL_SPACE
 70
     0
 10
0.0
 20
0.0
 30
0.0
  3
$MODEL_SPACE
  1

  0
ENDBLK
  5
19F
  8
0
  0
BLOCK
 67
     1
  8
0
  2
$PAPER_SPACE
 70
     0
 10
0.0
 20
0.0
 30
0.0
  3
$PAPER_SPACE
  1

  0
ENDBLK
  5
19D
 67
     1
  8
0
  0
ENDSEC
  0
SECTION
  2
ENTITIES
  0
ARC
  5
334
  8
3
 10
156.25063224082029
 20
112.83446453339189
 30
11.59808071288227
 40
2.0
 50
38.030493641731802
 51
90.0
  0
ARC
  5
335
  8
3
 10
172.00429180254599
 20
112.83446453339189
 30
11.59808071288227
 40
2.0
 50
90.0
 51
141.96950635826821
  0
ARC
  5
336
  8
3
 10
164.16355244363271
 20
67.302566444027036
 30
11.59808071288227
 40
15.0
 50
50.245772365828273
 51
129.75422763417171
  0
LINE
  5
337
  8
0
 10
155.8708799569624
 20
114.83446453339189
 30
11.59808071288227
 11
172.38404408640369
 21
114.83446453339189
 31
11.59808071288227
  0
ARC
  5
338
  8
3
 10
164.1274620216831
 20
118.9952723216052
 30
11.59808071288227
 40
8.0
 50
216.5749986450133
 51
321.96950635826818
  0
ARC
  5
339
  8
3
 10
46.2928171800637
 20
119.80652469617399
 30
-0.0000000000012612
 40
12.938807540346129
 50
277.88029932434949
 51
293.67880418909408
  0
ARC
  5
33A
  8
3
 10
50.67312091132726
 20
109.78296638215041
 30
17.085118129756651
 40
2.0
 50
294.08045149348499
 51
324.63507517495088
  0
ARC
  5
33B
  8
3
 10
39.967616689331983
 20
117.3811129747142
 30
17.085118129756651
 40
15.12781978430705
 50
324.63507517495088
 51
335.1928050524366
  0
ARC
  5
33C
  8
3
 10
51.884064257265209
 20
111.8731251706311
 30
17.085118129756651
 40
2.0
 50
335.1928050524366
 51
0.0
  0
LINE
  5
33D
  8
0
 10
177.8774620216833
 20
97.385431554934542
 30
-1.5857094098754521
 11
177.87746202168319
 21
98.619778704704061
 31
1.585709409875478
  0
ARC
  5
33E
  8
0
 10
178.8504149094781
 20
90.885890218415227
 30
11.59808071288227
 40
2.1762096660000001
 50
166.27959283499919
 51
193.72040801900269
  0
LINE
  5
33F
  8
0
 10
177.5604139484459
 20
85.497511254415315
 30
4.7717333618822764
 11
177.48070630986851
 21
85.497511254415315
 31
4.7717333618822764
  0
LINE
  5
340
  8
0
 10
177.8774620216829
 20
82.834486167739499
 30
-5.4870374168756122
 11
177.87746202168279
 21
84.386348193895913
 31
-5.4870374168756122
  0
ARC
  5
341
  8
0
 10
174.2829033978046
 20
89.785874086540204
 30
-4.5474945431177254
 40
2.5219158901488168
 50
351.92902106957041
 51
13.38610208399958
  0
ARC
  5
342
  8
0
 10
179.27373893591201
 20
89.170416821499941
 30
-4.5474945431177254
 40
2.5075594879777112
 50
174.0167817725382
 51
196.69631454775271
  0
ARC
  5
343
  8
0
 10
174.4311401103991
 20
87.668266980390456
 30
-4.5474945431177254
 40
2.56288720458749
 50
358.56038768710118
 51
17.759340887241521
  0
ARC
  5
344
  8
0
 10
176.21771330677589
 20
86.166321445436608
 30
-3.190583543117723
 40
1.116692247044295
 50
356.45253724001873
 51
32.645513485463717
  0
ARC
  5
345
  8
0
 10
178.51648616231739
 20
87.470576174756886
 30
-3.797369543117723
 40
1.5290893873782501
 50
174.9987354136465
 51
207.3232067155167
  0
ARC
  5
346
  8
0
 10
178.39422741166399
 20
86.041847827561298
 30
-2.519099543117723
 40
1.06340166836893
 50
177.0149048300226
 51
210.7892954303
  0
ARC
  5
347
  8
0
 10
176.75846059080649
 20
84.90021879707848
 30
-1.5857094098754521
 40
1.0000288807422639
 50
355.49960189750362
 51
36.674997007456703
  0
ARC
  5
348
  8
0
 10
178.26168461915159
 20
84.72886593913546
 30
-1.5857094098754521
 40
0.5147284820265679
 50
169.6038225073608
 51
221.7156162630169
  0
ARC
  5
349
  8
0
 10
178.26168461915159
 20
97.042913809695222
 30
-1.5857094098754521
 40
0.5147284820265679
 50
138.2843837369831
 51
190.3961774926392
  0
ARC
  5
34A
  8
0
 10
176.75846059080649
 20
96.871560951752201
 30
-1.5857094098754521
 40
1.0000288807422639
 50
323.32500299254332
 51
4.5003981024963986
  0
ARC
  5
34B
  8
0
 10
178.39422741166399
 20
95.729931921269383
 30
-2.519099543117723
 40
1.06340166836893
 50
149.21070456969991
 51
182.98509516997731
  0
ARC
  5
34C
  8
0
 10
178.51648616231739
 20
94.301203574073782
 30
-3.797369543117723
 40
1.5290893873782501
 50
152.6767932844833
 51
185.0012645863535
  0
ARC
  5
34D
  8
0
 10
176.21771330677589
 20
95.605458303394073
 30
-3.190583543117723
 40
1.116692247044295
 50
327.35448651453629
 51
3.5474627599812569
  0
ARC
  5
34E
  8
0
 10
174.4311401103991
 20
94.103512768440225
 30
-4.5474945431177254
 40
2.56288720458749
 50
342.24065911275852
 51
1.4396123128988041
  0
ARC
  5
34F
  8
0
 10
179.27373893591201
 20
92.60136292733074
 30
-4.5474945431177254
 40
2.5075594879777112
 50
163.30368545224729
 51
185.9832182274618
  0
ARC
  5
350
  8
0
 10
174.2829033978046
 20
91.985905662290236
 30
-4.5474945431177254
 40
2.5219158901488168
 50
346.61389791600038
 51
8.0709789304296091
  0
LINE
  5
351
  8
0
 10
177.5604139484459
 20
96.274268494415139
 30
4.7717333618822764
 11
177.48070630986851
 21
96.274268494415139
 31
4.7717333618822764
  0
LINE
  5
352
  8
0
 10
154.3774620216833
 20
78.834486167739726
 30
-5.4870374168756264
 11
173.8774620216831
 21
78.834486167739726
 31
-5.4870374168756539
  0
ARC
  5
353
  8
0
 10
173.8774620216831
 20
82.834486167739726
 30
-5.4870374168743821
 40
4.0
 50
270.0
 51
0.0
  0
ARC
  5
354
  8
0
 10
174.4672229065398
 20
98.861622350431233
 30
11.59808076540603
 40
3.4188037632236621
 50
355.943551082846
 51
51.864535794976469
  0
ARC
  5
355
  8
0
 10
178.94593785177159
 20
104.85468825301611
 30
11.59808076540603
 40
4.0646727892616683
 50
182.12650456699669
 51
234.37596630028341
  0
ARC
  5
356
  8
0
 10
172.1218140546417
 20
112.0742538458592
 30
-6.496152954592989
 40
2.7726391090668341
 50
4.961483768773383
 51
84.572562740274364
  0
LINE
  5
357
  8
0
 10
174.88406425726509
 20
104.7038645611938
 30
11.62327452708268
 11
174.88406425726509
 21
112.3140484396977
 31
11.62327452708268
  0
LINE
  5
358
  8
1
 10
164.1274620216831
 20
119.83461063525991
 30
-5.4870374168756397
 11
164.1274620216831
 21
73.834486167739726
 31
-5.4870374168756397
  0
LINE
  5
359
  8
0
 10
153.37085978610119
 20
104.7038645611938
 30
11.62327452708268
 11
153.37085978610119
 21
112.3140484396977
 31
11.62327452708268
  0
ARC
  5
35A
  8
0
 10
156.13310998872461
 20
112.0742538458592
 30
-6.496152954592989
 40
2.7726391090668341
 50
95.427437259725636
 51
175.03851623122659
  0
ARC
  5
35B
  8
0
 10
149.3089861915947
 20
104.85468825301611
 30
11.59808076540603
 40
4.0646727892616683
 50
305.62403369971662
 51
357.87349543300331
  0
ARC
  5
35C
  8
0
 10
153.78770113682651
 20
98.861622350431233
 30
11.59808076540603
 40
3.4188037632236621
 50
128.13546420502351
 51
184.056448917154
  0
LINE
  5
35D
  8
0
 10
150.37746202168299
 20
97.385431554934542
 30
-1.5857094098754521
 11
150.37746202168319
 21
98.619778704704061
 31
1.585709409875478
  0
LINE
  5
35E
  8
0
 10
150.6945100949203
 20
96.274268494415139
 30
4.7717333618822764
 11
150.77421773349769
 21
96.274268494415139
 31
4.7717333618822764
  0
ARC
  5
35F
  8
0
 10
153.9720206455616
 20
91.985905662290236
 30
-4.5474945431177254
 40
2.5219158901488168
 50
171.92902106957041
 51
193.38610208399959
  0
ARC
  5
360
  8
0
 10
148.98118510745431
 20
92.60136292733074
 30
-4.5474945431177254
 40
2.5075594879777112
 50
354.0167817725382
 51
16.696314547752671
  0
ARC
  5
361
  8
0
 10
153.8237839329671
 20
94.103512768440225
 30
-4.5474945431177254
 40
2.56288720458749
 50
178.56038768710121
 51
197.75934088724151
  0
ARC
  5
362
  8
0
 10
152.03721073659031
 20
95.605458303394073
 30
-3.190583543117723
 40
1.116692247044295
 50
176.4525372400187
 51
212.64551348546371
  0
ARC
  5
363
  8
0
 10
149.7384378810489
 20
94.301203574073782
 30
-3.797369543117723
 40
1.5290893873782501
 50
354.99873541364639
 51
27.323206715516651
  0
ARC
  5
364
  8
0
 10
149.86069663170221
 20
95.729931921269383
 30
-2.519099543117723
 40
1.06340166836893
 50
357.0149048300226
 51
30.789295430300029
  0
ARC
  5
365
  8
0
 10
151.49646345255971
 20
96.871560951752201
 30
-1.5857094098754521
 40
1.0000288807422639
 50
175.4996018975036
 51
216.67499700745671
  0
ARC
  5
366
  8
0
 10
149.99323942421461
 20
97.042913809695222
 30
-1.5857094098754521
 40
0.5147284820265679
 50
349.60382250736092
 51
41.715616263016869
  0
ARC
  5
367
  8
0
 10
149.99323942421461
 20
84.72886593913546
 30
-1.5857094098754521
 40
0.5147284820265679
 50
318.2843837369831
 51
10.39617749263914
  0
ARC
  5
368
  8
0
 10
151.49646345255971
 20
84.90021879707848
 30
-1.5857094098754521
 40
1.0000288807422639
 50
143.32500299254329
 51
184.5003981024964
  0
ARC
  5
369
  8
0
 10
149.86069663170221
 20
86.041847827561298
 30
-2.519099543117723
 40
1.06340166836893
 50
329.2107045697
 51
2.985095169977356
  0
ARC
  5
36A
  8
0
 10
149.7384378810489
 20
87.470576174756886
 30
-3.797369543117723
 40
1.5290893873782501
 50
332.67679328448332
 51
5.0012645863535363
  0
ARC
  5
36B
  8
0
 10
152.03721073659031
 20
86.166321445436608
 30
-3.190583543117723
 40
1.116692247044295
 50
147.35448651453629
 51
183.54746275998119
  0
ARC
  5
36C
  8
0
 10
153.8237839329671
 20
87.668266980390456
 30
-4.5474945431177254
 40
2.56288720458749
 50
162.24065911275841
 51
181.43961231289879
  0
ARC
  5
36D
  8
0
 10
148.98118510745431
 20
89.170416821499941
 30
-4.5474945431177254
 40
2.5075594879777112
 50
343.30368545224729
 51
5.9832182274618058
  0
ARC
  5
36E
  8
0
 10
153.9720206455616
 20
89.785874086540204
 30
-4.5474945431177254
 40
2.5219158901488168
 50
166.61389791600041
 51
188.07097893042959
  0
ARC
  5
36F
  8
0
 10
154.3774620216833
 20
82.834486167739726
 30
-5.4870374168743821
 40
4.0
 50
180.0
 51
270.0
  0
LINE
  5
370
  8
0
 10
150.3774620216833
 20
82.834486167739499
 30
-5.4870374168756122
 11
150.37746202168341
 21
84.386348193895913
 31
-5.4870374168756122
  0
LINE
  5
371
  8
0
 10
150.6945100949203
 20
85.497511254415315
 30
4.7717333618822764
 11
150.77421773349769
 21
85.497511254415315
 31
4.7717333618822764
  0
ARC
  5
372
  8
0
 10
149.4045091338881
 20
90.885890218415227
 30
11.59808071288227
 40
2.1762096660000001
 50
346.27959198099728
 51
13.72040716500076
  0
LINE
  5
373
  8
1
 10
93.504406906364693
 20
169.91473621006759
 30
0.0
 11
93.504406906364693
 21
151.9147362100671
 31
0.0
  0
CIRCLE
  5
374
  8
3
 10
93.504406906364693
 20
160.9147362100673
 30
0.0
 40
3.3235000000002231
  0
CIRCLE
  5
375
  8
0
 10
93.504406906364693
 20
160.9147362100673
 30
0.0
 40
4.000000000000056
  0
LINE
  5
376
  8
0
 10
92.349706368924544
 20
158.91473621169601
 30
0.0
 11
94.659107445682935
 21
158.91473621169601
 31
0.0
  0
LINE
  5
377
  8
0
 10
94.659107443804373
 20
158.9147362116978
 30
0.0
 11
95.813807982183903
 21
160.91473621169601
 31
0.0
  0
LINE
  5
378
  8
0
 10
95.813807981242576
 20
160.91473621006801
 30
0.0
 11
94.659107442863728
 21
162.91473621006801
 31
0.0
  0
LINE
  5
379
  8
0
 10
94.659107443803236
 20
162.91473620843999
 30
0.0
 11
92.349706367044874
 21
162.91473620843999
 31
0.0
  0
LINE
  5
37A
  8
0
 10
92.349706368924785
 20
162.91473620843999
 30
0.0
 11
91.195005830545256
 21
160.91473620843999
 31
0.0
  0
LINE
  5
37B
  8
0
 10
91.195005831486583
 20
160.91473621006801
 30
0.0
 11
92.349706369865444
 21
158.91473621006801
 31
0.0
  0
ARC
  5
37C
  8
0
 10
92.392378214902109
 20
164.95664089643611
 30
0.0
 40
5.0
 50
106.8203822835891
 51
165.47988271527009
  0
ARC
  5
37D
  8
0
 10
106.9889027475744
 20
161.4648992853441
 30
0.0
 40
10.0
 50
65.450051431823169
 51
84.422822965305812
  0
ARC
  5
37E
  8
0
 10
103.6828877811035
 20
127.60869113379501
 30
0.0
 40
44.017239237768159
 50
84.422822965305812
 51
106.8203822835891
  0
ARC
  5
37F
  8
0
 10
97.493653459985254
 20
157.1149239639681
 30
0.0
 40
9.9501877539009911
 50
200.24167004181851
 51
283.17941024423419
  0
ARC
  5
380
  8
0
 10
106.9889027475744
 20
160.36457313479059
 30
0.0
 40
10.0
 50
275.5771770346941
 51
294.54994856817677
  0
ARC
  5
381
  8
0
 10
92.392378214902109
 20
156.87283152369861
 30
0.0
 40
5.0
 50
194.52011728472979
 51
253.17961771641089
  0
ARC
  5
382
  8
0
 10
103.6828877811034
 20
194.2207812863397
 30
0.0
 40
44.017239237768159
 50
253.17961771641089
 51
275.5771770346941
  0
ARC
  5
383
  8
0
 10
115.821573102683
 20
155.97228999856731
 30
0.0
 40
0.8394711919999998
 50
100.5555469190015
 51
169.44445922799949
  0
ARC
  5
384
  8
0
 10
115.530063821683
 20
157.53563291256751
 30
0.0
 40
0.750817796
 50
280.57692871299793
 51
7.429902773998533
  0
ARC
  5
385
  8
0
 10
117.1065647766829
 20
157.74169839856731
 30
0.0
 40
0.839093663
 50
118.5378640599951
 51
187.46220455999901
  0
ARC
  5
386
  8
0
 10
114.0523724916829
 20
154.6868905165675
 30
0.0
 40
0.839471072
 50
82.555471286000213
 51
151.44445872700061
  0
ARC
  5
387
  8
0
 10
114.257913210683
 20
156.26423544956751
 30
0.0
 40
0.751209404
 50
262.59837415200229
 51
349.40170725199812
  0
ARC
  5
388
  8
0
 10
117.783767453683
 20
159.82114801656741
 30
0.0
 40
0.8403235509999998
 50
136.59534060300209
 51
205.40461973599491
  0
ARC
  5
389
  8
0
 10
116.627462135683
 20
160.9147359915674
 30
0.0
 40
0.751209248
 50
316.59832016000439
 51
43.401681434002377
  0
ARC
  5
38A
  8
0
 10
116.347358590683
 20
162.6914718285675
 30
0.0
 40
0.750262383
 50
334.52985825900231
 51
61.47012726099944
  0
ARC
  5
38B
  8
0
 10
117.106564901683
 20
164.08777352056731
 30
0.0
 40
0.8390936659999999
 50
172.53785873300319
 51
241.46212239299641
  0
ARC
  5
38C
  8
0
 10
115.530063951683
 20
164.2938390495674
 30
0.0
 40
0.750817793
 50
352.57002027300268
 51
79.423074588996798
  0
ARC
  5
38D
  8
0
 10
117.783767766683
 20
162.00832363256731
 30
0.0
 40
0.8403235479999999
 50
154.5954298969987
 51
223.40463048199899
  0
ARC
  5
38E
  8
0
 10
116.347358211683
 20
159.1379999495673
 30
0.0
 40
0.750262383
 50
298.52990848400339
 51
25.47007161800062
  0
ARC
  5
38F
  8
0
 10
109.785701154683
 20
154.0111161755672
 30
0.0
 40
0.83947099
 50
46.555511265998867
 51
115.4444304040025
  0
ARC
  5
390
  8
0
 10
110.879127609683
 20
155.16640049756739
 30
0.0
 40
0.7512092509999999
 50
226.5982664289952
 51
313.40173015600129
  0
ARC
  5
391
  8
0
 10
111.9725540666829
 20
154.01111616256739
 30
0.0
 40
0.8394709999999999
 50
64.555573237999823
 51
133.44449237699411
  0
ARC
  5
392
  8
0
 10
106.227517466683
 20
157.53495505456749
 30
0.0
 40
0.7502375620000001
 50
172.51210891999301
 51
179.91216126301089
  0
ARC
  5
393
  8
0
 10
106.228358730683
 20
157.5358831545673
 30
0.0
 40
0.751094403
 50
181.8307272500021
 51
259.42092916899958
  0
ARC
  5
394
  8
0
 10
105.93668125468299
 20
155.97229036556749
 30
0.0
 40
0.8394709890000001
 50
10.555520281999049
 51
79.444398439003066
  0
ARC
  5
395
  8
0
 10
107.500340909683
 20
156.26423515156739
 30
0.0
 40
0.7512092500000001
 50
190.5982722570003
 51
277.40171122500129
  0
ARC
  5
396
  8
0
 10
107.705881839683
 20
154.6868904835674
 30
0.0
 40
0.83947099
 50
28.555544915996411
 51
97.444464053996896
  0
ARC
  5
397
  8
0
 10
109.102794222683
 20
155.44774466156741
 30
0.0
 40
0.7512092540000001
 50
208.59830007899791
 51
295.40171599500451
  0
ARC
  5
398
  8
0
 10
104.651690929683
 20
157.74169864656739
 30
0.0
 40
0.839093213
 50
352.53777494900021
 51
61.462149599995833
  0
ARC
  5
399
  8
0
 10
103.967962210683
 20
162.0115555015673
 30
0.0
 40
0.8472877210000001
 50
316.73980069799768
 51
358.34399581899919
  0
ARC
  5
39A
  8
0
 10
105.130793083683
 20
160.9147359915674
 30
0.0
 40
0.751209248
 50
136.5983185659976
 51
223.40167642500131
  0
ARC
  5
39B
  8
0
 10
103.97367696468299
 20
159.8221696265673
 30
0.0
 40
0.8414944229999999
 50
334.55622962000672
 51
359.70148225698989
  0
ARC
  5
39C
  8
0
 10
103.96796252568301
 20
159.8179161455673
 30
0.0
 40
0.847287722
 50
1.6559886990016359
 51
43.260228217003771
  0
ARC
  5
39D
  8
0
 10
106.228358602683
 20
164.2935888055672
 30
0.0
 40
0.751094403
 50
100.5790564300009
 51
178.16933604300141
  0
ARC
  5
39E
  8
0
 10
106.22751653568299
 20
164.29451685256731
 30
0.0
 40
0.7502367590000001
 50
180.0879020300047
 51
187.48797486399761
  0
ARC
  5
39F
  8
0
 10
104.6516908056831
 20
164.08777327156719
 30
0.0
 40
0.8390932149999999
 50
298.53785540900191
 51
7.4621617579958839
  0
ARC
  5
3A0
  8
0
 10
105.410896096683
 20
162.69147200156749
 30
0.0
 40
0.7502619759999999
 50
118.5298454180018
 51
205.47016906099549
  0
ARC
  5
3A1
  8
0
 10
103.9736766586829
 20
162.00730202756731
 30
0.0
 40
0.8414944129999998
 50
0.2984954319953661
 51
25.44372074800129
  0
ARC
  5
3A2
  8
0
 10
105.410896474683
 20
159.13799977656731
 30
0.0
 40
0.7502619759999999
 50
154.52990106200099
 51
241.47012566700261
  0
ARC
  5
3A3
  8
0
 10
112.6554601976829
 20
155.44774505456741
 30
0.0
 40
0.751209265
 50
244.59835059900169
 51
331.4016657700036
  0
LINE
  5
3A4
  8
1
 10
81.877462021682845
 20
160.9147362100673
 30
0.0
 11
125.41257832768289
 21
160.91473621006759
 31
0.0
  0
ARC
  5
3A5
  8
0
 10
114.05237249268291
 20
167.1425804685673
 30
0.0
 40
0.8394710729999999
 50
208.55554309399929
 51
277.44452797399788
  0
ARC
  5
3A6
  8
0
 10
114.257913393683
 20
165.56523555956741
 30
0.0
 40
0.7512094030000001
 50
10.598366057994889
 51
97.401648785996557
  0
ARC
  5
3A7
  8
0
 10
111.97255406768291
 20
167.81835482156751
 30
0.0
 40
0.8394710009999998
 50
226.5555162749983
 51
295.44443029100103
  0
ARC
  5
3A8
  8
0
 10
110.879127609683
 20
166.66307048656751
 30
0.0
 40
0.7512092509999999
 50
46.598264606998178
 51
133.40173175000319
  0
ARC
  5
3A9
  8
0
 10
109.785701154683
 20
167.81835480856719
 30
0.0
 40
0.83947099
 50
244.5555662939957
 51
313.44448713999532
  0
ARC
  5
3AA
  8
0
 10
109.102794222683
 20
166.3817263225674
 30
0.0
 40
0.7512092540000001
 50
64.598285599000945
 51
151.40169810000091
  0
ARC
  5
3AB
  8
0
 10
107.705881839683
 20
167.14258050056739
 30
0.0
 40
0.83947099
 50
262.5555343519996
 51
331.44445007500241
  0
ARC
  5
3AC
  8
0
 10
107.500340725683
 20
165.56523585756719
 30
0.0
 40
0.7512092490000001
 50
82.598279269999409
 51
169.40165078999411
  0
ARC
  5
3AD
  8
0
 10
112.655460198683
 20
166.38172593056751
 30
0.0
 40
0.751209265
 50
28.59832557799567
 51
115.40165611700171
  0
ARC
  5
3AE
  8
0
 10
115.821573102683
 20
165.85718198456749
 30
0.0
 40
0.8394711909999998
 50
190.55554259400321
 51
259.44446173199958
  0
ARC
  5
3AF
  8
0
 10
112.3772804088852
 20
160.91473620943961
 30
0.0
 40
8.0001816127975705
 50
300.57954167923208
 51
59.420464911545558
  0
ARC
  5
3B0
  8
0
 10
105.93668125468299
 20
165.85718161856721
 30
0.0
 40
0.8394709890000001
 50
280.55560315500242
 51
349.44448472699622
  0
LINE
  5
3B1
  8
1
 10
110.877462021683
 20
172.4142814148704
 30
0.0
 11
110.877462021683
 21
149.41519100526421
 31
0.0
  0
ARC
  5
3B2
  8
0
 10
107.9986535731755
 20
160.91473534265199
 30
0.0
 40
21.121191551492739
 50
159.94654847280211
 51
199.71814241634351
  0
ARC
  5
3B3
  8
0
 10
86.85887337371696
 20
204.43404117762341
 30
0.0
 40
58.449314713116891
 50
282.75383822002681
 51
300.41255371128409
  0
ARC
  5
3B4
  8
0
 10
86.858875569141333
 20
117.3954367781148
 30
0.0
 40
58.449308829422378
 50
59.587446299220517
 51
77.246162681055097
  0
ARC
  5
3B5
  8
0
 10
97.493653459985254
 20
164.71454845616631
 30
0.0
 40
9.9501877539009911
 50
76.820589755765795
 51
159.75832995818149
  0
ARC
  5
3B6
  8
0
 10
57.850414909478332
 20
90.885890218415227
 30
17.085118129756658
 40
2.1762096660000001
 50
166.27959283499919
 51
193.72040801900269
  0
ARC
  5
3B7
  8
0
 10
54.596971156478268
 20
90.885889874415227
 30
17.085118129756658
 40
0.7523407259999999
 50
136.67973692499729
 51
223.3202630750026
  0
ARC
  5
3B8
  8
0
 10
54.912292270478467
 20
89.108891237415307
 30
17.085118129756658
 40
0.790248218
 50
155.88220418199799
 51
236.48906245499819
  0
LINE
  5
3B9
  8
3
 10
56.560413948446133
 20
85.497511254415315
 30
10.258770778756659
 11
55.955526621478377
 21
85.497511254415315
 31
10.258770778756659
  0
LINE
  5
3BA
  8
3
 10
54.049622476478362
 20
90.369727716415184
 30
0.7909888737566604
 11
55.736306131478379
 21
90.369727716415184
 31
0.7909888737566604
  0
LINE
  5
3BB
  8
3
 10
54.191025675478379
 20
89.431797716415133
 30
0.9395428737566575
 11
55.779839456478378
 21
89.431797716415133
 31
0.9395428737566575
  0
LINE
  5
3BC
  8
3
 10
54.824624002478458
 20
87.603878716415295
 30
1.6896678737566591
 11
55.993218363478491
 21
87.603878716415295
 31
1.6896678737566591
  0
LINE
  5
3BD
  8
3
 10
55.253350199478291
 20
86.768709716415344
 30
2.2964538737566591
 11
56.157998026478481
 21
86.768709716415344
 31
2.2964538737566591
  0
LINE
  5
3BE
  8
3
 10
55.654793680478399
 20
86.097225716415394
 30
2.9679378737566591
 11
56.332268656478391
 21
86.097225716415394
 31
2.9679378737566591
  0
LINE
  5
3BF
  8
3
 10
54.475998819478491
 20
88.449997716415112
 30
1.258548873756657
 11
55.871895731478382
 21
88.449997716415112
 31
1.258548873756657
  0
LINE
  5
3C0
  8
0
 10
56.877462021683193
 20
82.834486167739499
 30
-0.0000000000012292
 11
56.877462021683073
 21
84.386348193895913
 31
-0.0000000000012292
  0
ARC
  5
3C1
  8
0
 10
52.877462021683179
 20
82.834486167739726
 30
0.0
 40
4.0
 50
270.0
 51
0.0
  0
ARC
  5
3C2
  8
0
 10
53.191429073172337
 20
89.760720276770428
 30
0.7909888737566604
 40
1.052324084595913
 50
341.7859572729389
 51
35.360994845156931
  0
ARC
  5
3C3
  8
0
 10
53.826545307375568
 20
87.687523415131466
 30
17.085118129756658
 40
1.001577514344983
 50
355.2094805419573
 51
49.576585359015233
  0
ARC
  5
3C4
  8
0
 10
55.568262563749393
 20
87.457992800478735
 30
12.480567873756661
 40
0.7578132798696478
 50
168.9007540658591
 51
245.4457886122554
  0
ARC
  5
3C5
  8
0
 10
54.904190933783411
 20
86.10422902075635
 30
12.480567873756661
 40
0.7506309264372054
 50
359.46542889602881
 51
62.279786070397527
  0
ARC
  5
3C6
  8
0
 10
56.468510227144399
 20
86.130012154958706
 30
2.9679378737566591
 40
0.8143767978463069
 50
182.30732554148261
 51
230.95656094743771
  0
LINE
  5
3C7
  8
3
 10
56.755406171063207
 20
84.821750508415377
 30
5.9881513867566598
 11
56.448204562763749
 21
84.821750508415377
 31
5.9881513867566598
  0
ARC
  5
3C8
  8
0
 10
55.660154973286133
 20
84.764685075462751
 30
10.258770778756659
 40
0.7901130419843849
 50
4.1417589141530504
 51
68.047693379788285
  0
ARC
  5
3C9
  8
0
 10
53.28290339780483
 20
89.785874086540204
 30
0.9395428737566575
 40
2.5219158901488168
 50
351.92902106957041
 51
13.38610208399958
  0
ARC
  5
3CA
  8
0
 10
58.273738935912213
 20
89.170416821499941
 30
0.9395428737566575
 40
2.5075594879777112
 50
174.0167817725382
 51
196.69631454775271
  0
ARC
  5
3CB
  8
0
 10
53.431140110399383
 20
87.668266980390456
 30
0.9395428737566575
 40
2.56288720458749
 50
358.56038768710118
 51
17.759340887241521
  0
ARC
  5
3CC
  8
0
 10
55.217713306776197
 20
86.166321445436608
 30
2.2964538737566591
 40
1.116692247044295
 50
356.45253724001873
 51
32.645513485463717
  0
ARC
  5
3CD
  8
0
 10
57.516486162317612
 20
87.470576174756886
 30
1.6896678737566591
 40
1.5290893873782501
 50
174.9987354136465
 51
207.3232067155167
  0
ARC
  5
3CE
  8
0
 10
57.394227411664247
 20
86.041847827561071
 30
2.9679378737566591
 40
1.06340166836893
 50
177.0149048300226
 51
210.7892954303
  0
ARC
  5
3CF
  8
0
 10
55.758460590806742
 20
84.90021879707848
 30
3.9013280069989298
 40
1.0000288807422639
 50
355.49960189750362
 51
36.674997007456703
  0
ARC
  5
3D0
  8
0
 10
57.346973769113099
 20
85.278534517771334
 30
10.258770778756659
 40
1.0081853586942111
 50
206.9411718695473
 51
242.2444769244712
  0
ARC
  5
3D1
  8
0
 10
57.261684619151879
 20
84.728865939135233
 30
3.9013280069989298
 40
0.5147284820265679
 50
169.6038225073608
 51
221.7156162630169
  0
ARC
  5
3D2
  8
0
 10
57.261684619151879
 20
97.042913809695222
 30
3.9013280069989298
 40
0.5147284820265679
 50
138.2843837369831
 51
190.3961774926392
  0
ARC
  5
3D3
  8
0
 10
57.346973769113099
 20
96.49324523105912
 30
10.258770778756659
 40
1.0081853586942111
 50
117.7555230755287
 51
153.0588281304527
  0
ARC
  5
3D4
  8
0
 10
55.758460590806742
 20
96.871560951752201
 30
3.9013280069989298
 40
1.0000288807422639
 50
323.32500299254332
 51
4.5003981024963986
  0
ARC
  5
3D5
  8
0
 10
57.394227411664247
 20
95.729931921269383
 30
2.9679378737566591
 40
1.06340166836893
 50
149.21070456969991
 51
182.98509516997731
  0
ARC
  5
3D6
  8
0
 10
57.516486162317612
 20
94.301203574073554
 30
1.6896678737566591
 40
1.5290893873782501
 50
152.6767932844833
 51
185.0012645863535
  0
ARC
  5
3D7
  8
0
 10
55.217713306776197
 20
95.605458303394073
 30
2.2964538737566591
 40
1.116692247044295
 50
327.35448651453629
 51
3.5474627599812569
  0
ARC
  5
3D8
  8
0
 10
53.431140110399383
 20
94.103512768439998
 30
0.9395428737566575
 40
2.56288720458749
 50
342.24065911275852
 51
1.4396123128988041
  0
ARC
  5
3D9
  8
0
 10
58.273738935912213
 20
92.60136292733074
 30
0.9395428737566575
 40
2.5075594879777112
 50
163.30368545224729
 51
185.9832182274618
  0
ARC
  5
3DA
  8
0
 10
53.28290339780483
 20
91.985905662290236
 30
0.9395428737566575
 40
2.5219158901488168
 50
346.61389791600038
 51
8.0709789304296091
  0
ARC
  5
3DB
  8
0
 10
55.660154973286133
 20
97.007094673367703
 30
10.258770778756659
 40
0.7901130419843849
 50
291.95230662021169
 51
355.85824108584688
  0
LINE
  5
3DC
  8
3
 10
56.755406171063207
 20
96.950029240415063
 30
5.9881513867566598
 11
56.448204562763749
 21
96.950029240415304
 31
5.9881513867566598
  0
ARC
  5
3DD
  8
0
 10
56.468510227144399
 20
95.641767593871975
 30
2.9679378737566591
 40
0.8143767978463069
 50
129.04343905256221
 51
177.69267445851739
  0
ARC
  5
3DE
  8
0
 10
54.904190933783411
 20
95.667550728074104
 30
12.480567873756661
 40
0.7506309264372054
 50
297.72021392960249
 51
0.5345711039712117
  0
ARC
  5
3DF
  8
0
 10
55.568262563749393
 20
94.313786948351719
 30
12.480567873756661
 40
0.7578132798696478
 50
114.5542113877445
 51
191.09924593414081
  0
ARC
  5
3E0
  8
0
 10
53.826545307375568
 20
94.084256333699216
 30
17.085118129756658
 40
1.001577514344983
 50
310.42341464098467
 51
4.7905194580427031
  0
ARC
  5
3E1
  8
0
 10
53.191429073172337
 20
92.011059472060026
 30
0.7909888737566604
 40
1.052324084595913
 50
324.63900515484312
 51
18.214042727061091
  0
LINE
  5
3E2
  8
3
 10
54.475998819478491
 20
93.321782032415342
 30
1.258548873756657
 11
55.871895731478382
 21
93.321782032415342
 31
1.258548873756657
  0
LINE
  5
3E3
  8
3
 10
55.654793680478399
 20
95.674554032415287
 30
2.9679378737566591
 11
56.332268656478391
 21
95.674554032415287
 31
2.9679378737566591
  0
LINE
  5
3E4
  8
3
 10
55.253350199478291
 20
95.00307003241511
 30
2.2964538737566591
 11
56.157998026478481
 21
95.00307003241511
 31
2.2964538737566591
  0
LINE
  5
3E5
  8
3
 10
54.824624002478458
 20
94.167901032415145
 30
1.6896678737566591
 11
55.993218363478491
 21
94.167901032415145
 31
1.6896678737566591
  0
LINE
  5
3E6
  8
3
 10
54.191025675478379
 20
92.339982032415307
 30
0.9395428737566575
 11
55.779839456478378
 21
92.339982032415307
 31
0.9395428737566575
  0
LINE
  5
3E7
  8
3
 10
54.049622476478362
 20
91.402052032415256
 30
0.7909888737566604
 11
55.736306131478379
 21
91.402052032415256
 31
0.7909888737566604
  0
LINE
  5
3E8
  8
3
 10
56.560413948446133
 20
96.274268494415139
 30
10.258770778756659
 11
55.955526621478377
 21
96.274268494415139
 31
10.258770778756659
  0
ARC
  5
3E9
  8
0
 10
54.912292270478467
 20
92.662888511415133
 30
17.085118129756658
 40
0.790248218
 50
123.5109375450017
 51
204.11779581800201
  0
LINE
  5
3EA
  8
0
 10
56.877462021683407
 20
97.385431554934542
 30
3.9013280069989298
 11
56.8774620216833
 21
98.619778704704061
 31
7.072746826749861
  0
ARC
  5
3EB
  8
0
 10
53.467222906539973
 20
98.861622350431233
 30
17.085118182280421
 40
3.4188037632236621
 50
355.943551082846
 51
51.864535794976469
  0
ARC
  5
3EC
  8
0
 10
57.94593785177176
 20
104.85468825301611
 30
17.085118182280421
 40
4.0646727892616683
 50
182.12650456699669
 51
234.37596630028341
  0
ARC
  5
3ED
  8
0
 10
51.121814054641838
 20
112.0742538458592
 30
-1.0091155377186061
 40
2.7726391090668341
 50
4.961483768773383
 51
84.572562740274364
  0
LINE
  5
3EE
  8
0
 10
53.884064257265209
 20
104.7038645611938
 30
17.110311943957061
 11
53.884064257265209
 21
112.3140484396977
 31
17.110311943957061
  0
ARC
  5
3EF
  8
3
 10
66.969204703253013
 20
83.401496589405085
 30
17.085118182280421
 40
25.0002356328269
 50
121.5606403993354
 51
146.47675687899999
  0
POLYLINE
  5
3F0
  8
0
 66
     1
 10
0.0
 20
0.0
 30
17.085118129756658
 70
     1
  0
VERTEX
  5
3F1
  8
0
 10
43.157749399127511
 20
111.3074135982029
 30
17.085118129756658
 42
0.0415250391013913
  0
VERTEX
  5
3F2
  8
0
 10
44.757354326700352
 20
111.4404903806697
 30
17.085118129756658
 42
0.0546466138867437
  0
VERTEX
  5
3F3
  8
0
 10
45.932651756791643
 20
111.7723392766998
 30
17.085118129756658
 42
0.0975961548872003
 70
     2
 50
22.023010499893431
  0
VERTEX
  5
3F4
  8
0
 10
46.866370522165766
 20
112.38268225643969
 30
17.085118129756658
 42
0.2019996147175179
 50
22.023010499893431
  0
VERTEX
  5
3F5
  8
0
 10
47.08205394759716
 20
112.8947691552226
 30
17.085118129756658
 42
0.2019996147174198
  0
VERTEX
  5
3F6
  8
0
 10
46.86637052216588
 20
113.4068560540054
 30
17.085118129756658
 42
0.0975961548871723
  0
VERTEX
  5
3F7
  8
0
 10
45.932651756791643
 20
114.0171990337454
 30
17.085118129756658
 42
0.0546466138867348
 70
     2
 50
157.97698950010661
  0
VERTEX
  5
3F8
  8
0
 10
44.757354326701027
 20
114.3490479297753
 30
17.085118129756658
 42
0.0415250391014267
 50
157.97698950010661
  0
VERTEX
  5
3F9
  8
0
 10
43.157749399127511
 20
114.4821247122423
 30
17.085118129756658
 42
0.0415250391014089
  0
VERTEX
  5
3FA
  8
0
 10
41.558144471554662
 20
114.34904792977549
 30
17.085118129756658
 42
0.0546466138867661
  0
VERTEX
  5
3FB
  8
0
 10
40.382847041463371
 20
114.0171990337454
 30
17.085118129756658
 42
0.097596154887159
 70
     2
 50
202.02301049989339
  0
VERTEX
  5
3FC
  8
0
 10
39.449128276088921
 20
113.4068560540054
 30
17.085118129756658
 42
0.2019996147172648
 50
202.02301049989339
  0
VERTEX
  5
3FD
  8
0
 10
39.233444850657861
 20
112.8947691552226
 30
17.085118129756658
 42
0.2019996147172235
  0
VERTEX
  5
3FE
  8
0
 10
39.449128276088921
 20
112.38268225643969
 30
17.085118129756658
 42
0.0975961548871158
  0
VERTEX
  5
3FF
  8
0
 10
40.382847041463371
 20
111.7723392766998
 30
17.085118129756658
 42
0.0546466138867467
 70
     2
 50
337.97698950010658
  0
VERTEX
  5
400
  8
0
 10
41.55814447155489
 20
111.4404903806697
 30
17.085118129756658
 42
0.0415250391013795
 50
337.97698950010658
  0
SEQEND
  5
401
  8
0
  0
LINE
  5
402
  8
1
 10
43.127462021683293
 20
119.8344737303637
 30
-0.0000000000012577
 11
43.127462021683293
 21
73.834486167739726
 31
-0.0000000000012577
  0
ARC
  5
403
  8
3
 10
43.133255429516559
 20
44.420007516993842
 30
17.085118129756641
 40
40.0
 50
75.531058246199379
 51
104.48608294907859
  0
ARC
  5
404
  8
3
 10
19.28571934011358
 20
83.401496589405085
 30
17.085118182280421
 40
25.0002356328269
 50
33.523243121000021
 51
58.439359600664517
  0
ARC
  5
405
  8
3
 10
34.370859786101391
 20
111.8731251706311
 30
17.085118129756651
 40
2.0
 50
180.0
 51
204.80719494756349
  0
LINE
  5
406
  8
0
 10
32.370859786101391
 20
104.7038645611938
 30
17.110311943957061
 11
32.370859786101391
 21
112.3140484396977
 31
17.110311943957061
  0
ARC
  5
407
  8
3
 10
35.58180313203934
 20
109.78296638215041
 30
17.085118129756651
 40
2.0
 50
215.364924825049
 51
245.91954850651501
  0
ARC
  5
408
  8
3
 10
46.287307354034617
 20
117.3811129747142
 30
17.085118129756651
 40
15.12781978430705
 50
204.80719494756349
 51
215.364924825049
  0
ARC
  5
409
  8
3
 10
39.962106863302893
 20
119.80652469617399
 30
-0.0000000000012612
 40
12.938807540346129
 50
246.32119581090589
 51
262.11970067565051
  0
ARC
  5
40A
  8
3
 10
43.127462021683293
 20
153.10059586919081
 30
-0.0000000000012612
 40
46.374485218222681
 50
263.88586557871378
 51
276.11413442128622
  0
ARC
  5
40B
  8
0
 10
35.133109988724748
 20
112.0742538458592
 30
-1.0091155377186061
 40
2.7726391090668341
 50
95.427437259725636
 51
175.03851623122659
  0
ARC
  5
40C
  8
0
 10
28.30898619159484
 20
104.85468825301611
 30
17.085118182280421
 40
4.0646727892616683
 50
305.62403369971662
 51
357.87349543300331
  0
ARC
  5
40D
  8
0
 10
32.787701136826627
 20
98.861622350431233
 30
17.085118182280421
 40
3.4188037632236621
 50
128.13546420502351
 51
184.056448917154
  0
LINE
  5
40E
  8
0
 10
29.37746202168319
 20
97.385431554934542
 30
3.9013280069989298
 11
29.3774620216833
 21
98.619778704704061
 31
7.072746826749861
  0
ARC
  5
40F
  8
0
 10
31.342631772888129
 20
92.662888511415133
 30
17.085118129756658
 40
0.790248218
 50
335.88220418199802
 51
56.489062454998283
  0
LINE
  5
410
  8
3
 10
29.694510094920471
 20
96.274268494415139
 30
10.258770778756659
 11
30.299397421888219
 21
96.274268494415139
 31
10.258770778756659
  0
LINE
  5
411
  8
3
 10
32.205301566888238
 20
91.402052032415256
 30
0.7909888737566604
 11
30.518617911888221
 21
91.402052032415256
 31
0.7909888737566604
  0
LINE
  5
412
  8
3
 10
32.063898367888207
 20
92.339982032415307
 30
0.9395428737566575
 11
30.475084586888219
 21
92.339982032415307
 31
0.9395428737566575
  0
LINE
  5
413
  8
3
 10
31.430300040888142
 20
94.167901032415145
 30
1.6896678737566591
 11
30.261705679888109
 21
94.167901032415145
 31
1.6896678737566591
  0
LINE
  5
414
  8
3
 10
31.001573843888309
 20
95.00307003241511
 30
2.2964538737566591
 11
30.096926016888119
 21
95.00307003241511
 31
2.2964538737566591
  0
LINE
  5
415
  8
3
 10
30.600130362888201
 20
95.674554032415287
 30
2.9679378737566591
 11
29.922655386888209
 21
95.674554032415287
 31
2.9679378737566591
  0
LINE
  5
416
  8
3
 10
31.778925223888109
 20
93.321782032415342
 30
1.258548873756657
 11
30.383028311888211
 21
93.321782032415342
 31
1.258548873756657
  0
ARC
  5
417
  8
0
 10
33.063494970194263
 20
92.011059472060026
 30
0.7909888737566604
 40
1.052324084595913
 50
161.7859572729389
 51
215.36099484515699
  0
ARC
  5
418
  8
0
 10
32.428378735991032
 20
94.084256333699216
 30
17.085118129756658
 40
1.001577514344983
 50
175.2094805419573
 51
229.5765853590153
  0
ARC
  5
419
  8
0
 10
30.686661479617211
 20
94.313786948351719
 30
12.480567873756661
 40
0.7578132798696478
 50
348.90075406585919
 51
65.445788612255427
  0
ARC
  5
41A
  8
0
 10
31.350733109583189
 20
95.667550728074104
 30
12.480567873756661
 40
0.7506309264372054
 50
179.46542889602881
 51
242.27978607039751
  0
ARC
  5
41B
  8
0
 10
29.786413816222201
 20
95.641767593871975
 30
2.9679378737566591
 40
0.8143767978463069
 50
2.3073255414826059
 51
50.95656094743773
  0
LINE
  5
41C
  8
3
 10
29.49951787230339
 20
96.950029240415063
 30
5.9881513867566598
 11
29.806719480602851
 21
96.950029240415304
 31
5.9881513867566598
  0
ARC
  5
41D
  8
0
 10
30.594769070080471
 20
97.007094673367703
 30
10.258770778756659
 40
0.7901130419843849
 50
184.141758914153
 51
248.04769337978831
  0
ARC
  5
41E
  8
0
 10
32.97202064556177
 20
91.985905662290236
 30
0.9395428737566575
 40
2.5219158901488168
 50
171.92902106957041
 51
193.38610208399959
  0
ARC
  5
41F
  8
0
 10
27.98118510745439
 20
92.60136292733074
 30
0.9395428737566575
 40
2.5075594879777112
 50
354.0167817725382
 51
16.696314547752671
  0
ARC
  5
420
  8
0
 10
32.823783932967217
 20
94.103512768439998
 30
0.9395428737566575
 40
2.56288720458749
 50
178.56038768710121
 51
197.75934088724151
  0
ARC
  5
421
  8
0
 10
31.037210736590399
 20
95.605458303394073
 30
2.2964538737566591
 40
1.116692247044295
 50
176.4525372400187
 51
212.64551348546371
  0
ARC
  5
422
  8
0
 10
28.738437881048981
 20
94.301203574073554
 30
1.6896678737566591
 40
1.5290893873782501
 50
354.99873541364639
 51
27.323206715516651
  0
ARC
  5
423
  8
0
 10
28.860696631702361
 20
95.729931921269383
 30
2.9679378737566591
 40
1.06340166836893
 50
357.0149048300226
 51
30.789295430300029
  0
ARC
  5
424
  8
0
 10
30.496463452559851
 20
96.871560951752201
 30
3.9013280069989298
 40
1.0000288807422639
 50
175.4996018975036
 51
216.67499700745671
  0
ARC
  5
425
  8
0
 10
28.907950274253501
 20
96.49324523105912
 30
10.258770778756659
 40
1.0081853586942111
 50
26.941171869547262
 51
62.24447692447125
  0
ARC
  5
426
  8
0
 10
28.993239424214721
 20
97.042913809695222
 30
3.9013280069989298
 40
0.5147284820265679
 50
349.60382250736092
 51
41.715616263016869
  0
ARC
  5
427
  8
0
 10
28.993239424214721
 20
84.728865939135233
 30
3.9013280069989298
 40
0.5147284820265679
 50
318.2843837369831
 51
10.39617749263914
  0
ARC
  5
428
  8
0
 10
28.907950274253501
 20
85.278534517771334
 30
10.258770778756659
 40
1.0081853586942111
 50
297.75552307552869
 51
333.05882813045281
  0
ARC
  5
429
  8
0
 10
30.496463452559851
 20
84.90021879707848
 30
3.9013280069989298
 40
1.0000288807422639
 50
143.32500299254329
 51
184.5003981024964
  0
ARC
  5
42A
  8
0
 10
28.860696631702361
 20
86.041847827561071
 30
2.9679378737566591
 40
1.06340166836893
 50
329.2107045697
 51
2.985095169977356
  0
ARC
  5
42B
  8
0
 10
28.738437881048981
 20
87.470576174756886
 30
1.6896678737566591
 40
1.5290893873782501
 50
332.67679328448332
 51
5.0012645863535363
  0
ARC
  5
42C
  8
0
 10
31.037210736590399
 20
86.166321445436608
 30
2.2964538737566591
 40
1.116692247044295
 50
147.35448651453629
 51
183.54746275998119
  0
ARC
  5
42D
  8
0
 10
32.823783932967217
 20
87.668266980390456
 30
0.9395428737566575
 40
2.56288720458749
 50
162.24065911275841
 51
181.43961231289879
  0
ARC
  5
42E
  8
0
 10
27.98118510745439
 20
89.170416821499941
 30
0.9395428737566575
 40
2.5075594879777112
 50
343.30368545224729
 51
5.9832182274618058
  0
ARC
  5
42F
  8
0
 10
32.97202064556177
 20
89.785874086540204
 30
0.9395428737566575
 40
2.5219158901488168
 50
166.61389791600041
 51
188.07097893042959
  0
ARC
  5
430
  8
0
 10
30.594769070080471
 20
84.764685075462751
 30
10.258770778756659
 40
0.7901130419843849
 50
111.9523066202117
 51
175.85824108584691
  0
LINE
  5
431
  8
3
 10
29.49951787230339
 20
84.821750508415377
 30
5.9881513867566598
 11
29.806719480602851
 21
84.821750508415377
 31
5.9881513867566598
  0
ARC
  5
432
  8
0
 10
29.786413816222201
 20
86.130012154958706
 30
2.9679378737566591
 40
0.8143767978463069
 50
309.04343905256229
 51
357.69267445851739
  0
ARC
  5
433
  8
0
 10
31.350733109583189
 20
86.10422902075635
 30
12.480567873756661
 40
0.7506309264372054
 50
117.72021392960249
 51
180.53457110397119
  0
ARC
  5
434
  8
0
 10
30.686661479617211
 20
87.457992800478735
 30
12.480567873756661
 40
0.7578132798696478
 50
294.55421138774449
 51
11.09924593414083
  0
ARC
  5
435
  8
0
 10
32.428378735991032
 20
87.687523415131466
 30
17.085118129756658
 40
1.001577514344983
 50
130.4234146409847
 51
184.7905194580427
  0
ARC
  5
436
  8
0
 10
33.063494970194263
 20
89.760720276770428
 30
0.7909888737566604
 40
1.052324084595913
 50
144.63900515484301
 51
198.2140427270611
  0
ARC
  5
437
  8
0
 10
33.377462021683421
 20
82.834486167739726
 30
0.0
 40
4.0
 50
180.0
 51
270.0
  0
LINE
  5
438
  8
0
 10
52.877462021683179
 20
78.834486167739726
 30
-0.0000000000012434
 11
33.377462021683421
 21
78.834486167739726
 31
-0.0000000000012719
  0
LINE
  5
439
  8
0
 10
29.37746202168341
 20
82.834486167739499
 30
-0.0000000000012292
 11
29.377462021683531
 21
84.386348193895913
 31
-0.0000000000012292
  0
ARC
  5
43A
  8
0
 10
97.493653459985481
 20
36.656855784862103
 30
0.0
 40
9.9501877539009911
 50
76.820589755765795
 51
159.75832995818149
  0
ARC
  5
43B
  8
0
 10
86.85887556914156
 20
-10.66225589318941
 30
0.0
 40
58.449308829422378
 50
59.587446299220517
 51
77.246162681055097
  0
ARC
  5
43C
  8
0
 10
97.493653459985481
 20
29.057231292664088
 30
0.0
 40
9.9501877539009911
 50
200.24167004181851
 51
283.17941024423419
  0
LINE
  5
43D
  8
0
 10
51.383830217100687
 20
114.83448484339129
 30
-0.9814527882691024
 11
34.870859786101512
 21
114.83446261701241
 31
-1.0091155377186061
  0
LINE
  5
43E
  8
3
 10
31.778925223888109
 20
88.449997716415112
 30
1.258548873756657
 11
30.383028311888211
 21
88.449997716415112
 31
1.258548873756657
  0
LINE
  5
43F
  8
3
 10
30.600130362888201
 20
86.097225716415394
 30
2.9679378737566591
 11
29.922655386888209
 21
86.097225716415394
 31
2.9679378737566591
  0
LINE
  5
440
  8
3
 10
31.001573843888309
 20
86.768709716415344
 30
2.2964538737566591
 11
30.096926016888119
 21
86.768709716415344
 31
2.2964538737566591
  0
LINE
  5
441
  8
3
 10
31.430300040888142
 20
87.603878716415295
 30
1.6896678737566591
 11
30.261705679888109
 21
87.603878716415295
 31
1.6896678737566591
  0
LINE
  5
442
  8
3
 10
32.063898367888207
 20
89.431797716415133
 30
0.9395428737566575
 11
30.475084586888219
 21
89.431797716415133
 31
0.9395428737566575
  0
LINE
  5
443
  8
3
 10
32.205301566888238
 20
90.369727716415184
 30
0.7909888737566604
 11
30.518617911888221
 21
90.369727716415184
 31
0.7909888737566604
  0
LINE
  5
444
  8
3
 10
29.694510094920471
 20
85.497511254415315
 30
10.258770778756659
 11
30.299397421888219
 21
85.497511254415315
 31
10.258770778756659
  0
ARC
  5
445
  8
0
 10
31.342631772888129
 20
89.108891237415307
 30
17.085118129756658
 40
0.790248218
 50
303.5109375450017
 51
24.11779581800198
  0
ARC
  5
446
  8
0
 10
31.657952886888321
 20
90.885889874415227
 30
17.085118129756658
 40
0.7523407259999999
 50
316.67973692499743
 51
43.320263075002622
  0
ARC
  5
447
  8
0
 10
28.404509133888268
 20
90.885890218415227
 30
17.085118129756658
 40
2.1762096660000001
 50
346.27959198099728
 51
13.72040716500076
  0
LINE
  5
460
  8
0
 10
93.504406906364807
 20
112.8947691552226
 30
0.0
 11
96.118611223049015
 21
114.28476624669391
 31
0.0
  0
LINE
  5
461
  8
2
 10
96.743255648294294
 20
113.88261663405
 30
0.0
 11
101.92066793410071
 21
104.14532032612441
 31
0.0
  0
LINE
  5
462
  8
0
 10
97.317880215471874
 20
114.2428868506509
 30
0.0
 11
97.42291523815129
 21
114.04534470370891
 31
0.0
  0
LINE
  5
463
  8
0
 10
96.546354463055991
 20
113.83265933132159
 30
0.0
 11
97.317880215471746
 21
114.2428868506509
 31
0.0
  0
LINE
  5
464
  8
1
 10
102.4243665992652
 20
96.118764890886567
 30
0.0
 11
91.157049092443572
 21
117.3095071195217
 31
0.0
  0
LINE
  5
465
  8
2
 10
97.421373277518342
 20
110.4471769155096
 30
0.0
 11
96.008255240713197
 21
108.1857153275996
 31
0.0
  0
LINE
  5
466
  8
2
 10
93.343213037498003
 20
108.278780652064
 30
0.0
 11
96.008255240713197
 21
108.1857153275996
 31
0.0
  0
LINE
  5
467
  8
2
 10
95.136803725573714
 20
101.3044593826308
 30
0.0
 11
102.20038446844509
 21
105.0602318849183
 31
0.0
  0
LINE
  5
468
  8
2
 10
90.254299472600337
 20
110.4871143483636
 30
0.0
 11
95.136803725573714
 21
101.3044593826308
 31
0.0
  0
LINE
  5
469
  8
2
 10
97.42291523815129
 20
114.04534470370891
 30
0.0
 11
102.20038446844509
 21
105.0602318849181
 31
0.0
  0
LINE
  5
46A
  8
3
 10
96.537201159726123
 20
114.27014876400339
 30
0.0
 11
96.743255648294294
 21
113.88261663405
 31
0.0
  0
LINE
  5
46B
  8
2
 10
90.668248509992623
 20
111.1495712861654
 30
0.0
 11
96.051715284367219
 21
101.02474284828629
 31
0.0
  0
LINE
  5
46C
  8
2
 10
90.254299472600337
 20
110.4871143483636
 30
0.0
 11
96.546354463055991
 21
113.83265933132159
 31
0.0
  0
LINE
  5
46D
  8
2
 10
90.890202589680371
 20
111.5047720637513
 30
0.0
 11
93.504406906364693
 21
112.8947691552226
 31
0.0
  0
LINE
  5
46E
  8
2
 10
99.194061192508016
 20
100.0640312924118
 30
0.0
 11
100.9599563782259
 21
101.00297441798359
 31
0.0
  0
LINE
  5
46F
  8
2
 10
93.343213037498003
 20
108.278780652064
 30
0.0
 11
97.421373277518228
 21
110.4471769155096
 31
0.0
  0
LINE
  5
470
  8
0
 10
96.118611223049015
 20
114.28476624669391
 30
0.0
 11
97.317880215471874
 21
114.2428868506509
 31
0.0
  0
LINE
  5
471
  8
2
 10
90.890202589680371
 20
111.5047720637513
 30
0.0
 11
90.254299472600565
 21
110.4871143483636
 31
0.0
  0
LINE
  5
472
  8
2
 10
91.465326786354353
 20
111.8105710234998
 30
0.0
 11
93.343213037498003
 21
108.278780652064
 31
0.0
  0
LINE
  5
473
  8
2
 10
92.484866846360205
 20
112.3526700893613
 30
0.0
 11
94.362753097503742
 21
108.82087971792571
 31
0.0
  0
LINE
  5
474
  8
2
 10
94.523946966368953
 20
113.4368682210834
 30
0.0
 11
96.401833217512504
 21
109.9050778496478
 31
0.0
  0
LINE
  5
475
  8
2
 10
95.543487026374692
 20
113.97896728694541
 30
0.0
 11
97.421373277518228
 21
110.4471769155096
 31
0.0
  0
LINE
  5
476
  8
2
 10
102.20038446844509
 20
105.0602318849181
 30
0.0
 11
100.9599563782259
 21
101.00297441798359
 31
0.0
  0
LINE
  5
477
  8
2
 10
95.136803725573714
 20
101.3044593826308
 30
0.0
 11
99.194061192508016
 21
100.0640312924118
 31
0.0
  0
LINE
  5
4B9
  8
2
 10
117.3786713836833
 20
81.307677925515748
 30
0.0
 11
117.3786713836833
 21
112.46410182331491
 31
0.0
  0
LINE
  5
4BA
  8
2
 10
104.3792749096833
 20
78.889597029976869
 30
0.0
 11
104.3792749096833
 21
114.8821827188536
 31
0.0
  0
LINE
  5
4BB
  8
1
 10
110.8774620216833
 20
74.356588743566192
 30
0.0
 11
110.877462021683
 21
119.41519100526421
 31
0.0
  0
ARC
  5
4BC
  8
3
 10
103.34920250369289
 20
72.387968130558022
 30
0.0
 40
30.12872318100003
 50
77.485954869202402
 51
117.1627143445737
  0
ARC
  5
4BD
  8
3
 10
91.8774620216833
 20
94.745336021719424
 30
0.0
 40
5.0
 50
117.1627143445737
 51
180.0
  0
ARC
  5
4BE
  8
0
 10
104.877462021683
 20
112.3622489644154
 30
0.0
 40
33.476359090000031
 50
242.83728565542631
 51
296.51797933848911
  0
ARC
  5
4BF
  8
0
 10
119.377462021683
 20
83.302587924708916
 30
0.0
 40
1.0
 50
296.51797933848911
 51
0.0
  0
ARC
  5
4C0
  8
0
 10
91.8774620216833
 20
87.026443727111044
 30
0.0
 40
5.0
 50
180.0
 51
242.83728565542631
  0
ARC
  5
4C1
  8
0
 10
91.8774620216833
 20
106.7453360217194
 30
0.0
 40
5.0
 50
117.1627143445737
 51
180.0
  0
ARC
  5
4C2
  8
0
 10
119.377462021683
 20
110.46919182412169
 30
0.0
 40
1.0
 50
0.0
 51
63.482020661510859
  0
LINE
  5
4C3
  8
0
 10
120.377462021683
 20
110.46919182412169
 30
0.0
 11
120.377462021683
 21
83.302587924708916
 31
0.0
  0
LINE
  5
4C4
  8
0
 10
86.877462021683186
 20
106.7453360217194
 30
0.0
 11
86.877462021683186
 21
87.026443727111044
 31
0.0
  0
ARC
  5
4C5
  8
0
 10
104.877462021683
 20
81.409530784415253
 30
0.0
 40
33.476359090000031
 50
63.482020661510859
 51
117.1627143445737
  0
ARC
  5
4C6
  8
0
 10
86.858873373717287
 20
76.376348506319403
 30
0.0
 40
58.449314713116891
 50
282.75383822000771
 51
300.41255371128409
  0
ARC
  5
4C7
  8
0
 10
107.9986535731758
 20
32.857042671347763
 30
0.0
 40
21.121191551492739
 50
159.94654847280211
 51
200.053446517357
  0
LINE
  5
4C8
  8
1
 10
110.8774620216833
 20
44.356588743566192
 30
0.0
 11
110.8774620216833
 21
21.357498333959992
 31
0.0
  0
ARC
  5
4C9
  8
0
 10
105.93668125468319
 20
37.799488947263001
 30
0.0
 40
0.8394709890000001
 50
280.55560315500242
 51
349.44448472699622
  0
ARC
  5
4CA
  8
0
 10
112.3772804088854
 20
32.857043538135322
 30
0.0
 40
8.0001816127975705
 50
300.57954167923208
 51
59.420464911545558
  0
ARC
  5
4CB
  8
0
 10
115.8215731026832
 20
37.799489313263223
 30
0.0
 40
0.8394711909999998
 50
190.55554259400321
 51
259.44446173199958
  0
ARC
  5
4CC
  8
0
 10
112.6554601986832
 20
38.324033259263217
 30
0.0
 40
0.751209265
 50
28.59832557799567
 51
115.40165611700171
  0
ARC
  5
4CD
  8
0
 10
107.5003407256832
 20
37.507543186262922
 30
0.0
 40
0.7512092490000001
 50
82.598279269999409
 51
169.40165078999411
  0
ARC
  5
4CE
  8
0
 10
107.7058818396832
 20
39.084887829263209
 30
0.0
 40
0.83947099
 50
262.5555343519996
 51
331.44445007500241
  0
ARC
  5
4CF
  8
0
 10
109.1027942226832
 20
38.324033651263157
 30
0.0
 40
0.7512092540000001
 50
64.598285599000945
 51
151.40169810000091
  0
ARC
  5
4D0
  8
0
 10
109.7857011546832
 20
39.760662137262962
 30
0.0
 40
0.83947099
 50
244.5555662939957
 51
313.44448713999532
  0
ARC
  5
4D1
  8
0
 10
110.8791276096832
 20
38.605377815263239
 30
0.0
 40
0.7512092509999999
 50
46.598264606998178
 51
133.40173175000319
  0
ARC
  5
4D2
  8
0
 10
111.9725540676833
 20
39.760662150263272
 30
0.0
 40
0.8394710009999998
 50
226.5555162749983
 51
295.44443029100103
  0
ARC
  5
4D3
  8
0
 10
114.2579133936832
 20
37.507542888263117
 30
0.0
 40
0.7512094030000001
 50
10.598366057994889
 51
97.401648785996557
  0
ARC
  5
4D4
  8
0
 10
114.0523724926832
 20
39.0848877972631
 30
0.0
 40
0.8394710729999999
 50
208.55554309399929
 51
277.44452797399788
  0
LINE
  5
4D5
  8
1
 10
81.877462021683186
 20
32.857043538763321
 30
0.0
 11
125.41257832768309
 21
32.857043538763321
 31
0.0
  0
ARC
  5
4D6
  8
0
 10
112.6554601976833
 20
27.390052383263139
 30
0.0
 40
0.751209265
 50
244.59835059900169
 51
331.4016657700036
  0
ARC
  5
4D7
  8
0
 10
105.4108964746832
 20
31.080307105263099
 30
0.0
 40
0.7502619759999999
 50
154.52990106200099
 51
241.47012566700261
  0
ARC
  5
4D8
  8
0
 10
103.9736766586833
 20
33.949609356263011
 30
0.0
 40
0.8414944129999998
 50
0.2984954319953661
 51
25.44372074800129
  0
ARC
  5
4D9
  8
0
 10
105.4108960966832
 20
34.63377933026328
 30
0.0
 40
0.7502619759999999
 50
118.5298454180018
 51
205.47016906099549
  0
ARC
  5
4DA
  8
0
 10
104.6516908056832
 20
36.03008060026292
 30
0.0
 40
0.8390932149999999
 50
298.53785540900191
 51
7.4621617579958839
  0
ARC
  5
4DB
  8
0
 10
106.22751653568319
 20
36.236824181263103
 30
0.0
 40
0.7502367590000001
 50
180.08790202999171
 51
187.48797486399761
  0
ARC
  5
4DC
  8
0
 10
106.2283586026832
 20
36.235896134262987
 30
0.0
 40
0.751094403
 50
100.5790564300009
 51
178.16933604300141
  0
ARC
  5
4DD
  8
0
 10
103.96796252568321
 20
31.76022347426311
 30
0.0
 40
0.847287722
 50
1.6559886989886139
 51
43.260228217003771
  0
ARC
  5
4DE
  8
0
 10
103.97367696468319
 20
31.764476955263088
 30
0.0
 40
0.8414944229999999
 50
334.55622961999501
 51
359.70148225698989
  0
ARC
  5
4DF
  8
0
 10
105.1307930836832
 20
32.857043320263131
 30
0.0
 40
0.751209248
 50
136.5983185659976
 51
223.40167642500131
  0
ARC
  5
4E0
  8
0
 10
103.9679622106832
 20
33.95386283026307
 30
0.0
 40
0.8472877210000001
 50
316.73980069799768
 51
358.34399581899919
  0
ARC
  5
4E1
  8
0
 10
104.6516909296832
 20
29.684005975263119
 30
0.0
 40
0.839093213
 50
352.53777494900021
 51
61.462149599995833
  0
ARC
  5
4E2
  8
0
 10
109.1027942226832
 20
27.390051990263199
 30
0.0
 40
0.7512092540000001
 50
208.59830007899791
 51
295.40171599500451
  0
ARC
  5
4E3
  8
0
 10
107.7058818396832
 20
26.629197812263161
 30
0.0
 40
0.83947099
 50
28.555544915996411
 51
97.444464053996896
  0
ARC
  5
4E4
  8
0
 10
107.5003409096832
 20
28.206542480263181
 30
0.0
 40
0.7512092500000001
 50
190.5982722570003
 51
277.40171122500129
  0
ARC
  5
4E5
  8
0
 10
105.93668125468319
 20
27.91459769426325
 30
0.0
 40
0.8394709890000001
 50
10.555520281999049
 51
79.444398438996643
  0
ARC
  5
4E6
  8
0
 10
106.2283587306832
 20
29.47819048326307
 30
0.0
 40
0.751094403
 50
181.83072724998911
 51
259.42092916899958
  0
ARC
  5
4E7
  8
0
 10
106.2275174666832
 20
29.47726238326328
 30
0.0
 40
0.7502375620000001
 50
172.51210891999301
 51
179.91216126301089
  0
ARC
  5
4E8
  8
0
 10
111.9725540666833
 20
25.953423491263099
 30
0.0
 40
0.8394709999999999
 50
64.555573237999823
 51
133.44449237699411
  0
ARC
  5
4E9
  8
0
 10
110.8791276096832
 20
27.108707826263132
 30
0.0
 40
0.7512092509999999
 50
226.5982664289952
 51
313.40173015600129
  0
ARC
  5
4EA
  8
0
 10
109.7857011546832
 20
25.953423504262961
 30
0.0
 40
0.83947099
 50
46.555511265998867
 51
115.4444304040025
  0
ARC
  5
4EB
  8
0
 10
116.3473582116832
 20
31.080307278263088
 30
0.0
 40
0.750262383
 50
298.52990848400339
 51
25.47007161800062
  0
ARC
  5
4EC
  8
0
 10
117.7837677666832
 20
33.950630961263023
 30
0.0
 40
0.8403235479999999
 50
154.5954298969987
 51
223.40463048199899
  0
ARC
  5
4ED
  8
0
 10
115.5300639516832
 20
36.236146378263193
 30
0.0
 40
0.750817793
 50
352.57002027300268
 51
79.423074588996798
  0
ARC
  5
4EE
  8
0
 10
117.1065649016832
 20
36.030080849263008
 30
0.0
 40
0.8390936659999999
 50
172.53785873300319
 51
241.46212239299641
  0
ARC
  5
4EF
  8
0
 10
116.3473585906832
 20
34.633779157263291
 30
0.0
 40
0.750262383
 50
334.52985825900231
 51
61.47012726099944
  0
ARC
  5
4F0
  8
0
 10
116.6274621356832
 20
32.857043320263131
 30
0.0
 40
0.751209248
 50
316.59832016000439
 51
43.401681434002377
  0
ARC
  5
4F1
  8
0
 10
117.7837674536832
 20
31.763455345263139
 30
0.0
 40
0.8403235509999998
 50
136.59534060300209
 51
205.40461973599491
  0
ARC
  5
4F2
  8
0
 10
114.2579132106832
 20
28.206542778263209
 30
0.0
 40
0.751209404
 50
262.59837415200229
 51
349.40170725199812
  0
ARC
  5
4F3
  8
0
 10
114.0523724916833
 20
26.62919784526327
 30
0.0
 40
0.839471072
 50
82.555471286000213
 51
151.44445872700061
  0
ARC
  5
4F4
  8
0
 10
117.1065647766833
 20
29.68400572726301
 30
0.0
 40
0.839093663
 50
118.5378640599951
 51
187.46220455999901
  0
ARC
  5
4F5
  8
0
 10
115.5300638216832
 20
29.477940241263301
 30
0.0
 40
0.750817796
 50
280.57692871299793
 51
7.429902773998533
  0
ARC
  5
4F6
  8
0
 10
115.8215731026832
 20
27.914597327263039
 30
0.0
 40
0.8394711919999998
 50
100.5555469190015
 51
169.44445922799949
  0
ARC
  5
4F7
  8
0
 10
101.82157306768291
 20
95.828336050415189
 30
0.0
 40
0.8394711499999999
 50
190.55553394200811
 51
259.44446674100237
  0
ARC
  5
4F8
  8
0
 10
100.2579132026831
 20
95.536390625415194
 30
0.0
 40
0.751209413
 50
10.59829274800188
 51
97.40162499399932
  0
ARC
  5
4F9
  8
0
 10
101.5300640166829
 20
94.264993230415314
 30
0.0
 40
0.7508176090000001
 50
352.57009039599598
 51
79.429991123003006
  0
ARC
  5
4FA
  8
0
 10
100.05237249268291
 20
97.113735569415041
 30
0.0
 40
0.839471074
 50
208.55554127299939
 51
277.44452871399977
  0
ARC
  5
4FB
  8
0
 10
102.3473583116829
 20
92.662626167415127
 30
0.0
 40
0.7502623070000001
 50
334.52991472200893
 51
61.470096638995642
  0
ARC
  5
4FC
  8
0
 10
103.7837667036833
 20
89.792302620415342
 30
0.0
 40
0.8403226599999999
 50
136.59532853700219
 51
205.4046110850019
  0
ARC
  5
4FD
  8
0
 10
102.6274621356833
 20
90.885890092415195
 30
0.0
 40
0.751209248
 50
316.5983185659976
 51
43.401679840005087
  0
ARC
  5
4FE
  8
0
 10
103.783766386683
 20
91.979477899415144
 30
0.0
 40
0.8403226599999999
 50
154.59533928299859
 51
223.40470037799611
  0
ARC
  5
4FF
  8
0
 10
101.8215730666829
 20
85.943444135415177
 30
0.0
 40
0.8394711499999999
 50
100.5555357070031
 51
169.4444642370087
  0
ARC
  5
500
  8
0
 10
101.5300641456829
 20
87.506786976415299
 30
0.0
 40
0.7508176070000001
 50
280.56999960000189
 51
7.4299797269973391
  0
ARC
  5
501
  8
0
 10
103.1065648246831
 20
87.712852603415328
 30
0.0
 40
0.8390935949999999
 50
118.5378741920044
 51
187.46214809699239
  0
ARC
  5
502
  8
0
 10
100.2579133866829
 20
86.23539053441533
 30
0.0
 40
0.7512094110000001
 50
262.59836487399809
 51
349.40163394199232
  0
ARC
  5
503
  8
0
 10
102.34735868968301
 20
89.109154224415136
 30
0.0
 40
0.7502623070000001
 50
298.52987273899481
 51
25.470148570997139
  0
ARC
  5
504
  8
0
 10
100.05237249268291
 20
84.658045615415219
 30
0.0
 40
0.8394710729999999
 50
82.555472026002136
 51
151.44445007500229
  0
ARC
  5
505
  8
0
 10
103.10656470068299
 20
94.05892764741526
 30
0.0
 40
0.8390935940000001
 50
172.53778860999171
 51
241.4621359399992
  0
ARC
  5
506
  8
0
 10
95.786549950682911
 20
97.793750630415218
 30
0.0
 40
0.843665704
 50
244.6272456009942
 51
281.22390460800091
  0
ARC
  5
507
  8
0
 10
95.102401886683325
 20
96.354088909415225
 30
0.0
 40
0.7502873090000001
 50
64.531665755003871
 51
151.46832158599861
  0
ARC
  5
508
  8
0
 10
93.705864756683226
 20
97.11376912741531
 30
0.0
 40
0.8395020209999998
 50
262.5569839459971
 51
331.44300708399311
  0
ARC
  5
509
  8
0
 10
97.972554066683202
 20
97.789509923415196
 30
0.0
 40
0.8394710019999999
 50
226.55550762300589
 51
295.44442676200009
  0
ARC
  5
50A
  8
0
 10
96.87912760968311
 20
96.634225588415177
 30
0.0
 40
0.7512092500000001
 50
46.598263014000644
 51
133.4017335710048
  0
ARC
  5
50B
  8
0
 10
95.783704580683207
 20
97.792566224415225
 30
0.0
 40
0.843063199
 50
281.4292373970008
 51
313.40016444899999
  0
ARC
  5
50C
  8
0
 10
92.227626260683337
 20
94.265403685415137
 30
0.0
 40
0.750310641
 50
100.5333529600001
 51
187.46656722999751
  0
ARC
  5
50D
  8
0
 10
91.936568297683152
 20
95.828448674415128
 30
0.0
 40
0.8396027309999999
 50
280.56176239099909
 51
349.43831888800298
  0
ARC
  5
50E
  8
0
 10
93.499588138683066
 20
95.537427032415096
 30
0.0
 40
0.7502792770000001
 50
82.53109166599873
 51
169.46892997400209
  0
ARC
  5
50F
  8
0
 10
93.705864756683226
 20
84.658012057415178
 30
0.0
 40
0.8395020209999998
 50
28.557004754999721
 51
97.443015940003207
  0
ARC
  5
510
  8
0
 10
95.786555275682986
 20
83.977987649415184
 30
0.0
 40
0.843706753
 50
78.777023330001313
 51
115.371828795002
  0
ARC
  5
511
  8
0
 10
95.783704579683217
 20
83.97921495941506
 30
0.0
 40
0.8430631999999999
 50
46.599827126993617
 51
78.570755886002985
  0
ARC
  5
512
  8
0
 10
96.87912760968311
 20
85.137555597415087
 30
0.0
 40
0.7512092500000001
 50
226.5982682500015
 51
313.4017353930019
  0
ARC
  5
513
  8
0
 10
95.102413136683026
 20
85.417726901415406
 30
0.0
 40
0.7503137320000001
 50
208.53360634799779
 51
295.46642361300241
  0
ARC
  5
514
  8
0
 10
97.972554066683202
 20
83.982271261415065
 30
0.0
 40
0.8394710019999999
 50
64.555569708998959
 51
133.44448714000421
  0
ARC
  5
515
  8
0
 10
90.650794331683301
 20
87.712396036415214
 30
0.0
 40
0.839922967
 50
352.57667469800248
 51
61.423308134999218
  0
ARC
  5
516
  8
0
 10
92.228901067683182
 20
87.507302818415212
 30
0.0
 40
0.7514551770000001
 50
172.61601476599429
 51
259.38400590700098
  0
ARC
  5
517
  8
0
 10
89.975939145683256
 20
91.979248191415138
 30
0.0
 40
0.8391115479999999
 50
316.53865003299819
 51
25.461317136001149
  0
ARC
  5
518
  8
0
 10
91.129664793683332
 20
90.885890092415195
 30
0.0
 40
0.7503898840000001
 50
136.5391263250003
 51
223.46087185399881
  0
ARC
  5
519
  8
0
 10
89.974266589683339
 20
89.792267470415084
 30
0.0
 40
0.8405080559999998
 50
334.60403593499638
 51
43.396014199004533
  0
ARC
  5
51A
  8
0
 10
91.411080524683257
 20
92.662566506415317
 30
0.0
 40
0.750402433
 50
118.5400478999975
 51
205.45993561700229
  0
ARC
  5
51B
  8
0
 10
91.411080146683176
 20
89.109213884415169
 30
0.0
 40
0.750402433
 50
154.53999425999251
 51
241.45999125999859
  0
ARC
  5
51C
  8
0
 10
91.936568298683156
 20
85.943331510415234
 30
0.0
 40
0.8396027309999999
 50
10.561682933997041
 51
79.438235160998815
  0
ARC
  5
51D
  8
0
 10
93.499587956683172
 20
86.234354128415191
 30
0.0
 40
0.7502792760000001
 50
190.53114014899259
 51
277.46892979200118
  0
ARC
  5
51E
  8
0
 10
90.651883548683145
 20
94.058829293415144
 30
0.0
 40
0.83891498
 50
298.52949024899578
 51
7.4705783719961554
  0
LINE
  5
51F
  8
1
 10
96.877462021683201
 20
79.385831182764889
 30
0.0
 11
96.877462021683201
 21
102.38594856606581
 31
0.0
  0
ARC
  5
520
  8
0
 10
98.655460189683254
 20
96.352881005415213
 30
0.0
 40
0.7512092840000001
 50
28.598334230007829
 51
115.40164940099829
  0
ARC
  5
521
  8
0
 10
98.655460189683254
 20
85.418900179415289
 30
0.0
 40
0.7512092840000001
 50
244.5983575429986
 51
331.40166076099928
  0
LINE
  5
522
  8
1
 10
85.377403330032735
 20
90.885889874415227
 30
0.0
 11
108.3775207133336
 21
90.885889874415227
 31
0.0
  0
TEXT
  5
5D8
  8
0
 62
     3
 10
0.0
 20
0.0
 30
0.0
 40
10.0
  1
CC60TC
  7
STANDARD1
  0
ENDSEC
  0
EOF
