  0
SECTION
  2
HEADER
  9
$ACADVER
  1
AC1009
  9
$INSBASE
 10
0.0
 20
0.0
 30
0.0
  9
$EXTMIN
 10
0.0
 20
-2.960436562073669
 30
-1809.409409556665
  9
$EXTMAX
 10
287.05251779043829
 20
94.975632093969409
 30
0.0
  9
$LIMMIN
 10
0.0
 20
0.0
  9
$LIMMAX
 10
375.0
 20
270.0
  9
$ORTHOMODE
 70
     1
  9
$REGENMODE
 70
     1
  9
$FILLMODE
 70
     1
  9
$QTEXTMODE
 70
     0
  9
$MIRRTEXT
 70
     0
  9
$DRAGMODE
 70
     2
  9
$LTSCALE
 40
5.0
  9
$OSMODE
 70
  3071
  9
$ATTMODE
 70
     1
  9
$TEXTSIZE
 40
0.2
  9
$TRACEWID
 40
0.05
  9
$TEXTSTYLE
  7
STANDARD
  9
$CLAYER
  8
0
  9
$CELTYPE
  6
BYLAYER
  9
$CECOLOR
 62
   256
  9
$DIMSCALE
 40
1.0
  9
$DIMASZ
 40
3.0
  9
$DIMEXO
 40
2.0
  9
$DIMDLI
 40
0.38
  9
$DIMRND
 40
0.0
  9
$DIMDLE
 40
0.0
  9
$DIMEXE
 40
2.0
  9
$DIMTP
 40
0.0
  9
$DIMTM
 40
0.0
  9
$DIMTXT
 40
3.2000000000000002
  9
$DIMCEN
 40
0.09
  9
$DIMTSZ
 40
0.0
  9
$DIMTOL
 70
     0
  9
$DIMLIM
 70
     0
  9
$DIMTIH
 70
     0
  9
$DIMTOH
 70
     0
  9
$DIMSE1
 70
     0
  9
$DIMSE2
 70
     0
  9
$DIMTAD
 70
     1
  9
$DIMZIN
 70
     0
  9
$DIMBLK
  1

  9
$DIMASO
 70
     1
  9
$DIMSHO
 70
     0
  9
$DIMPOST
  1

  9
$DIMAPOST
  1

  9
$DIMALT
 70
     0
  9
$DIMALTD
 70
     2
  9
$DIMALTF
 40
25.399999999999999
  9
$DIMLFAC
 40
1.0
  9
$DIMTOFL
 70
     0
  9
$DIMTVP
 40
1.6000000000000001
  9
$DIMTIX
 70
     1
  9
$DIMSOXD
 70
     0
  9
$DIMSAH
 70
     0
  9
$DIMBLK1
  1

  9
$DIMBLK2
  1

  9
$DIMSTYLE
  2
STANDARD
  9
$DIMCLRD
 70
     0
  9
$DIMCLRE
 70
     0
  9
$DIMCLRT
 70
     0
  9
$DIMTFAC
 40
1.0
  9
$DIMGAP
 40
0.09
  9
$LUNITS
 70
     2
  9
$LUPREC
 70
     4
  9
$SKETCHINC
 40
0.1
  9
$FILLETRAD
 40
2.0
  9
$AUNITS
 70
     0
  9
$AUPREC
 70
     0
  9
$MENU
  1
E:\r13\win\SUPPORT\ACAD
  9
$ELEVATION
 40
0.0
  9
$PELEVATION
 40
0.0
  9
$THICKNESS
 40
0.0
  9
$LIMCHECK
 70
     0
  9
$BLIPMODE
 70
     0
  9
$CHAMFERA
 40
0.0
  9
$CHAMFERB
 40
0.0
  9
$SKPOLY
 70
     0
  9
$TDCREATE
 40
2447977.5416277782
  9
$TDUPDATE
 40
2456598.587066852
  9
$TDINDWG
 40
0.0577801736
  9
$TDUSRTIMER
 40
0.0577801736
  9
$USRTIMER
 70
     1
  9
$ANGBASE
 50
0.0
  9
$ANGDIR
 70
     0
  9
$PDMODE
 70
     0
  9
$PDSIZE
 40
0.0
  9
$PLINEWID
 40
0.0
  9
$COORDS
 70
     1
  9
$SPLFRAME
 70
     0
  9
$SPLINETYPE
 70
     6
  9
$SPLINESEGS
 70
     8
  9
$ATTDIA
 70
     0
  9
$ATTREQ
 70
     1
  9
$HANDLING
 70
     1
  9
$HANDSEED
  5
1039
  9
$SURFTAB1
 70
     6
  9
$SURFTAB2
 70
     6
  9
$SURFTYPE
 70
     6
  9
$SURFU
 70
     6
  9
$SURFV
 70
     6
  9
$UCSNAME
  2

  9
$UCSORG
 10
0.0
 20
0.0
 30
0.0
  9
$UCSXDIR
 10
1.0
 20
0.0
 30
0.0
  9
$UCSYDIR
 10
0.0
 20
1.0
 30
0.0
  9
$PUCSNAME
  2

  9
$PUCSORG
 10
0.0
 20
0.0
 30
0.0
  9
$PUCSXDIR
 10
1.0
 20
0.0
 30
0.0
  9
$PUCSYDIR
 10
0.0
 20
1.0
 30
0.0
  9
$USERI1
 70
     0
  9
$USERI2
 70
     1
  9
$USERI3
 70
     1
  9
$USERI4
 70
     0
  9
$USERI5
 70
     0
  9
$USERR1
 40
0.0
  9
$USERR2
 40
0.0
  9
$USERR3
 40
0.0
  9
$USERR4
 40
0.0
  9
$USERR5
 40
0.0
  9
$WORLDVIEW
 70
     1
  9
$SHADEDGE
 70
     3
  9
$SHADEDIF
 70
    70
  9
$TILEMODE
 70
     1
  9
$MAXACTVP
 70
    16
  9
$PLIMCHECK
 70
     0
  9
$PEXTMIN
 10
1.0000000000000000E+020
 20
1.0000000000000000E+020
 30
1.0000000000000000E+020
  9
$PEXTMAX
 10
-1.0000000000000000E+020
 20
-1.0000000000000000E+020
 30
-1.0000000000000000E+020
  9
$PLIMMIN
 10
0.0
 20
0.0
  9
$PLIMMAX
 10
12.0
 20
9.0
  9
$UNITMODE
 70
     0
  9
$VISRETAIN
 70
     0
  9
$PLINEGEN
 70
     1
  9
$PSLTSCALE
 70
     0
  0
ENDSEC
  0
SECTION
  2
TABLES
  0
TABLE
  2
VPORT
 70
     1
  0
VPORT
  2
*ACTIVE
 70
     0
 10
0.0
 20
0.0
 11
1.0
 21
1.0
 12
195.0577913946978
 22
133.51844519249019
 13
0.0
 23
0.0
 14
10.0
 24
10.0
 15
10.0
 25
10.0
 16
0.0
 26
0.0
 36
1.0
 17
0.0
 27
0.0
 37
0.0
 40
275.41120925282257
 41
1.831871345029239
 42
50.0
 43
0.0
 44
0.0
 50
0.0
 51
0.0
 71
     0
 72
   500
 73
     1
 74
     0
 75
     0
 76
     0
 77
     0
 78
     2
  0
ENDTAB
  0
TABLE
  2
LTYPE
 70
     3
  0
LTYPE
  2
CONTINUOUS
 70
     0
  3
Solid Line
 72
    65
 73
     0
 40
0.0
  0
LTYPE
  2
CENTER
 70
     0
  3
____ _ ____ _ ____ _ ____ _ ____ _ ____ _ ____
 72
    65
 73
     4
 40
2.0
 49
1.25
 49
-0.25
 49
0.25
 49
-0.25
  0
LTYPE
  2
PHANTOM2
 70
     0
  3
___ _ _ ___ _ _ ___ _ _ ___ _ _
 72
    65
 73
     6
 40
1.25
 49
0.625
 49
-0.125
 49
0.125
 49
-0.125
 49
0.125
 49
-0.125
  0
ENDTAB
  0
TABLE
  2
LAYER
 70
     3
  0
LAYER
  2
0
 70
     0
 62
     7
  6
CONTINUOUS
  0
LAYER
  2
1
 70
     0
 62
     1
  6
CENTER
  0
LAYER
  2
3
 70
     0
 62
     3
  6
CONTINUOUS
  0
ENDTAB
  0
TABLE
  2
STYLE
 70
     2
  0
STYLE
  2
STANDARD
 70
     0
 40
0.0
 41
1.0
 50
0.0
 71
     0
 42
0.2
  3
TXT
  4
BIGFONT
  0
STYLE
  2
STANDARD1
 70
     0
 40
0.0
 41
1.0
 50
0.0
 71
     0
 42
3.0
  3
txt
  4

  0
ENDTAB
  0
TABLE
  2
VIEW
 70
     1
  0
VIEW
  2
ALL
 70
     0
 40
270.0
 10
220.99159663865549
 20
135.0
 41
0.0
 11
0.0
 21
0.0
 31
1.0
 12
0.0
 22
0.0
 32
0.0
 42
0.0
 43
0.0
 44
0.0
 50
0.0
 71
     0
  0
ENDTAB
  0
TABLE
  2
UCS
 70
     0
  0
ENDTAB
  0
TABLE
  2
APPID
 70
     3
  0
APPID
  2
ACAD
 70
     0
  0
APPID
  2
ACAD_MLEADERVER
 70
     0
  0
APPID
  2
ACAD_NAV_VCDISPLAY
 70
     0
  0
ENDTAB
  0
TABLE
  2
DIMSTYLE
 70
     1
  0
DIMSTYLE
  2
STANDARD
 70
     0
  3

  4

  5

  6

  7

 40
1.0
 41
0.18
 42
0.0625
 43
0.38
 44
0.18
 45
0.0
 46
0.0
 47
0.0
 48
0.0
140
0.18
141
0.09
142
0.0
143
25.399999999999999
144
1.0
145
0.0
146
1.0
147
0.09
 71
     0
 72
     0
 73
     1
 74
     1
 75
     0
 76
     0
 77
     0
 78
     0
170
     0
171
     2
172
     0
173
     0
174
     0
175
     0
176
     0
177
     0
178
     0
  0
ENDTAB
  0
ENDSEC
  0
SECTION
  2
BLOCKS
  0
BLOCK
  8
0
  2
$MODEL_SPACE
 70
     0
 10
0.0
 20
0.0
 30
0.0
  3
$MODEL_SPACE
  1

  0
ENDBLK
  5
19F
  8
0
  0
BLOCK
 67
     1
  8
0
  2
$PAPER_SPACE
 70
     0
 10
0.0
 20
0.0
 30
0.0
  3
$PAPER_SPACE
  1

  0
ENDBLK
  5
19D
 67
     1
  8
0
  0
ENDSEC
  0
SECTION
  2
ENTITIES
  0
ARC
  5
E20
  8
0
 10
-276.05252374043812
 20
84.205111753927454
 30
1809.409409556665
 40
5.9999940479999498
210
0.0
220
0.0
230
-1.0
 50
105.89727373563031
 51
180.0000050089993
  0
LINE
  5
E21
  8
0
 10
282.05251779043851
 20
82.705113242927212
 30
-1809.409409556665
 11
282.05251779043851
 21
84.205111754927486
 31
-1809.4094094726649
  0
ARC
  5
E22
  8
0
 10
-276.05252374243878
 20
82.705113242927155
 30
1809.409409556665
 40
5.9999940479999498
210
0.0
220
0.0
230
-1.0
 50
180.0000050089993
 51
252.72963633985719
  0
LINE
  5
E23
  8
0
 10
274.05252826643601
 20
89.975632093969182
 30
-1809.3275679095209
 11
274.05252826643641
 21
76.975631989969202
 31
-1809.3275679095209
  0
LINE
  5
E24
  8
0
 10
274.05252826643618
 20
84.437703987267454
 30
-1809.3275679095209
 11
274.05252826643618
 21
83.475632041969106
 31
-1809.3275679095209
  0
ARC
  5
E25
  8
3
 10
278.15283588874132
 20
83.475632041982465
 30
-1809.3275679095191
 40
0.4
 50
124.748011293223
 51
235.2519887432133
  0
ARC
  5
E26
  8
3
 10
278.252528266436
 20
84.437703987279576
 30
-1809.3275679095209
 40
0.4
 50
305.95305255354259
 51
48.08829444668261
  0
LINE
  5
E27
  8
3
 10
277.9248485914145
 20
83.804298730677317
 30
-1809.3275679095191
 11
278.48737712908451
 21
84.113904648625748
 31
-1809.3275679095209
  0
ARC
  5
E28
  8
3
 10
278.10283588874108
 20
85.484242512494404
 30
-1809.3275679095191
 40
0.35
 50
110.1413622607494
 51
230.7030279380526
  0
ARC
  5
E29
  8
3
 10
278.35246068411789
 20
86.267673603696551
 30
-1809.3275679095209
 40
0.3
 50
294.92213431311859
 51
50.467472311804741
  0
LINE
  5
E2A
  8
3
 10
278.5197221083215
 20
84.735374024163491
 30
-1809.3275679095209
 11
277.88116689706021
 21
85.213386724062389
 31
-1809.3275679095191
  0
LINE
  5
E2B
  8
3
 10
277.92484859141678
 20
83.146965353256235
 30
-1809.3275679095191
 11
278.487377129089
 21
82.837359435311825
 31
-1809.3275679095209
  0
ARC
  5
E2C
  8
3
 10
278.4525282664361
 20
87.824338737937467
 30
-1809.3275679095209
 40
0.2
 50
277.29767788784483
 51
54.194618392945351
  0
ARC
  5
E2D
  8
3
 10
278.002528266436
 20
87.296236204827153
 30
-1809.3275679095209
 40
0.25
 50
94.776354532568845
 51
223.65199318079149
  0
LINE
  5
E2E
  8
3
 10
277.98231774823989
 20
85.812838583393216
 30
-1809.3275679095191
 11
278.4788765405583
 21
85.995609215654966
 31
-1809.3275679095209
  0
LINE
  5
E2F
  8
3
 10
278.54341553835769
 20
86.499052608021259
 30
-1809.3275679095209
 11
277.82164182478891
 21
87.123667102064758
 31
-1809.3275679095209
  0
LINE
  5
E30
  8
3
 10
277.98171161835529
 20
87.545368031703376
 30
-1809.3275679095209
 11
278.47793314813538
 21
87.625958819634604
 31
-1809.3275679095209
  0
ARC
  5
E31
  8
3
 10
277.95252826643599
 20
88.734242542062404
 30
-1809.3275679095209
 40
0.2
 50
75.825198866969387
 51
234.78927860078619
  0
LINE
  5
E32
  8
3
 10
277.83721122378228
 20
88.570835138088171
 30
-1809.3275679095209
 11
278.58469848279668
 21
87.974442148648734
 31
-1809.3275679095209
  0
ARC
  5
E33
  8
3
 10
278.502528266436
 20
88.955322161825677
 30
-1809.32756790952
 40
0.15
 50
254.1751192933063
 51
67.287648898477315
  0
ARC
  5
E34
  8
3
 10
277.90252826643592
 20
89.657499444618054
 30
-1809.3275679095209
 40
0.15
 50
119.9608230322428
 51
240.0391769677617
  0
LINE
  5
E35
  8
3
 10
278.56044400180798
 20
89.093690393715448
 30
-1809.32756790952
 11
277.82461692649957
 21
89.529320573077754
 31
-1809.3275679095209
  0
LINE
  5
E36
  8
3
 10
277.99879328831372
 20
88.928817843040349
 30
-1809.3275679095209
 11
278.46945647481402
 21
88.809013390390362
 31
-1809.32756790952
  0
LINE
  5
E37
  8
3
 10
277.99009457462739
 20
89.883645705444664
 30
-1809.3275679095209
 11
277.82461692649957
 21
89.785678316158325
 31
-1809.3275679095209
  0
LINE
  5
E38
  8
3
 10
277.99009457463399
 20
77.067618378485918
 30
-1809.3275679095209
 11
277.82461692650622
 21
77.165585767772143
 31
-1809.3275679095209
  0
LINE
  5
E39
  8
3
 10
277.9987932883194
 20
78.022446240890304
 30
-1809.3275679095209
 11
278.46945647481948
 21
78.142250693540745
 31
-1809.32756790952
  0
LINE
  5
E3A
  8
3
 10
278.56044400181389
 20
77.857573690215702
 30
-1809.32756790952
 11
277.824616926506
 21
77.421943510852714
 31
-1809.3275679095209
  0
ARC
  5
E3B
  8
3
 10
277.90252826644252
 20
77.293764639312485
 30
-1809.3275679095209
 40
0.15
 50
119.96082303229809
 51
240.03917696781861
  0
ARC
  5
E3C
  8
3
 10
278.50252826644169
 20
77.99594192210543
 30
-1809.32756790952
 40
0.15
 50
292.71235110158261
 51
105.8248807067513
  0
LINE
  5
E3D
  8
3
 10
277.83721122378751
 20
78.380428945842311
 30
-1809.3275679095209
 11
278.58469848280151
 21
78.976821935282487
 31
-1809.3275679095209
  0
ARC
  5
E3E
  8
3
 10
277.9525282664415
 20
78.217021541868178
 30
-1809.3275679095209
 40
0.2
 50
125.2107213992725
 51
284.17480113309142
  0
LINE
  5
E3F
  8
3
 10
277.98171161835972
 20
79.405896052227206
 30
-1809.3275679095209
 11
278.47793314813981
 21
79.325305264296503
 31
-1809.3275679095209
  0
LINE
  5
E40
  8
3
 10
278.5434155383607
 20
80.452211475909905
 30
-1809.3275679095209
 11
277.82164182479261
 21
79.827596981865725
 31
-1809.3275679095209
  0
LINE
  5
E41
  8
3
 10
277.98231774824239
 20
81.138425500537366
 30
-1809.3275679095191
 11
278.47887654056098
 21
80.955654868276156
 31
-1809.3275679095209
  0
ARC
  5
E42
  8
3
 10
278.00252826643992
 20
79.6550278791035
 30
-1809.3275679095209
 40
0.25
 50
136.34800681927069
 51
265.22364546749333
  0
ARC
  5
E43
  8
3
 10
278.45252826644059
 20
79.126925345993584
 30
-1809.3275679095209
 40
0.2
 50
305.80538160711529
 51
82.702322112217374
  0
LINE
  5
E44
  8
3
 10
278.51972210832292
 20
82.215890059767617
 30
-1809.3275679095209
 11
277.8811668970618
 21
81.737877359868151
 31
-1809.3275679095191
  0
ARC
  5
E45
  8
3
 10
278.35246068412079
 20
80.683590480234429
 30
-1809.3275679095209
 40
0.3
 50
309.5325276882553
 51
65.077865686942602
  0
ARC
  5
E46
  8
3
 10
278.10283588874307
 20
81.467021571436305
 30
-1809.3275679095191
 40
0.35
 50
129.2969720620074
 51
249.8586377393093
  0
ARC
  5
E47
  8
3
 10
278.25252826643691
 20
82.513560096651304
 30
-1809.3275679095209
 40
0.4
 50
311.91170555337959
 51
54.046947446515382
  0
ARC
  5
E48
  8
3
 10
119.8525282664351
 20
82.513560096651133
 30
-1809.3275679095209
 40
0.4
 50
125.9530525534846
 51
228.08829444662501
  0
ARC
  5
E49
  8
3
 10
120.0022206441289
 20
81.467021571436135
 30
-1809.3275679095191
 40
0.35
 50
290.1413622606907
 51
50.703027937994619
  0
ARC
  5
E4A
  8
3
 10
119.7525958487512
 20
80.683590480234272
 30
-1809.3275679095209
 40
0.3
 50
114.9221343130617
 51
230.4674723117447
  0
LINE
  5
E4B
  8
3
 10
119.5853344245493
 20
82.215890059767446
 30
-1809.3275679095209
 11
120.2238896358102
 21
81.737877359867966
 31
-1809.3275679095191
  0
ARC
  5
E4C
  8
3
 10
119.6525282664317
 20
79.126925345993413
 30
-1809.3275679095209
 40
0.2
 50
97.297677887785881
 51
234.1946183928867
  0
ARC
  5
E4D
  8
3
 10
120.1025282664322
 20
79.655027879103329
 30
-1809.3275679095209
 40
0.25
 50
274.77635453250991
 51
43.651993180733911
  0
LINE
  5
E4E
  8
3
 10
120.1227387846297
 20
81.13842550053721
 30
-1809.3275679095191
 11
119.62617999231109
 21
80.955654868275985
 31
-1809.3275679095209
  0
LINE
  5
E4F
  8
3
 10
119.56164099451139
 20
80.452211475909735
 30
-1809.3275679095209
 11
120.2834147080795
 21
79.827596981865554
 31
-1809.3275679095209
  0
LINE
  5
E50
  8
3
 10
120.1233449145125
 20
79.405896052227035
 30
-1809.3275679095209
 11
119.6271233847324
 21
79.325305264296333
 31
-1809.3275679095209
  0
ARC
  5
E51
  8
3
 10
120.15252826643081
 20
78.217021541868007
 30
-1809.3275679095209
 40
0.2
 50
255.82519886691171
 51
54.789278600730171
  0
LINE
  5
E52
  8
3
 10
120.26784530908461
 20
78.380428945842141
 30
-1809.3275679095209
 11
119.5203580500708
 21
78.976821935282317
 31
-1809.3275679095209
  0
ARC
  5
E53
  8
3
 10
119.6025282664306
 20
77.99594192210526
 30
-1809.32756790952
 40
0.15
 50
74.175119293249509
 51
247.28764889841739
  0
ARC
  5
E54
  8
3
 10
120.20252826642979
 20
77.293764639312315
 30
-1809.3275679095209
 40
0.15
 50
299.96082303218577
 51
60.039176967704712
  0
LINE
  5
E55
  8
3
 10
119.54461253105831
 20
77.857573690215531
 30
-1809.32756790952
 11
120.2804396063663
 21
77.421943510852543
 31
-1809.3275679095209
  0
LINE
  5
E56
  8
3
 10
120.10626324455281
 20
78.022446240890133
 30
-1809.3275679095209
 11
119.6356000580526
 21
78.142250693540575
 31
-1809.32756790952
  0
LINE
  5
E57
  8
3
 10
120.1149619582383
 20
77.067618378485733
 30
-1809.3275679095209
 11
120.2804396063661
 21
77.165585767771972
 31
-1809.3275679095209
  0
LINE
  5
E58
  8
3
 10
120.11496195824439
 20
89.883645705444508
 30
-1809.3275679095209
 11
120.2804396063722
 21
89.785678316158169
 31
-1809.3275679095209
  0
LINE
  5
E59
  8
3
 10
120.10626324455821
 20
88.928817843040179
 30
-1809.3275679095209
 11
119.6356000580578
 21
88.809013390390177
 31
-1809.32756790952
  0
LINE
  5
E5A
  8
3
 10
119.54461253106381
 20
89.093690393715292
 30
-1809.32756790952
 11
120.2804396063722
 21
89.529320573077598
 31
-1809.3275679095209
  0
ARC
  5
E5B
  8
3
 10
120.20252826643581
 20
89.657499444617883
 30
-1809.3275679095209
 40
0.15
 50
299.96082303224119
 51
60.039176967758863
  0
ARC
  5
E5C
  8
3
 10
119.6025282664358
 20
88.955322161825507
 30
-1809.32756790952
 40
0.15
 50
112.7123511015257
 51
285.8248807066937
  0
LINE
  5
E5D
  8
3
 10
120.26784530908949
 20
88.570835138088015
 30
-1809.3275679095209
 11
119.5203580500751
 21
87.974442148648563
 31
-1809.3275679095209
  0
ARC
  5
E5E
  8
3
 10
120.15252826643579
 20
88.734242542062248
 30
-1809.3275679095209
 40
0.2
 50
305.21072139921381
 51
104.17480113303451
  0
LINE
  5
E5F
  8
3
 10
120.12334491451649
 20
87.545368031703234
 30
-1809.3275679095209
 11
119.62712338473639
 21
87.625958819634434
 31
-1809.3275679095209
  0
LINE
  5
E60
  8
3
 10
119.56164099451431
 20
86.499052608021088
 30
-1809.3275679095209
 11
120.2834147080831
 21
87.123667102064573
 31
-1809.3275679095209
  0
LINE
  5
E61
  8
3
 10
120.12273878463191
 20
85.812838583393045
 30
-1809.3275679095191
 11
119.6261799923135
 21
85.995609215654781
 31
-1809.3275679095209
  0
ARC
  5
E62
  8
3
 10
120.1025282664358
 20
87.296236204826982
 30
-1809.3275679095209
 40
0.25
 50
316.34800681921092
 51
85.223645467434395
  0
ARC
  5
E63
  8
3
 10
119.65252826643579
 20
87.824338737937296
 30
-1809.3275679095209
 40
0.2
 50
125.8053816070573
 51
262.70232211215841
  0
LINE
  5
E64
  8
3
 10
120.18020794145529
 20
83.146965353256064
 30
-1809.3275679095191
 11
119.6176794037829
 21
82.837359435311669
 31
-1809.3275679095209
  0
LINE
  5
E65
  8
3
 10
119.5853344245506
 20
84.735374024163306
 30
-1809.3275679095209
 11
120.2238896358118
 21
85.213386724062204
 31
-1809.3275679095191
  0
ARC
  5
E66
  8
3
 10
119.7525958487539
 20
86.267673603696394
 30
-1809.3275679095209
 40
0.3
 50
129.53252768819729
 51
245.07786568688439
  0
ARC
  5
E67
  8
3
 10
120.0022206441307
 20
85.484242512494234
 30
-1809.3275679095191
 40
0.35
 50
309.29697206194737
 51
69.858637739253652
  0
LINE
  5
E68
  8
3
 10
120.1802079414576
 20
83.804298730677147
 30
-1809.3275679095191
 11
119.61767940378741
 21
84.113904648625578
 31
-1809.3275679095209
  0
ARC
  5
E69
  8
3
 10
119.8525282664361
 20
84.437703987279406
 30
-1809.3275679095209
 40
0.4
 50
131.91170555331959
 51
234.0469474464594
  0
ARC
  5
E6A
  8
3
 10
119.9522206441308
 20
83.475632041982294
 30
-1809.3275679095191
 40
0.4
 50
304.74801125678681
 51
55.251988706778832
  0
LINE
  5
E6B
  8
0
 10
124.0525282664359
 20
84.437703987267454
 30
-1809.3275679095209
 11
124.0525282664359
 21
83.475632041969106
 31
-1809.3275679095209
  0
LINE
  5
E6C
  8
0
 10
124.0525282664359
 20
89.975632093969182
 30
-1809.3275679095209
 11
124.0525282664359
 21
76.975631989969202
 31
-1809.3275679095209
  0
LINE
  5
E6D
  8
3
 10
119.4525282664351
 20
82.513560096671085
 30
-1809.3275679095209
 11
278.65252826643678
 21
82.513560096664776
 31
-1809.3275679095209
  0
LINE
  5
E6E
  8
0
 10
120.2712486614929
 20
76.975631989966985
 30
-1809.3275679095209
 11
277.83380787138498
 21
76.975631989969031
 31
-1809.3275679095209
  0
LINE
  5
E6F
  8
3
 10
120.3525282664299
 20
77.293764639320329
 30
-1809.3275679095209
 11
277.75252826644243
 21
77.293764639320329
 31
-1809.3275679095209
  0
LINE
  5
E70
  8
3
 10
119.45252826643051
 20
77.995941922112706
 30
-1809.3275679095209
 11
278.65252826644161
 21
77.99594192211265
 31
-1809.3275679095209
  0
LINE
  5
E71
  8
3
 10
120.3525282664307
 20
78.217021541875852
 30
-1809.3275679095209
 11
277.75252826644152
 21
78.217021541877955
 31
-1809.3275679095209
  0
LINE
  5
E72
  8
3
 10
119.4525282664316
 20
79.126925346000974
 30
-1809.3275679095209
 11
278.65252826644058
 21
79.126925346000917
 31
-1809.3275679095209
  0
LINE
  5
E73
  8
3
 10
120.3525282664322
 20
79.655027879111287
 30
-1809.3275679095209
 11
277.75252826643992
 21
79.655027879111231
 31
-1809.3275679095209
  0
LINE
  5
E74
  8
3
 10
119.4525958487513
 20
80.683590480241818
 30
-1809.3275679095209
 11
278.6524606841208
 21
80.683590480241904
 31
-1809.3275679095209
  0
LINE
  5
E75
  8
3
 10
120.35222064412881
 20
81.467021571435055
 30
-1809.3275679095209
 11
277.75283588874322
 21
81.467021571437044
 31
-1809.3275679095209
  0
LINE
  5
E76
  8
3
 10
120.3522206441308
 20
83.475632041963081
 30
-1809.3275679095209
 11
277.75283588874117
 21
83.475632041969334
 31
-1809.3275679095209
  0
LINE
  5
E77
  8
3
 10
119.452528266436
 20
84.437703987267113
 30
-1809.3275679095209
 11
278.65252826643592
 21
84.43770398727338
 31
-1809.3275679095209
  0
LINE
  5
E78
  8
3
 10
120.3522206441309
 20
85.484242512503144
 30
-1809.3275679095209
 11
277.75283588874117
 21
85.484242512501154
 31
-1809.3275679095209
  0
LINE
  5
E79
  8
3
 10
119.452595848754
 20
86.267673603696309
 30
-1809.3275679095209
 11
278.6524606841179
 21
86.267673603696267
 31
-1809.3275679095209
  0
LINE
  5
E7A
  8
3
 10
120.3525282664358
 20
87.296236204826982
 30
-1809.3275679095209
 11
277.752528266436
 21
87.296236204826926
 31
-1809.3275679095209
  0
LINE
  5
E7B
  8
3
 10
119.45252826643591
 20
87.824338737937296
 30
-1809.3275679095209
 11
278.65252826643609
 21
87.824338737937396
 31
-1809.3275679095209
  0
LINE
  5
E7C
  8
3
 10
120.3525282664358
 20
88.734242542062304
 30
-1809.3275679095209
 11
277.752528266436
 21
88.734242542060315
 31
-1809.3275679095209
  0
LINE
  5
E7D
  8
3
 10
119.45252826643591
 20
88.955322161825507
 30
-1809.3275679095209
 11
278.65252826643592
 21
88.955322161825563
 31
-1809.3275679095209
  0
LINE
  5
E7E
  8
3
 10
120.3525282664358
 20
89.65749944461794
 30
-1809.3275679095209
 11
277.752528266436
 21
89.657499444617827
 31
-1809.3275679095209
  0
LINE
  5
E7F
  8
0
 10
120.4090536835995
 20
89.975632093971171
 30
-1809.3275679095209
 11
277.69600284928009
 21
89.975632093969125
 31
-1809.3275679095209
  0
LINE
  5
E80
  8
1
 10
68.052538638433745
 20
83.475632041969206
 30
-1809.3275679095209
 11
91.052538742433683
 21
83.475632041969206
 31
-1809.3275679095209
  0
ARC
  5
E81
  8
0
 10
30.325723079619479
 20
86.648353041351129
 30
-1809.3275679095209
 40
0.8385184307081474
 50
298.51087705600088
 51
7.489121603001279
  0
ARC
  5
E82
  8
0
 10
36.552538586433798
 20
83.475632041969433
 30
-1809.3275679095209
 40
4.7500000379999996
 50
107.10463517700251
 51
162.89536482300051
  0
LINE
  5
E83
  8
0
 10
33.40253846623375
 20
82.725632035969284
 30
-1809.3275679095209
 11
32.490519351937678
 21
82.725632035969284
 31
-1809.3275679095209
  0
ARC
  5
E84
  8
0
 10
32.490519351937678
 20
82.225632031969326
 30
-1809.3275679095209
 40
0.5000000039999999
 50
90.0
 51
197.10463517699941
  0
ARC
  5
E85
  8
0
 10
31.08396357368531
 20
81.69878431075449
 30
-1809.3275679095209
 40
0.7500000059999998
 50
154.51087705599841
 51
241.48912144700259
  0
ARC
  5
E86
  8
0
 10
29.650060407214031
 20
82.382386924223397
 30
-1809.3275679095209
 40
0.8385184307081474
 50
334.51087705599838
 51
43.489121603001223
  0
LINE
  5
E87
  8
0
 10
35.802538580433861
 20
80.325631921769286
 30
-1809.3275679095209
 11
35.802538580433861
 21
79.413612807473214
 31
-1809.3275679095209
  0
ARC
  5
E88
  8
0
 10
34.775690855219068
 20
78.007057030220722
 30
-1809.3275679095209
 40
0.7500000059999998
 50
208.51087705600091
 51
295.48912144699688
  0
ARC
  5
E89
  8
0
 10
33.17277335839583
 20
78.823784287754506
 30
-1809.3275679095209
 40
0.7500000059999998
 50
190.51087705600031
 51
277.48912144699722
  0
ARC
  5
E8A
  8
0
 10
31.900690832219091
 20
80.095866814931227
 30
-1809.3275679095209
 40
0.7500000059999998
 50
172.5108770560004
 51
259.48912144699818
  0
ARC
  5
E8B
  8
0
 10
31.61090979390076
 20
78.53400328543637
 30
-1809.3275679095209
 40
0.8385184307081474
 50
10.51087705600029
 51
79.48912160300236
  0
ARC
  5
E8C
  8
0
 10
33.379817588052113
 20
77.248816535154901
 30
-1809.3275679095209
 40
0.8385184307081474
 50
28.510877056000862
 51
97.489121602997656
  0
ARC
  5
E8D
  8
0
 10
36.552538586433798
 20
83.475632041969433
 30
-1809.3275679095209
 40
4.7500000379999996
 50
197.10463517699941
 51
252.89536482299749
  0
ARC
  5
E8E
  8
0
 10
30.325723056619498
 20
80.302911088587734
 30
-1809.3275679095209
 40
0.8385184307081474
 50
352.51087705600042
 51
61.489121602997578
  0
LINE
  5
E8F
  8
0
 10
33.40253846623375
 20
84.225632047969285
 30
-1809.3275679095209
 11
32.490519351937678
 21
84.225632047969285
 31
-1809.3275679095209
  0
ARC
  5
E90
  8
0
 10
32.490519351937678
 20
84.725632051969342
 30
-1809.3275679095209
 40
0.5000000039999999
 50
162.89536482300051
 51
270.0
  0
ARC
  5
E91
  8
0
 10
29.65006041521395
 20
84.568877209715311
 30
-1809.3275679095209
 40
0.8385184307081474
 50
316.51087705600042
 51
25.489121602999312
  0
ARC
  5
E92
  8
0
 10
31.08396357368531
 20
85.252479774184167
 30
-1809.3275679095209
 40
0.7500000059999998
 50
118.51087705600079
 51
205.48912144700131
  0
ARC
  5
E93
  8
0
 10
30.802538540433829
 20
83.475632041969433
 30
-1809.3275679095209
 40
0.7500000059999998
 50
136.5108770560004
 51
223.48912144700151
  0
ARC
  5
E94
  8
0
 10
33.40253846623375
 20
83.475632041969433
 30
-1809.3275679095209
 40
0.7500000059999998
 50
270.0
 51
90.0
  0
ARC
  5
E95
  8
0
 10
34.775690855219068
 20
88.944207054717936
 30
-1809.3275679095209
 40
0.7500000059999998
 50
64.510877055998449
 51
151.48912144699969
  0
LINE
  5
E96
  8
0
 10
35.802538580433861
 20
86.625632163169243
 30
-1809.3275679095209
 11
35.802538580433861
 21
87.537651277465443
 31
-1809.3275679095209
  0
ARC
  5
E97
  8
0
 10
31.900690832219091
 20
86.855397270007529
 30
-1809.3275679095209
 40
0.7500000059999998
 50
100.5108770559971
 51
187.48912144700091
  0
ARC
  5
E98
  8
0
 10
31.610909829900841
 20
88.417260835502361
 30
-1809.3275679095209
 40
0.8385184307081474
 50
280.51087705599713
 51
349.48912160299921
  0
ARC
  5
E99
  8
0
 10
33.17277335839583
 20
88.127479797184137
 30
-1809.3275679095209
 40
0.7500000059999998
 50
82.51087705599717
 51
169.48912144700139
  0
ARC
  5
E9A
  8
0
 10
33.379817633052312
 20
89.70244757278374
 30
-1809.3275679095209
 40
0.8385184307081474
 50
262.51087705600361
 51
331.48912160300051
  0
ARC
  5
E9B
  8
0
 10
36.552538586433798
 20
83.475632041969433
 30
-1809.3275679095209
 40
4.7500000379999996
 50
17.10463517699943
 51
72.895364822997465
  0
ARC
  5
E9C
  8
0
 10
42.779354117248538
 20
86.64835299635115
 30
-1809.3275679095209
 40
0.8385184307081474
 50
172.5108770560004
 51
241.48912160299761
  0
LINE
  5
E9D
  8
1
 10
36.552538586433798
 20
71.975631989969258
 30
-1809.3275679095209
 11
36.552538586433798
 21
94.975632093969182
 31
-1809.3275679095209
  0
ARC
  5
E9E
  8
0
 10
41.204386341648721
 20
80.095866814931227
 30
-1809.3275679095209
 40
0.7500000059999998
 50
280.51087705599713
 51
7.4891214470009277
  0
ARC
  5
E9F
  8
0
 10
42.779354094248333
 20
80.302911043587514
 30
-1809.3275679095209
 40
0.8385184307081474
 50
118.51087705600079
 51
187.48912160300131
  0
ARC
  5
EA0
  8
0
 10
36.552538586433798
 20
83.475632041969433
 30
-1809.3275679095209
 40
4.7500000379999996
 50
287.10463517700248
 51
342.89536482300059
  0
ARC
  5
EA1
  8
0
 10
40.614557820930138
 20
82.225632031969326
 30
-1809.3275679095209
 40
0.5000000039999999
 50
342.89536482300059
 51
90.0
  0
LINE
  5
EA2
  8
0
 10
39.702538707633607
 20
82.725632035969284
 30
-1809.3275679095209
 11
40.614557820930138
 21
82.725632035969284
 31
-1809.3275679095209
  0
ARC
  5
EA3
  8
0
 10
39.932303814472
 20
78.823784287754506
 30
-1809.3275679095209
 40
0.7500000059999998
 50
262.51087705600361
 51
349.48912144700142
  0
ARC
  5
EA4
  8
0
 10
41.494167343966971
 20
78.534003249436296
 30
-1809.3275679095209
 40
0.8385184307081474
 50
100.5108770559971
 51
169.48912160299909
  0
ARC
  5
EA5
  8
0
 10
38.329386318648517
 20
78.007057030220722
 30
-1809.3275679095209
 40
0.7500000059999998
 50
244.51087705599841
 51
331.48912144699972
  0
ARC
  5
EA6
  8
0
 10
39.725259539815738
 20
77.248816512154804
 30
-1809.3275679095209
 40
0.8385184307081474
 50
82.51087705599717
 51
151.4891216030004
  0
LINE
  5
EA7
  8
0
 10
37.302538592433741
 20
80.325631921769286
 30
-1809.3275679095209
 11
37.302538592433741
 21
79.413612807473214
 31
-1809.3275679095209
  0
ARC
  5
EA8
  8
0
 10
36.552538586433798
 20
77.725631995969252
 30
-1809.3275679095209
 40
0.7500000059999998
 50
226.51087705600051
 51
313.48912144699921
  0
ARC
  5
EA9
  8
0
 10
37.802538596433692
 20
79.413612807473214
 30
-1809.3275679095209
 40
0.5000000039999999
 50
180.0
 51
287.10463517700248
  0
ARC
  5
EAA
  8
0
 10
37.645783704179742
 20
76.573153863749667
 30
-1809.3275679095209
 40
0.8385184307081474
 50
64.510877055998449
 51
133.48912160299881
  0
LINE
  5
EAB
  8
0
 10
39.702538707633607
 20
84.225632047969285
 30
-1809.3275679095209
 11
40.614557820930138
 21
84.225632047969285
 31
-1809.3275679095209
  0
ARC
  5
EAC
  8
0
 10
40.614557820930138
 20
84.725632051969342
 30
-1809.3275679095209
 40
0.5000000039999999
 50
270.0
 51
17.10463517699943
  0
ARC
  5
EAD
  8
0
 10
39.702538707633607
 20
83.475632041969433
 30
-1809.3275679095209
 40
0.7500000059999998
 50
90.0
 51
270.0
  0
ARC
  5
EAE
  8
0
 10
43.455016757653418
 20
82.382386875223347
 30
-1809.3275679095209
 40
0.8385184307081474
 50
136.5108770560004
 51
205.48912160299929
  0
ARC
  5
EAF
  8
0
 10
42.021113599182513
 20
81.69878431075449
 30
-1809.3275679095209
 40
0.7500000059999998
 50
298.51087705600088
 51
25.48912144700131
  0
ARC
  5
EB0
  8
0
 10
42.021113599182513
 20
85.252479774184167
 30
-1809.3275679095209
 40
0.7500000059999998
 50
334.51087705599838
 51
61.489121447002617
  0
ARC
  5
EB1
  8
0
 10
43.455016765653788
 20
84.568877159715271
 30
-1809.3275679095209
 40
0.8385184307081474
 50
154.51087705599841
 51
223.48912160300119
  0
ARC
  5
EB2
  8
0
 10
42.302538632433759
 20
83.475632041969433
 30
-1809.3275679095209
 40
0.7500000059999998
 50
316.51087705600042
 51
43.489121446999249
  0
ARC
  5
EB3
  8
0
 10
41.204386341648721
 20
86.855397270007529
 30
-1809.3275679095209
 40
0.7500000059999998
 50
352.51087705600042
 51
79.48912144699824
  0
ARC
  5
EB4
  8
0
 10
38.329386318648517
 20
88.944207054717936
 30
-1809.3275679095209
 40
0.7500000059999998
 50
28.510877056000862
 51
115.4891214469969
  0
ARC
  5
EB5
  8
0
 10
41.494167378967063
 20
88.417260799502387
 30
-1809.3275679095209
 40
0.8385184307081474
 50
190.51087705600031
 51
259.48912160300239
  0
ARC
  5
EB6
  8
0
 10
39.725259584815717
 20
89.702447549783855
 30
-1809.3275679095209
 40
0.8385184307081474
 50
208.51087705600091
 51
277.48912160299761
  0
ARC
  5
EB7
  8
0
 10
39.932303814472
 20
88.127479797184137
 30
-1809.3275679095209
 40
0.7500000059999998
 50
10.51087705600029
 51
97.48912144699726
  0
ARC
  5
EB8
  8
0
 10
36.552538586433798
 20
89.225632087969416
 30
-1809.3275679095209
 40
0.7500000059999998
 50
46.510877056000467
 51
133.48912144699921
  0
LINE
  5
EB9
  8
0
 10
37.302538592433741
 20
86.625632163169243
 30
-1809.3275679095209
 11
37.302538592433741
 21
87.537651277465443
 31
-1809.3275679095209
  0
ARC
  5
EBA
  8
0
 10
37.645783754179661
 20
90.378110213189188
 30
-1809.3275679095209
 40
0.8385184307081474
 50
226.51087705600051
 51
295.48912160300358
  0
ARC
  5
EBB
  8
0
 10
37.802538596433692
 20
87.537651277465443
 30
-1809.3275679095209
 40
0.5000000039999999
 50
72.895364822997465
 51
180.0
  0
ARC
  5
EBC
  8
0
 10
35.302538576433911
 20
79.413612807473214
 30
-1809.3275679095209
 40
0.5000000039999999
 50
252.89536482299749
 51
0.0
  0
ARC
  5
EBD
  8
0
 10
35.459293418687942
 20
76.573153871749582
 30
-1809.3275679095209
 40
0.8385184307081474
 50
46.510877056000467
 51
115.4891216030036
  0
ARC
  5
EBE
  8
0
 10
36.552538586433798
 20
80.3256319217694
 30
-1809.3275679095209
 40
0.7500000059999998
 50
0.0
 51
180.0
  0
ARC
  5
EBF
  8
0
 10
35.459293468687861
 20
90.378110221189104
 30
-1809.3275679095209
 40
0.8385184307081474
 50
244.51087705599841
 51
313.48912160299659
  0
ARC
  5
EC0
  8
0
 10
35.302538576433911
 20
87.537651277465443
 30
-1809.3275679095209
 40
0.5000000039999999
 50
0.0
 51
107.10463517700251
  0
ARC
  5
EC1
  8
0
 10
36.552538586433798
 20
86.625632163169385
 30
-1809.3275679095209
 40
0.7500000059999998
 50
180.0
 51
0.0
  0
ARC
  5
EC2
  8
0
 10
80.645783858179755
 20
90.378110213189188
 30
-1809.3275679095209
 40
0.8385184307081474
 50
226.51087705600051
 51
295.48912160300358
  0
ARC
  5
EC3
  8
0
 10
79.552538690433664
 20
89.225632087969416
 30
-1809.3275679095209
 40
0.7500000059999998
 50
46.510877056000467
 51
133.48912144699921
  0
ARC
  5
EC4
  8
0
 10
82.932303918471874
 20
88.127479797184137
 30
-1809.3275679095209
 40
0.7500000059999998
 50
10.51087705600029
 51
97.48912144699726
  0
ARC
  5
EC5
  8
0
 10
82.725259688815584
 20
89.702447549783855
 30
-1809.3275679095209
 40
0.8385184307081474
 50
208.51087705600091
 51
277.48912160299761
  0
ARC
  5
EC6
  8
0
 10
84.49416748296693
 20
88.417260799502387
 30
-1809.3275679095209
 40
0.8385184307081474
 50
190.51087705600031
 51
259.48912160300239
  0
ARC
  5
EC7
  8
0
 10
81.329386422648611
 20
88.944207054717936
 30
-1809.3275679095209
 40
0.7500000059999998
 50
28.510877056000862
 51
115.4891214469969
  0
ARC
  5
EC8
  8
0
 10
84.204386445648595
 20
86.855397270007529
 30
-1809.3275679095209
 40
0.7500000059999998
 50
352.51087705600042
 51
79.48912144699824
  0
ARC
  5
EC9
  8
0
 10
85.302538736433874
 20
83.475632041969433
 30
-1809.3275679095209
 40
0.7500000059999998
 50
316.51087705600042
 51
43.489121446999249
  0
ARC
  5
ECA
  8
0
 10
86.455016869653647
 20
84.568877159715271
 30
-1809.3275679095209
 40
0.8385184307081474
 50
154.51087705599841
 51
223.48912160300119
  0
ARC
  5
ECB
  8
0
 10
85.021113703182365
 20
85.252479774184167
 30
-1809.3275679095209
 40
0.7500000059999998
 50
334.51087705599838
 51
61.489121447002617
  0
ARC
  5
ECC
  8
0
 10
85.021113703182365
 20
81.69878431075449
 30
-1809.3275679095209
 40
0.7500000059999998
 50
298.51087705600088
 51
25.48912144700131
  0
ARC
  5
ECD
  8
0
 10
86.455016861653505
 20
82.382386875223347
 30
-1809.3275679095209
 40
0.8385184307081474
 50
136.5108770560004
 51
205.48912160299929
  0
ARC
  5
ECE
  8
0
 10
80.645783808179814
 20
76.573153863749667
 30
-1809.3275679095209
 40
0.8385184307081474
 50
64.510877055998449
 51
133.48912160299881
  0
ARC
  5
ECF
  8
0
 10
79.552538690433664
 20
77.725631995969252
 30
-1809.3275679095209
 40
0.7500000059999998
 50
226.51087705600051
 51
313.48912144699921
  0
ARC
  5
ED0
  8
0
 10
82.725259643815605
 20
77.248816512154804
 30
-1809.3275679095209
 40
0.8385184307081474
 50
82.51087705599717
 51
151.4891216030004
  0
ARC
  5
ED1
  8
0
 10
81.329386422648611
 20
78.007057030220722
 30
-1809.3275679095209
 40
0.7500000059999998
 50
244.51087705599841
 51
331.48912144699972
  0
ARC
  5
ED2
  8
0
 10
84.494167447966845
 20
78.534003249436296
 30
-1809.3275679095209
 40
0.8385184307081474
 50
100.5108770559971
 51
169.48912160299909
  0
ARC
  5
ED3
  8
0
 10
82.932303918471874
 20
78.823784287754506
 30
-1809.3275679095209
 40
0.7500000059999998
 50
262.51087705600361
 51
349.48912144700142
  0
ARC
  5
ED4
  8
0
 10
85.7793541982482
 20
80.302911043587514
 30
-1809.3275679095209
 40
0.8385184307081474
 50
118.51087705600079
 51
187.48912160300131
  0
ARC
  5
ED5
  8
0
 10
84.204386445648595
 20
80.095866814931227
 30
-1809.3275679095209
 40
0.7500000059999998
 50
280.51087705599713
 51
7.4891214470009277
  0
LINE
  5
ED6
  8
1
 10
79.552538690433664
 20
71.975631989969258
 30
-1809.3275679095209
 11
79.552538690433664
 21
94.975632093969409
 31
-1809.3275679095209
  0
ARC
  5
ED7
  8
0
 10
85.779354221248411
 20
86.64835299635115
 30
-1809.3275679095209
 40
0.8385184307081474
 50
172.5108770560004
 51
241.48912160299761
  0
ARC
  5
ED8
  8
0
 10
76.379817737052178
 20
89.70244757278374
 30
-1809.3275679095209
 40
0.8385184307081474
 50
262.51087705600361
 51
331.48912160300051
  0
ARC
  5
ED9
  8
0
 10
76.172773462395696
 20
88.127479797184137
 30
-1809.3275679095209
 40
0.7500000059999998
 50
82.51087705599717
 51
169.48912144700139
  0
ARC
  5
EDA
  8
0
 10
74.610909933900928
 20
88.417260835502361
 30
-1809.3275679095209
 40
0.8385184307081474
 50
280.51087705599713
 51
349.48912160299921
  0
ARC
  5
EDB
  8
0
 10
74.900690936219178
 20
86.855397270007529
 30
-1809.3275679095209
 40
0.7500000059999998
 50
100.5108770559971
 51
187.48912144700091
  0
ARC
  5
EDC
  8
0
 10
77.775690959218934
 20
88.944207054717936
 30
-1809.3275679095209
 40
0.7500000059999998
 50
64.510877055998449
 51
151.48912144699969
  0
ARC
  5
EDD
  8
0
 10
73.802538644433696
 20
83.475632041969433
 30
-1809.3275679095209
 40
0.7500000059999998
 50
136.5108770560004
 51
223.48912144699929
  0
ARC
  5
EDE
  8
0
 10
74.083963677685404
 20
85.252479774184167
 30
-1809.3275679095209
 40
0.7500000059999998
 50
118.51087705600079
 51
205.48912144700131
  0
ARC
  5
EDF
  8
0
 10
72.650060519214037
 20
84.568877209715311
 30
-1809.3275679095209
 40
0.8385184307081474
 50
316.51087705600042
 51
25.489121602999312
  0
ARC
  5
EE0
  8
0
 10
73.325723160619361
 20
80.302911088587734
 30
-1809.3275679095209
 40
0.8385184307081474
 50
352.51087705600042
 51
61.489121602997578
  0
ARC
  5
EE1
  8
0
 10
76.379817692051972
 20
77.248816535154901
 30
-1809.3275679095209
 40
0.8385184307081474
 50
28.510877056000862
 51
97.489121602997656
  0
ARC
  5
EE2
  8
0
 10
74.610909897900854
 20
78.53400328543637
 30
-1809.3275679095209
 40
0.8385184307081474
 50
10.51087705600029
 51
79.48912160300236
  0
ARC
  5
EE3
  8
0
 10
74.900690936219178
 20
80.095866814931227
 30
-1809.3275679095209
 40
0.7500000059999998
 50
172.5108770560004
 51
259.48912144699818
  0
ARC
  5
EE4
  8
0
 10
76.172773462395696
 20
78.823784287754506
 30
-1809.3275679095209
 40
0.7500000059999998
 50
190.51087705600031
 51
277.48912144699722
  0
ARC
  5
EE5
  8
0
 10
77.775690959218934
 20
78.007057030220722
 30
-1809.3275679095209
 40
0.7500000059999998
 50
208.51087705600091
 51
295.48912144699688
  0
ARC
  5
EE6
  8
0
 10
72.650060511214122
 20
82.382386924223397
 30
-1809.3275679095209
 40
0.8385184307081474
 50
334.51087705599838
 51
43.489121603001223
  0
ARC
  5
EE7
  8
0
 10
74.083963677685404
 20
81.69878431075449
 30
-1809.3275679095209
 40
0.7500000059999998
 50
154.51087705599841
 51
241.48912144700259
  0
ARC
  5
EE8
  8
0
 10
73.325723183619345
 20
86.648353041351129
 30
-1809.3275679095209
 40
0.8385184307081474
 50
298.51087705600088
 51
7.489121603001279
  0
ARC
  5
EE9
  8
0
 10
-122.0525327904333
 20
82.705113242927027
 30
1809.409409556665
 40
5.9999940479999498
210
0.0
220
0.0
230
-1.0
 50
287.27036366014278
 51
359.99999499099749
  0
LINE
  5
EEA
  8
0
 10
116.0525387424335
 20
82.705113242926927
 30
-1809.409409556665
 11
116.0525387424335
 21
84.205111754927202
 31
-1809.4094094726649
  0
ARC
  5
EEB
  8
0
 10
-122.05253279243389
 20
84.205111753927326
 30
1809.409409556665
 40
5.9999940479999498
210
0.0
220
0.0
230
-1.0
 50
359.99999499099749
 51
74.102726264366552
  0
ARC
  5
EEC
  8
0
 10
78.459293572687713
 20
90.378110221189104
 30
-1809.3275679095209
 40
0.8385184307081474
 50
244.51087705599841
 51
313.48912160299659
  0
ARC
  5
EED
  8
0
 10
78.459293522688029
 20
76.573153871749582
 30
-1809.3275679095209
 40
0.8385184307081474
 50
46.510877056000467
 51
115.4891216030036
  0
LINE
  5
EEE
  8
1
 10
111.0525387424337
 20
83.475632041969206
 30
-1809.3275679095209
 11
287.05251779043829
 21
83.475632041969163
 31
-1809.3275679095209
  0
LINE
  5
EEF
  8
1
 10
25.05253853443384
 20
83.475632041969206
 30
-1809.3275679095209
 11
48.052538638433752
 21
83.475632041969206
 31
-1809.3275679095209
  0
TEXT
  5
FAA
  8
0
 62
     3
 10
0.0
 20
0.0
 30
0.0
 40
10.0
  1
CC60CT-150
  7
STANDARD1
  0
ENDSEC
  0
EOF
