  0
SECTION
  2
HEADER
  9
$ACADVER
  1
AC1009
  9
$INSBASE
 10
0.0
 20
0.0
 30
0.0
  9
$EXTMIN
 10
0.0
 20
-2.960436562073669
 30
-26.901306972816268
  9
$EXTMAX
 10
173.26101814977821
 20
155.08477055496559
 30
0.1497950834895754
  9
$LIMMIN
 10
0.0
 20
0.0
  9
$LIMMAX
 10
375.0
 20
270.0
  9
$ORTHOMODE
 70
     1
  9
$REGENMODE
 70
     1
  9
$FILLMODE
 70
     1
  9
$QTEXTMODE
 70
     0
  9
$MIRRTEXT
 70
     0
  9
$DRAGMODE
 70
     2
  9
$LTSCALE
 40
5.0
  9
$OSMODE
 70
  3071
  9
$ATTMODE
 70
     1
  9
$TEXTSIZE
 40
0.2
  9
$TRACEWID
 40
0.05
  9
$TEXTSTYLE
  7
STANDARD
  9
$CLAYER
  8
0
  9
$CELTYPE
  6
BYLAYER
  9
$CECOLOR
 62
   256
  9
$DIMSCALE
 40
1.0
  9
$DIMASZ
 40
3.0
  9
$DIMEXO
 40
2.0
  9
$DIMDLI
 40
0.38
  9
$DIMRND
 40
0.0
  9
$DIMDLE
 40
0.0
  9
$DIMEXE
 40
2.0
  9
$DIMTP
 40
0.0
  9
$DIMTM
 40
0.0
  9
$DIMTXT
 40
3.2000000000000002
  9
$DIMCEN
 40
0.09
  9
$DIMTSZ
 40
0.0
  9
$DIMTOL
 70
     0
  9
$DIMLIM
 70
     0
  9
$DIMTIH
 70
     0
  9
$DIMTOH
 70
     0
  9
$DIMSE1
 70
     0
  9
$DIMSE2
 70
     0
  9
$DIMTAD
 70
     1
  9
$DIMZIN
 70
     0
  9
$DIMBLK
  1

  9
$DIMASO
 70
     1
  9
$DIMSHO
 70
     0
  9
$DIMPOST
  1

  9
$DIMAPOST
  1

  9
$DIMALT
 70
     0
  9
$DIMALTD
 70
     2
  9
$DIMALTF
 40
25.399999999999999
  9
$DIMLFAC
 40
1.0
  9
$DIMTOFL
 70
     0
  9
$DIMTVP
 40
1.6000000000000001
  9
$DIMTIX
 70
     1
  9
$DIMSOXD
 70
     0
  9
$DIMSAH
 70
     0
  9
$DIMBLK1
  1

  9
$DIMBLK2
  1

  9
$DIMSTYLE
  2
STANDARD
  9
$DIMCLRD
 70
     0
  9
$DIMCLRE
 70
     0
  9
$DIMCLRT
 70
     0
  9
$DIMTFAC
 40
1.0
  9
$DIMGAP
 40
0.09
  9
$LUNITS
 70
     2
  9
$LUPREC
 70
     4
  9
$SKETCHINC
 40
0.1
  9
$FILLETRAD
 40
2.0
  9
$AUNITS
 70
     0
  9
$AUPREC
 70
     0
  9
$MENU
  1
E:\r13\win\SUPPORT\ACAD
  9
$ELEVATION
 40
0.0
  9
$PELEVATION
 40
0.0
  9
$THICKNESS
 40
0.0
  9
$LIMCHECK
 70
     0
  9
$BLIPMODE
 70
     0
  9
$CHAMFERA
 40
0.0
  9
$CHAMFERB
 40
0.0
  9
$SKPOLY
 70
     0
  9
$TDCREATE
 40
2447977.5416277782
  9
$TDUPDATE
 40
2456598.5870001619
  9
$TDINDWG
 40
0.0083259259
  9
$TDUSRTIMER
 40
0.0083259259
  9
$USRTIMER
 70
     1
  9
$ANGBASE
 50
0.0
  9
$ANGDIR
 70
     0
  9
$PDMODE
 70
     0
  9
$PDSIZE
 40
0.0
  9
$PLINEWID
 40
0.0
  9
$COORDS
 70
     1
  9
$SPLFRAME
 70
     0
  9
$SPLINETYPE
 70
     6
  9
$SPLINESEGS
 70
     8
  9
$ATTDIA
 70
     0
  9
$ATTREQ
 70
     1
  9
$HANDLING
 70
     1
  9
$HANDSEED
  5
46B
  9
$SURFTAB1
 70
     6
  9
$SURFTAB2
 70
     6
  9
$SURFTYPE
 70
     6
  9
$SURFU
 70
     6
  9
$SURFV
 70
     6
  9
$UCSNAME
  2

  9
$UCSORG
 10
0.0
 20
0.0
 30
0.0
  9
$UCSXDIR
 10
1.0
 20
0.0
 30
0.0
  9
$UCSYDIR
 10
0.0
 20
1.0
 30
0.0
  9
$PUCSNAME
  2

  9
$PUCSORG
 10
0.0
 20
0.0
 30
0.0
  9
$PUCSXDIR
 10
1.0
 20
0.0
 30
0.0
  9
$PUCSYDIR
 10
0.0
 20
1.0
 30
0.0
  9
$USERI1
 70
     0
  9
$USERI2
 70
     1
  9
$USERI3
 70
     1
  9
$USERI4
 70
     0
  9
$USERI5
 70
     0
  9
$USERR1
 40
0.0
  9
$USERR2
 40
0.0
  9
$USERR3
 40
0.0
  9
$USERR4
 40
0.0
  9
$USERR5
 40
0.0
  9
$WORLDVIEW
 70
     1
  9
$SHADEDGE
 70
     3
  9
$SHADEDIF
 70
    70
  9
$TILEMODE
 70
     1
  9
$MAXACTVP
 70
    16
  9
$PLIMCHECK
 70
     0
  9
$PEXTMIN
 10
1.0000000000000000E+020
 20
1.0000000000000000E+020
 30
1.0000000000000000E+020
  9
$PEXTMAX
 10
-1.0000000000000000E+020
 20
-1.0000000000000000E+020
 30
-1.0000000000000000E+020
  9
$PLIMMIN
 10
0.0
 20
0.0
  9
$PLIMMAX
 10
12.0
 20
9.0
  9
$UNITMODE
 70
     0
  9
$VISRETAIN
 70
     0
  9
$PLINEGEN
 70
     1
  9
$PSLTSCALE
 70
     0
  0
ENDSEC
  0
SECTION
  2
TABLES
  0
TABLE
  2
VPORT
 70
     1
  0
VPORT
  2
*ACTIVE
 70
     0
 10
0.0
 20
0.0
 11
1.0
 21
1.0
 12
195.0581083320873
 22
133.5127261426681
 13
0.0
 23
0.0
 14
10.0
 24
10.0
 15
10.0
 25
10.0
 16
0.0
 26
0.0
 36
1.0
 17
0.0
 27
0.0
 37
0.0
 40
275.42274993631997
 41
1.831871345029239
 42
50.0
 43
0.0
 44
0.0
 50
0.0
 51
0.0
 71
     0
 72
   500
 73
     1
 74
     0
 75
     0
 76
     0
 77
     0
 78
     2
  0
ENDTAB
  0
TABLE
  2
LTYPE
 70
     4
  0
LTYPE
  2
CONTINUOUS
 70
     0
  3
Solid Line
 72
    65
 73
     0
 40
0.0
  0
LTYPE
  2
CENTER
 70
     0
  3
____ _ ____ _ ____ _ ____ _ ____ _ ____ _ ____
 72
    65
 73
     4
 40
2.0
 49
1.25
 49
-0.25
 49
0.25
 49
-0.25
  0
LTYPE
  2
HIDDEN
 70
     0
  3
_ _ _ _ _ _ _ _ _ _ _ _ _ _ _ _ _ _ _ _ _ _ _
 72
    65
 73
     2
 40
0.375
 49
0.25
 49
-0.125
  0
LTYPE
  2
PHANTOM2
 70
     0
  3
___ _ _ ___ _ _ ___ _ _ ___ _ _
 72
    65
 73
     6
 40
1.25
 49
0.625
 49
-0.125
 49
0.125
 49
-0.125
 49
0.125
 49
-0.125
  0
ENDTAB
  0
TABLE
  2
LAYER
 70
     3
  0
LAYER
  2
0
 70
     0
 62
     7
  6
CONTINUOUS
  0
LAYER
  2
1
 70
     0
 62
     1
  6
CENTER
  0
LAYER
  2
2
 70
     0
 62
     2
  6
HIDDEN
  0
ENDTAB
  0
TABLE
  2
STYLE
 70
     2
  0
STYLE
  2
STANDARD
 70
     0
 40
0.0
 41
1.0
 50
0.0
 71
     0
 42
0.2
  3
TXT
  4
BIGFONT
  0
STYLE
  2
STANDARD1
 70
     0
 40
0.0
 41
1.0
 50
0.0
 71
     0
 42
3.0
  3
txt
  4

  0
ENDTAB
  0
TABLE
  2
VIEW
 70
     1
  0
VIEW
  2
ALL
 70
     0
 40
270.0
 10
220.99159663865549
 20
135.0
 41
0.0
 11
0.0
 21
0.0
 31
1.0
 12
0.0
 22
0.0
 32
0.0
 42
0.0
 43
0.0
 44
0.0
 50
0.0
 71
     0
  0
ENDTAB
  0
TABLE
  2
UCS
 70
     0
  0
ENDTAB
  0
TABLE
  2
APPID
 70
     3
  0
APPID
  2
ACAD
 70
     0
  0
APPID
  2
ACAD_MLEADERVER
 70
     0
  0
APPID
  2
ACAD_NAV_VCDISPLAY
 70
     0
  0
ENDTAB
  0
TABLE
  2
DIMSTYLE
 70
     1
  0
DIMSTYLE
  2
STANDARD
 70
     0
  3

  4

  5

  6

  7

 40
1.0
 41
0.18
 42
0.0625
 43
0.38
 44
0.18
 45
0.0
 46
0.0
 47
0.0
 48
0.0
140
0.18
141
0.09
142
0.0
143
25.399999999999999
144
1.0
145
0.0
146
1.0
147
0.09
 71
     0
 72
     0
 73
     1
 74
     1
 75
     0
 76
     0
 77
     0
 78
     0
170
     0
171
     2
172
     0
173
     0
174
     0
175
     0
176
     0
177
     0
178
     0
  0
ENDTAB
  0
ENDSEC
  0
SECTION
  2
BLOCKS
  0
BLOCK
  8
0
  2
$MODEL_SPACE
 70
     0
 10
0.0
 20
0.0
 30
0.0
  3
$MODEL_SPACE
  1

  0
ENDBLK
  5
19F
  8
0
  0
BLOCK
 67
     1
  8
0
  2
$PAPER_SPACE
 70
     0
 10
0.0
 20
0.0
 30
0.0
  3
$PAPER_SPACE
  1

  0
ENDBLK
  5
19D
 67
     1
  8
0
  0
ENDSEC
  0
SECTION
  2
ENTITIES
  0
ARC
  5
267
  8
0
 10
159.26101814977829
 20
61.554298958869587
 30
0.1497950834895754
 40
3.0
 50
0.0
 51
36.927335569270767
  0
ARC
  5
268
  8
0
 10
153.66511357656009
 20
57.348598638063997
 30
0.1497950834895754
 40
10.000147368519279
 50
36.927335569270767
 51
74.954464238648384
  0
ARC
  5
269
  8
0
 10
145.26101814977821
 20
61.554298958869587
 30
0.1497950834895754
 40
3.0
 50
143.07266443072919
 51
180.0
  0
ARC
  5
26A
  8
0
 10
150.8569227229965
 20
57.348598638063997
 30
0.1497950834895754
 40
10.000147368519279
 50
105.0455357613516
 51
143.07266443072919
  0
LINE
  5
26B
  8
0
 10
142.26101814977821
 20
42.457567351273831
 30
0.1497950834895754
 11
142.26101814977821
 21
61.554298958869587
 31
0.1497950834895754
  0
ARC
  5
26C
  8
0
 10
145.26101814977821
 20
42.457567351273831
 30
-4.0154793883019551
 40
3.0
 50
180.0
 51
270.0
  0
ARC
  5
26D
  8
0
 10
159.26101814977841
 20
42.457567351273831
 30
-4.0154793883019551
 40
3.0
 50
270.0
 51
0.0
  0
LINE
  5
26E
  8
0
 10
162.26101814977829
 20
42.457567351273831
 30
0.1497950834895754
 11
162.26101814977829
 21
61.554298958869587
 31
0.1497950834895754
  0
LINE
  5
26F
  8
1
 10
152.26101814977821
 20
22.45872309449646
 30
0.1497950834895754
 11
152.26101814977829
 21
72.958723094496463
 31
0.1497950834895754
  0
ARC
  5
270
  8
0
 10
95.724441566353164
 20
121.0847705542169
 30
-0.0000020552084693
 40
2.0
 50
270.0
 51
338.08521701718553
  0
ARC
  5
271
  8
0
 10
75.839343909389981
 20
129.0844888782278
 30
-0.0000020552084693
 40
23.43391243078322
 50
338.08521701718553
 51
21.916406202132158
  0
LINE
  5
272
  8
0
 10
95.724214922180536
 20
139.0847705542169
 30
-0.0000020552084693
 11
90.781127544213575
 21
139.0847705542169
 31
-0.0000020552084693
  0
ARC
  5
273
  8
0
 10
95.724214922180465
 20
137.0847705542169
 30
-0.0000020552084693
 40
2.0
 50
21.916406202132158
 51
90.0
  0
LINE
  5
274
  8
0
 10
82.781124382121945
 20
127.08477687840509
 30
-0.0000020552084693
 11
82.781127544216076
 21
131.08477687840531
 31
-0.0000020552084693
  0
ARC
  5
275
  8
0
 10
90.781127544213575
 20
131.0847705542169
 30
-0.0000020552084693
 40
8.0
 50
90.0
 51
179.99995470634141
  0
CIRCLE
  5
276
  8
2
 10
91.273256338613407
 20
129.0847705542169
 30
-0.0000020552084693
 40
3.149999999999999
  0
CIRCLE
  5
277
  8
2
 10
91.273256338613407
 20
129.0847705542169
 30
-0.0000020552084693
 40
5.25
  0
LINE
  5
278
  8
1
 10
91.273256338613407
 20
118.8347705542169
 30
-0.0000020552084693
 11
91.273256338613407
 21
139.3347705542169
 31
-0.0000020552084693
  0
LINE
  5
279
  8
0
 10
95.724441566353164
 20
119.0847705542169
 30
-0.0000020552084693
 11
90.781124382119586
 21
119.0847705542166
 31
-0.0000020552084693
  0
ARC
  5
27A
  8
0
 10
90.781124382119444
 20
127.0847705542166
 30
-0.0000020552084693
 40
8.0
 50
179.99995470634141
 51
270.0
  0
ARC
  5
27B
  8
0
 10
46.822071110873708
 20
121.0847705542169
 30
-0.0000020552084693
 40
2.0
 50
201.9147829828145
 51
270.0
  0
ARC
  5
27C
  8
0
 10
51.765388295107407
 20
127.0847705542166
 30
-0.0000020552084693
 40
8.0
 50
270.0
 51
0.000045293658578
  0
LINE
  5
27D
  8
0
 10
46.822071110873708
 20
119.0847705542169
 30
-0.0000020552084693
 11
51.7653882951073
 21
119.0847705542166
 31
-0.0000020552084693
  0
ARC
  5
27E
  8
0
 10
51.765385133013297
 20
131.0847705542169
 30
-0.0000020552084693
 40
8.0
 50
0.000045293658578
 51
90.0
  0
ARC
  5
27F
  8
0
 10
46.822297755046399
 20
137.0847705542169
 30
-0.0000020552084693
 40
2.0
 50
90.0
 51
158.08359379786779
  0
LINE
  5
280
  8
0
 10
46.82229775504635
 20
139.0847705542169
 30
-0.0000020552084693
 11
51.765385133013297
 21
139.0847705542169
 31
-0.0000020552084693
  0
ARC
  5
281
  8
0
 10
-152.26101814577831
 20
49.563857996496381
 30
-0.1497950834895221
 40
17.894865098
210
0.0
220
0.0
230
-1.0
 50
77.083676840816423
 51
102.9163233381516
  0
LINE
  5
282
  8
0
 10
43.453798478394503
 20
39.584770555914702
 30
-0.0000025775650373
 11
46.13978424063145
 21
39.584770555478599
 31
-0.0000025775650373
  0
ARC
  5
283
  8
0
 10
42.374127444172757
 20
43.745500895171062
 30
-0.0000020552084693
 40
5.6107683629893081
 50
312.13539000997548
 51
342.78178100439322
  0
LINE
  5
284
  8
0
 10
47.733445206513458
 20
42.084647275678662
 30
-0.0000020552084693
 11
50.359019911276512
 21
56.975021364768743
 31
-0.0000020552084693
  0
ARC
  5
285
  8
0
 10
53.31344317031261
 20
56.454076831765398
 30
-0.0000020552084693
 40
3.0
 50
118.79728166372939
 51
169.99999999994199
  0
LINE
  5
286
  8
0
 10
59.773453239169037
 20
66.977039560346157
 30
-0.0000020552084693
 11
59.770169423013392
 21
65.045416291078482
 31
-0.0000020552084693
  0
ARC
  5
287
  8
0
 10
35.230822283571911
 20
89.349938946658995
 30
-0.0000020552084693
 40
34.53823280890694
 50
298.79728166372951
 51
315.27545971514678
  0
ARC
  5
288
  8
0
 10
89.233069506914305
 20
56.454076831765398
 30
-0.0000020552084693
 40
3.0
 50
10.000000000058041
 51
61.202718336270507
  0
ARC
  5
289
  8
0
 10
107.315690393655
 20
89.349938946658995
 30
-0.0000020552084693
 40
34.53823280890694
 50
224.72454028485319
 51
241.20271833627049
  0
ARC
  5
28A
  8
0
 10
66.70716876783689
 20
129.0844888782278
 30
-0.0000020552084693
 40
23.43391243078322
 50
158.08359379786779
 51
201.9147829828145
  0
ARC
  5
28B
  8
0
 10
85.966609265460633
 20
55.887990063997449
 30
-0.000003082812704
 40
10.000000000000011
 50
9.9999999969095725
 51
73.048422783510176
  0
ARC
  5
28C
  8
0
 10
56.579903411766281
 20
55.887990063997449
 30
-0.000003082812704
 40
10.000000000000011
 50
106.9515772164898
 51
170.00000000309041
  0
ARC
  5
28D
  8
0
 10
71.273768520215754
 20
7.8441705554776027
 30
-0.000003082812704
 40
60.240600000001137
 50
72.986119627201333
 51
107.0148992559004
  0
LINE
  5
28E
  8
0
 10
95.814686795676266
 20
57.624471840136493
 30
-0.000003082812704
 11
101.27325633861351
 21
27.584770555467909
 31
-0.0000020552084693
  0
ARC
  5
28F
  8
0
 10
100.1723852330542
 20
43.745500895171062
 30
-0.0000020552084693
 40
5.6107683629893081
 50
197.2182189956068
 51
227.8646099900246
  0
LINE
  5
290
  8
2
 10
86.023256338613351
 20
39.584770555478599
 30
-0.0000025775650373
 11
96.523256338613365
 21
39.584770555478599
 31
-0.0000025775650373
  0
LINE
  5
291
  8
2
 10
86.023256338613351
 20
39.584770555478599
 30
-0.0000025775650373
 11
86.023256338613351
 21
33.084770555478599
 31
-0.0000025775650373
  0
LINE
  5
292
  8
1
 10
91.273256338613578
 20
22.584770555478599
 30
-0.0000020552084693
 11
91.273256338613578
 21
44.584770555478592
 31
-0.0000020552084693
  0
LINE
  5
293
  8
2
 10
88.123256242613365
 20
33.084770555478599
 30
-0.0000020552084693
 11
88.123256242613365
 21
27.58477145147868
 31
-0.0000020552084693
  0
LINE
  5
294
  8
2
 10
86.023256341613447
 20
33.084770555478599
 30
-0.0000025775650373
 11
96.523256338613365
 21
33.084770555478599
 31
-0.0000025775650373
  0
LINE
  5
295
  8
2
 10
96.523256338613365
 20
33.084770555478599
 30
-0.0000025775650373
 11
96.523256338613464
 21
39.584770555478599
 31
-0.0000025775650373
  0
LINE
  5
296
  8
2
 10
94.423256433613346
 20
33.084770555478599
 30
-0.0000020552084693
 11
94.423256433613346
 21
27.58477145147868
 31
-0.0000020552084693
  0
ARC
  5
297
  8
0
 10
64.609650319908724
 20
140.24533667521629
 30
-0.0000020552084693
 40
0.746767
 50
302.16374802039678
 51
39.836315323295437
  0
ARC
  5
298
  8
0
 10
65.567014418008739
 20
141.04401178811599
 30
-0.0000020552084693
 40
0.5
 50
104.16363333880039
 51
219.83639055759431
  0
ARC
  5
299
  8
0
 10
65.273354073008704
 20
139.18991008831631
 30
-0.0000020552084693
 40
0.5
 50
122.163592265297
 51
180.01161348790291
  0
ARC
  5
29A
  8
0
 10
65.273354073008704
 20
139.18970739471609
 30
-0.0000020552084693
 40
0.5
 50
179.98838651209709
 51
237.83640773470299
  0
ARC
  5
29B
  8
0
 10
65.567014418008739
 20
137.33560569491621
 30
-0.0000020552084693
 40
0.5
 50
140.16360944240569
 51
255.83636666119949
  0
ARC
  5
29C
  8
0
 10
64.609650319908724
 20
138.13428080781611
 30
-0.0000020552084693
 40
0.746767
 50
320.16368467670458
 51
57.83625197960319
  0
ARC
  5
29D
  8
0
 10
66.502666900908693
 20
134.41902177951599
 30
-0.0000020552084693
 40
0.746767
 50
356.16365182929871
 51
93.836262802599464
  0
ARC
  5
29E
  8
0
 10
65.261939432408781
 20
142.2528778706162
 30
-0.0000020552084693
 40
0.746767
 50
284.16371719960028
 51
21.836403636401041
  0
ARC
  5
29F
  8
0
 10
66.419250537708649
 20
142.71662236671611
 30
-0.0000020552084693
 40
0.5
 50
86.163631855700032
 51
201.8363946641949
  0
ARC
  5
2A0
  8
0
 10
66.419250537708649
 20
135.6629951163161
 30
-0.0000020552084693
 40
0.5
 50
158.1636053358051
 51
273.83636814429991
  0
ARC
  5
2A1
  8
0
 10
65.261939432408781
 20
136.126739612416
 30
-0.0000020552084693
 40
0.746767
 50
338.16359636359903
 51
75.836282800399616
  0
ARC
  5
2A2
  8
0
 10
68.210382885208674
 20
133.17829176651611
 30
-0.0000020552084693
 40
0.746767
 50
14.163631832702739
 51
111.83631826870089
  0
ARC
  5
2A3
  8
0
 10
67.746640113408716
 20
134.335603562816
 30
-0.0000020552084693
 40
0.5
 50
176.16354648810321
 51
291.83630929679731
  0
ARC
  5
2A4
  8
0
 10
70.217923108708646
 20
132.52599966291609
 30
-0.0000020552084693
 40
0.746767
 50
32.1636626528961
 51
129.83622995580029
  0
ARC
  5
2A5
  8
0
 10
69.419249422308667
 20
133.4833649510162
 30
-0.0000020552084693
 40
0.5
 50
194.16354797039901
 51
309.83630519009569
  0
ARC
  5
2A6
  8
0
 10
68.210382885208674
 20
145.20132571651601
 30
-0.0000020552084693
 40
0.746767
 50
248.16368173129899
 51
345.83636816729728
  0
ARC
  5
2A7
  8
0
 10
69.419249422308667
 20
144.89625253201621
 30
-0.0000020552084693
 40
0.5
 50
50.16369480990425
 51
165.83645202960091
  0
ARC
  5
2A8
  8
0
 10
70.217923108708646
 20
145.85361782011611
 30
-0.0000020552084693
 40
0.746767
 50
230.16377004419971
 51
327.83633734710389
  0
ARC
  5
2A9
  8
0
 10
67.746640113408716
 20
144.0440139202162
 30
-0.0000020552084693
 40
0.5
 50
68.163690703202761
 51
183.83645351189679
  0
ARC
  5
2AA
  8
0
 10
66.502666900908693
 20
143.96059570351619
 30
-0.0000020552084693
 40
0.746767
 50
266.16373719740051
 51
3.8363481707012408
  0
ARC
  5
2AB
  8
0
 10
71.272179861141183
 20
167.83648783113699
 30
-0.0000020552084693
 40
57.751717286616952
 50
261.5374385626626
 51
278.46472091300569
  0
ARC
  5
2AC
  8
0
 10
71.272179861141183
 20
90.333053277296813
 30
-0.0000020552084693
 40
57.751717286616952
 50
81.535279086994294
 51
98.462561437337385
  0
LINE
  5
2AD
  8
0
 10
62.773256338613457
 20
110.71355768472741
 30
-0.0000020552084693
 11
62.773256338613457
 21
147.4559834237061
 31
-0.0000020552084693
  0
LINE
  5
2AE
  8
0
 10
79.773256338613393
 20
110.71387804939189
 30
-0.0000020552084693
 11
79.773256338613464
 21
147.4556630590416
 31
-0.0000020552084693
  0
LINE
  5
2AF
  8
1
 10
51.273256338613457
 20
118.8347705542169
 30
-0.0000020552084693
 11
51.273256338613457
 21
139.3347705542169
 31
-0.0000020552084693
  0
CIRCLE
  5
2B0
  8
2
 10
51.273256338613457
 20
129.0847705542169
 30
-0.0000020552084693
 40
5.25
  0
CIRCLE
  5
2B1
  8
2
 10
51.273256338613457
 20
129.0847705542169
 30
-0.0000020552084693
 40
3.149999999999999
  0
ARC
  5
2B2
  8
0
 10
89.346986210132158
 20
121.33376859656209
 30
-0.0000020552084693
 40
9.8607455939692024
 50
290.89588557311509
 51
330.88111140052962
  0
ARC
  5
2B3
  8
0
 10
75.839343909390038
 20
129.0844888782278
 30
-0.0000020552084693
 40
25.43391243078322
 50
330.43390312999799
 51
29.56601140139043
  0
ARC
  5
2B4
  8
0
 10
89.346986210132158
 20
136.83577251187171
 30
-0.0000020552084693
 40
9.8607455939692024
 50
29.118888599470409
 51
69.104114426884834
  0
ARC
  5
2B5
  8
0
 10
71.272179861141183
 20
167.83648783113699
 30
-0.0000020552084693
 40
59.751717286616952
 50
248.81850628422319
 51
291.18323462524461
  0
ARC
  5
2B6
  8
0
 10
53.199526467094749
 20
121.33376859656209
 30
-0.0000020552084693
 40
9.8607455939692024
 50
209.11888859947041
 51
249.10411442688479
  0
ARC
  5
2B7
  8
0
 10
53.199526467094749
 20
136.83577251187171
 30
-0.0000020552084693
 40
9.8607455939692024
 50
110.89588557311509
 51
150.88111140052959
  0
ARC
  5
2B8
  8
0
 10
66.70716876783689
 20
129.0844888782278
 30
-0.0000020552084693
 40
25.43391243078322
 50
150.43398859860949
 51
209.5660968700019
  0
ARC
  5
2B9
  8
0
 10
71.272179861141183
 20
90.333053277296813
 30
-0.0000020552084693
 40
59.751717286616952
 50
68.816765374755377
 51
111.1814937157767
  0
LINE
  5
2BA
  8
1
 10
71.273256338613464
 20
103.0847705534681
 30
-0.0000020552084693
 11
71.273256338613464
 21
155.08477055496559
 31
-0.0000020552084693
  0
ARC
  5
2BB
  8
0
 10
76.043845776318221
 20
143.96059570351619
 30
-0.0000020552084693
 40
0.746767
 50
176.1636518292988
 51
273.83626280259949
  0
ARC
  5
2BC
  8
0
 10
74.799872563818212
 20
144.0440139202162
 30
-0.0000020552084693
 40
0.5
 50
356.16354648810318
 51
111.8363092967972
  0
ARC
  5
2BD
  8
0
 10
71.273364964718212
 20
145.1899150988163
 30
-0.0000020552084693
 40
0.5
 50
90.011609958478445
 51
147.83641991279819
  0
ARC
  5
2BE
  8
0
 10
71.273162332718115
 20
145.1899150988163
 30
-0.0000020552084693
 40
0.5
 50
32.163580087201808
 51
89.988390041521541
  0
ARC
  5
2BF
  8
0
 10
72.328589568518282
 20
145.85361782011611
 30
-0.0000020552084693
 40
0.746767
 50
212.16366265289611
 51
309.83622995580032
  0
ARC
  5
2C0
  8
0
 10
73.127263254918262
 20
144.89625253201621
 30
-0.0000020552084693
 40
0.5
 50
14.163547970399071
 51
129.83630519009569
  0
ARC
  5
2C1
  8
0
 10
74.336129792018255
 20
145.20132571651601
 30
-0.0000020552084693
 40
0.746767
 50
194.16363183270269
 51
291.83631826870101
  0
LINE
  5
2C2
  8
1
 10
36.273256338357157
 20
129.0847705542169
 30
-0.0000020552084693
 11
106.2732563388697
 21
129.0847705542169
 31
-0.0000020552084693
  0
LINE
  5
2C3
  8
0
 10
59.765388295104913
 20
127.08477687840509
 30
-0.0000020552084693
 11
59.765385133010788
 21
131.08477687840531
 31
-0.0000020552084693
  0
ARC
  5
2C4
  8
0
 10
73.127263254918262
 20
133.4833649510162
 30
-0.0000020552084693
 40
0.5
 50
230.1636948099042
 51
345.83645202960088
  0
ARC
  5
2C5
  8
0
 10
72.328589568518282
 20
132.52599966291609
 30
-0.0000020552084693
 40
0.746767
 50
50.163770044199723
 51
147.83633734710389
  0
ARC
  5
2C6
  8
0
 10
74.799872563818212
 20
134.335603562816
 30
-0.0000020552084693
 40
0.5
 50
248.1636907032028
 51
3.8364535118968068
  0
ARC
  5
2C7
  8
0
 10
74.336129792018255
 20
133.17829176651611
 30
-0.0000020552084693
 40
0.746767
 50
68.163681731299022
 51
165.83636816729719
  0
ARC
  5
2C8
  8
0
 10
77.284573244818148
 20
136.126739612416
 30
-0.0000020552084693
 40
0.746767
 50
104.1637171996004
 51
201.836403636401
  0
ARC
  5
2C9
  8
0
 10
76.12726213951828
 20
135.6629951163161
 30
-0.0000020552084693
 40
0.5
 50
266.16363185569998
 51
21.836394664194898
  0
ARC
  5
2CA
  8
0
 10
76.12726213951828
 20
142.71662236671611
 30
-0.0000020552084693
 40
0.5
 50
338.16360533580507
 51
93.836368144299954
  0
ARC
  5
2CB
  8
0
 10
77.284573244818148
 20
142.2528778706162
 30
-0.0000020552084693
 40
0.746767
 50
158.16359636359891
 51
255.8362828003996
  0
ARC
  5
2CC
  8
0
 10
76.043845776318221
 20
134.41902177951599
 30
-0.0000020552084693
 40
0.746767
 50
86.163737197400536
 51
183.8363481707012
  0
ARC
  5
2CD
  8
0
 10
77.936862357318205
 20
138.13428080781611
 30
-0.0000020552084693
 40
0.746767
 50
122.1637480203968
 51
219.83631532329539
  0
ARC
  5
2CE
  8
0
 10
76.97949825921819
 20
137.33560569491621
 30
-0.0000020552084693
 40
0.5
 50
284.16363333880042
 51
39.836390557594299
  0
ARC
  5
2CF
  8
0
 10
77.273158604218224
 20
139.18970739471609
 30
-0.0000020552084693
 40
0.5
 50
302.16359226529698
 51
0.0116134879029146
  0
ARC
  5
2D0
  8
0
 10
77.273158604218224
 20
139.18991008831631
 30
-0.0000020552084693
 40
0.5
 50
359.98838651209712
 51
57.836407734702952
  0
ARC
  5
2D1
  8
0
 10
76.97949825921819
 20
141.04401178811599
 30
-0.0000020552084693
 40
0.5
 50
320.1636094424058
 51
75.836366661199563
  0
ARC
  5
2D2
  8
0
 10
77.936862357318205
 20
140.24533667521629
 30
-0.0000020552084693
 40
0.746767
 50
140.16368467670449
 51
237.83625197960319
  0
ARC
  5
2D3
  8
0
 10
71.273162332718115
 20
133.1897023842161
 30
-0.0000020552084693
 40
0.5
 50
270.01160995847852
 51
327.83641991279819
  0
ARC
  5
2D4
  8
0
 10
71.273364964718212
 20
133.1897023842161
 30
-0.0000020552084693
 40
0.5
 50
212.16358008720181
 51
269.98839004152148
  0
LINE
  5
2D5
  8
2
 10
48.123256243613703
 20
33.084770555478599
 30
-0.0000020552084693
 11
48.123256243613703
 21
27.58477145147868
 31
-0.0000020552084693
  0
LINE
  5
2D6
  8
2
 10
46.023256338613692
 20
33.084770555478599
 30
-0.0000025775650373
 11
46.023256338613571
 21
39.584770555478599
 31
-0.0000025775650373
  0
LINE
  5
2D7
  8
0
 10
46.731825881550662
 20
57.624471840136493
 30
-0.000003082812704
 11
41.273256338611588
 21
27.584770555467909
 31
0.0
  0
LINE
  5
2F4
  8
2
 10
56.523256335613603
 20
33.084770555478599
 30
-0.0000025775650373
 11
46.023256338613692
 21
33.084770555478599
 31
-0.0000025775650373
  0
LINE
  5
2F5
  8
2
 10
54.423256434613677
 20
33.084770555478599
 30
-0.0000020552084693
 11
54.423256434613677
 21
27.58477145147868
 31
-0.0000020552084693
  0
LINE
  5
2F6
  8
1
 10
51.273256338613457
 20
22.584770555478599
 30
-0.0000020552084693
 11
51.273256338613457
 21
44.584770555478592
 31
-0.0000020552084693
  0
LINE
  5
2F7
  8
2
 10
56.523256338613692
 20
39.584770555478599
 30
-0.0000025775650373
 11
56.523256338613692
 21
33.084770555478599
 31
-0.0000025775650373
  0
LINE
  5
2F8
  8
2
 10
56.523256338613692
 20
39.584770555478599
 30
-0.0000025775650373
 11
46.023256338613692
 21
39.584770555478599
 31
-0.0000025775650373
  0
LINE
  5
2F9
  8
0
 10
62.773257157781472
 20
46.558381983865267
 30
-18.22055105751431
 11
62.773257157781472
 21
67.479635460628742
 31
-18.22055105751431
  0
LINE
  5
2FA
  8
0
 10
62.773257157781472
 20
46.558381983865267
 30
-18.22055105751431
 11
71.273256338613351
 21
46.558381983865488
 31
-0.0000020552084409
  0
ARC
  5
2FB
  8
0
 10
171.28212126777819
 20
46.281702180883023
 30
-18.401306972816261
 40
0.150632584
 50
5.2101873999961841
 51
89.897187667000338
  0
LINE
  5
2FC
  8
0
 10
171.28239156877819
 20
46.432334522883131
 30
-22.236030445816269
 11
170.93583988326819
 21
46.432334522883131
 31
-22.236030445816269
  0
LINE
  5
2FD
  8
0
 10
173.26101814977821
 20
27.45872309449647
 30
0.1497950834895754
 11
171.43213166977819
 21
46.295381134883201
 31
-22.236030445816269
  0
LINE
  5
2FE
  8
0
 10
159.26101814977841
 20
39.457567351273838
 30
-4.0154819658669911
 11
145.26101814977821
 21
39.45756735127361
 31
-4.0154819658669911
  0
LINE
  5
2FF
  8
0
 10
170.93583990277821
 20
46.432334299883223
 30
-26.901306972816268
 11
170.58588521077829
 21
51.167076336496621
 31
0.1497950834895221
  0
LINE
  5
300
  8
0
 10
82.773059438057885
 20
66.977039560346157
 30
-0.0000020552084693
 11
82.776343254213543
 21
65.045416291078482
 31
-0.0000020552084693
  0
ARC
  5
31D
  8
0
 10
133.2399150127782
 20
46.281702194883337
 30
-18.401306972816261
 40
0.150632571
 50
90.102810511999024
 51
174.7898137670002
  0
LINE
  5
31E
  8
0
 10
133.5861964093485
 20
46.432334522883131
 30
-22.236030445816269
 11
133.23964469977821
 21
46.432334522883131
 31
-22.236030445816269
  0
LINE
  5
31F
  8
0
 10
131.26101816077821
 20
27.45872309449647
 30
0.1497950834895754
 11
173.2610181497781
 21
27.45872309449647
 31
0.1497950834895754
  0
LINE
  5
320
  8
0
 10
133.08990461877821
 20
46.295381089883222
 30
-22.236030445816269
 11
131.26101814977821
 21
27.458723049496481
 31
0.1497950834895754
  0
LINE
  5
321
  8
0
 10
99.092714198832425
 20
39.584770555914702
 30
-0.0000025775650373
 11
96.406728436595472
 21
39.584770555478599
 31
-0.0000025775650373
  0
LINE
  5
322
  8
0
 10
79.773255519445456
 20
46.558381983865267
 30
-18.22055105751431
 11
71.273256338613564
 21
46.558381983865488
 31
-0.0000020552084409
  0
LINE
  5
323
  8
0
 10
101.2732563386116
 20
27.584770555478599
 30
-0.0000061655552332
 11
41.273256338613521
 21
27.584770555478599
 31
-0.0000020552084693
  0
LINE
  5
324
  8
0
 10
133.93615106377831
 20
51.167076126496568
 30
0.1497950834895221
 11
133.5861963727782
 21
46.432334104883232
 31
-26.901306972816268
  0
LINE
  5
325
  8
0
 10
94.813067470713463
 20
42.084647275678662
 30
-0.0000020552084693
 11
92.187492765950424
 21
56.975021364768743
 31
-0.0000020552084693
  0
LINE
  5
326
  8
1
 10
71.273256338613464
 20
73.084770553468161
 30
-0.0000020552084693
 11
71.273256338613521
 21
22.584770555478599
 31
-0.0000020552084693
  0
LINE
  5
327
  8
0
 10
79.773255519445456
 20
46.558381983865267
 30
-18.22055105751431
 11
79.773255519445456
 21
67.479635460628742
 31
-18.22055105751431
  0
ARC
  5
328
  8
0
 10
-152.26101814577831
 20
49.563857996496381
 30
-0.1497950834895221
 40
18.394865098
210
0.0
220
0.0
230
-1.0
 50
5.0000033260054986
 51
174.9999966739945
  0
TEXT
  5
3DC
  8
0
 62
     3
 10
0.0
 20
0.0
 30
0.0
 40
10.0
  1
CC60BS-YE
  7
STANDARD1
  0
ENDSEC
  0
EOF
