  0
SECTION
  2
HEADER
  9
$ACADVER
  1
AC1009
  9
$INSBASE
 10
0.0
 20
0.0
 30
0.0
  9
$EXTMIN
 10
0.0
 20
-2.960436562073669
 30
0.0
  9
$EXTMAX
 10
165.70393100000001
 20
102.638158
 30
0.0
  9
$LIMMIN
 10
0.0
 20
0.0
  9
$LIMMAX
 10
187.5
 20
135.0
  9
$ORTHOMODE
 70
     1
  9
$REGENMODE
 70
     1
  9
$FILLMODE
 70
     1
  9
$QTEXTMODE
 70
     0
  9
$MIRRTEXT
 70
     0
  9
$DRAGMODE
 70
     2
  9
$LTSCALE
 40
5.0
  9
$OSMODE
 70
  3071
  9
$ATTMODE
 70
     1
  9
$TEXTSIZE
 40
4.0
  9
$TRACEWID
 40
0.05
  9
$TEXTSTYLE
  7
STANDARD
  9
$CLAYER
  8
0
  9
$CELTYPE
  6
BYLAYER
  9
$CECOLOR
 62
   256
  9
$DIMSCALE
 40
0.5
  9
$DIMASZ
 40
3.0
  9
$DIMEXO
 40
2.0
  9
$DIMDLI
 40
0.38
  9
$DIMRND
 40
0.0
  9
$DIMDLE
 40
0.0
  9
$DIMEXE
 40
2.0
  9
$DIMTP
 40
0.0
  9
$DIMTM
 40
0.0
  9
$DIMTXT
 40
3.2000000000000002
  9
$DIMCEN
 40
0.0
  9
$DIMTSZ
 40
0.0
  9
$DIMTOL
 70
     0
  9
$DIMLIM
 70
     0
  9
$DIMTIH
 70
     0
  9
$DIMTOH
 70
     0
  9
$DIMSE1
 70
     0
  9
$DIMSE2
 70
     0
  9
$DIMTAD
 70
     1
  9
$DIMZIN
 70
     0
  9
$DIMBLK
  1

  9
$DIMASO
 70
     0
  9
$DIMSHO
 70
     0
  9
$DIMPOST
  1

  9
$DIMAPOST
  1

  9
$DIMALT
 70
     0
  9
$DIMALTD
 70
     2
  9
$DIMALTF
 40
25.399999999999999
  9
$DIMLFAC
 40
1.0
  9
$DIMTOFL
 70
     0
  9
$DIMTVP
 40
1.6000000000000001
  9
$DIMTIX
 70
     1
  9
$DIMSOXD
 70
     0
  9
$DIMSAH
 70
     0
  9
$DIMBLK1
  1

  9
$DIMBLK2
  1

  9
$DIMSTYLE
  2
STANDARD
  9
$DIMCLRD
 70
     0
  9
$DIMCLRE
 70
     0
  9
$DIMCLRT
 70
     0
  9
$DIMTFAC
 40
1.0
  9
$DIMGAP
 40
0.09
  9
$LUNITS
 70
     2
  9
$LUPREC
 70
     1
  9
$SKETCHINC
 40
0.1
  9
$FILLETRAD
 40
0.0
  9
$AUNITS
 70
     0
  9
$AUPREC
 70
     0
  9
$MENU
  1
E:\r13\win\SUPPORT\ACAD
  9
$ELEVATION
 40
0.0
  9
$PELEVATION
 40
0.0
  9
$THICKNESS
 40
0.0
  9
$LIMCHECK
 70
     0
  9
$BLIPMODE
 70
     0
  9
$CHAMFERA
 40
0.0
  9
$CHAMFERB
 40
0.0
  9
$SKPOLY
 70
     0
  9
$TDCREATE
 40
2449839.7789004641
  9
$TDUPDATE
 40
2456598.5799214579
  9
$TDINDWG
 40
0.0000914005
  9
$TDUSRTIMER
 40
0.0000914005
  9
$USRTIMER
 70
     1
  9
$ANGBASE
 50
0.0
  9
$ANGDIR
 70
     0
  9
$PDMODE
 70
     0
  9
$PDSIZE
 40
0.0
  9
$PLINEWID
 40
0.0
  9
$COORDS
 70
     1
  9
$SPLFRAME
 70
     0
  9
$SPLINETYPE
 70
     6
  9
$SPLINESEGS
 70
     8
  9
$ATTDIA
 70
     0
  9
$ATTREQ
 70
     1
  9
$HANDLING
 70
     1
  9
$HANDSEED
  5
259
  9
$SURFTAB1
 70
     6
  9
$SURFTAB2
 70
     6
  9
$SURFTYPE
 70
     6
  9
$SURFU
 70
     6
  9
$SURFV
 70
     6
  9
$UCSNAME
  2

  9
$UCSORG
 10
0.0
 20
0.0
 30
0.0
  9
$UCSXDIR
 10
1.0
 20
0.0
 30
0.0
  9
$UCSYDIR
 10
0.0
 20
1.0
 30
0.0
  9
$PUCSNAME
  2

  9
$PUCSORG
 10
0.0
 20
0.0
 30
0.0
  9
$PUCSXDIR
 10
1.0
 20
0.0
 30
0.0
  9
$PUCSYDIR
 10
0.0
 20
1.0
 30
0.0
  9
$USERI1
 70
     0
  9
$USERI2
 70
     1
  9
$USERI3
 70
     0
  9
$USERI4
 70
     0
  9
$USERI5
 70
     0
  9
$USERR1
 40
0.0
  9
$USERR2
 40
0.0
  9
$USERR3
 40
0.0
  9
$USERR4
 40
0.0
  9
$USERR5
 40
0.0
  9
$WORLDVIEW
 70
     1
  9
$SHADEDGE
 70
     3
  9
$SHADEDIF
 70
    70
  9
$TILEMODE
 70
     1
  9
$MAXACTVP
 70
    16
  9
$PLIMCHECK
 70
     0
  9
$PEXTMIN
 10
1.0000000000000000E+020
 20
1.0000000000000000E+020
 30
1.0000000000000000E+020
  9
$PEXTMAX
 10
-1.0000000000000000E+020
 20
-1.0000000000000000E+020
 30
-1.0000000000000000E+020
  9
$PLIMMIN
 10
0.0
 20
0.0
  9
$PLIMMAX
 10
12.0
 20
9.0
  9
$UNITMODE
 70
     0
  9
$VISRETAIN
 70
     0
  9
$PLINEGEN
 70
     0
  9
$PSLTSCALE
 70
     0
  0
ENDSEC
  0
SECTION
  2
TABLES
  0
TABLE
  2
VPORT
 70
     1
  0
VPORT
  2
*ACTIVE
 70
     0
 10
0.0
 20
0.0
 11
1.0
 21
1.0
 12
97.570150770051072
 22
66.014785922033241
 13
0.0
 23
0.0
 14
5.0
 24
5.0
 15
5.0
 25
5.0
 16
0.0
 26
0.0
 36
1.0
 17
0.0
 27
0.0
 37
0.0
 40
139.20783109903601
 41
1.831871345029239
 42
50.0
 43
0.0
 44
0.0
 50
0.0
 51
0.0
 71
     0
 72
   100
 73
     1
 74
     0
 75
     0
 76
     0
 77
     0
 78
     2
  0
ENDTAB
  0
TABLE
  2
LTYPE
 70
     4
  0
LTYPE
  2
CONTINUOUS
 70
     0
  3
Solid Line
 72
    65
 73
     0
 40
0.0
  0
LTYPE
  2
CENTER
 70
     0
  3
____ _ ____ _ ____ _ ____ _ ____ _ ____ _ ____
 72
    65
 73
     4
 40
2.0
 49
1.25
 49
-0.25
 49
0.25
 49
-0.25
  0
LTYPE
  2
HIDDEN
 70
     0
  3
_ _ _ _ _ _ _ _ _ _ _ _ _ _ _ _ _ _ _ _ _ _ _
 72
    65
 73
     2
 40
0.375
 49
0.25
 49
-0.125
  0
LTYPE
  2
PHANTOM2
 70
     0
  3
___ _ _ ___ _ _ ___ _ _ ___ _ _
 72
    65
 73
     6
 40
1.25
 49
0.625
 49
-0.125
 49
0.125
 49
-0.125
 49
0.125
 49
-0.125
  0
ENDTAB
  0
TABLE
  2
LAYER
 70
     4
  0
LAYER
  2
0
 70
     0
 62
     7
  6
CONTINUOUS
  0
LAYER
  2
1
 70
     0
 62
     1
  6
CENTER
  0
LAYER
  2
3
 70
     0
 62
     3
  6
CONTINUOUS
  0
LAYER
  2
2
 70
     0
 62
     2
  6
HIDDEN
  0
ENDTAB
  0
TABLE
  2
STYLE
 70
     2
  0
STYLE
  2
STANDARD
 70
     0
 40
0.0
 41
1.0
 50
0.0
 71
     0
 42
4.0
  3
ROMANS
  4
BIGFONT
  0
STYLE
  2
STANDARD1
 70
     0
 40
0.0
 41
1.0
 50
0.0
 71
     0
 42
3.0
  3
txt
  4

  0
ENDTAB
  0
TABLE
  2
VIEW
 70
     1
  0
VIEW
  2
ALL
 70
     0
 40
175.0
 10
142.98110500000001
 20
87.5
 41
285.96221100000002
 11
0.0
 21
0.0
 31
1.0
 12
0.0
 22
0.0
 32
0.0
 42
0.0
 43
0.0
 44
0.0
 50
0.0
 71
     0
  0
ENDTAB
  0
TABLE
  2
UCS
 70
     0
  0
ENDTAB
  0
TABLE
  2
APPID
 70
     3
  0
APPID
  2
ACAD
 70
     0
  0
APPID
  2
ACAD_MLEADERVER
 70
     0
  0
APPID
  2
ACAD_NAV_VCDISPLAY
 70
     0
  0
ENDTAB
  0
TABLE
  2
DIMSTYLE
 70
     1
  0
DIMSTYLE
  2
STANDARD
 70
     0
  3

  4

  5

  6

  7

 40
1.0
 41
0.18
 42
0.0625
 43
0.38
 44
0.18
 45
0.0
 46
0.0
 47
0.0
 48
0.0
140
0.18
141
0.09
142
0.0
143
25.399999999999999
144
1.0
145
0.0
146
1.0
147
0.09
 71
     0
 72
     0
 73
     1
 74
     1
 75
     0
 76
     0
 77
     0
 78
     0
170
     0
171
     2
172
     0
173
     0
174
     0
175
     0
176
     0
177
     0
178
     0
  0
ENDTAB
  0
ENDSEC
  0
SECTION
  2
BLOCKS
  0
BLOCK
  8
0
  2
$MODEL_SPACE
 70
     0
 10
0.0
 20
0.0
 30
0.0
  3
$MODEL_SPACE
  1

  0
ENDBLK
  5
10D
  8
0
  0
BLOCK
 67
     1
  8
0
  2
$PAPER_SPACE
 70
     0
 10
0.0
 20
0.0
 30
0.0
  3
$PAPER_SPACE
  1

  0
ENDBLK
  5
10B
 67
     1
  8
0
  0
ENDSEC
  0
SECTION
  2
ENTITIES
  0
CIRCLE
  5
37
  8
0
 10
32.083142000000002
 20
57.134847999999991
 30
0.0
 40
2.9792740000000002
  0
LINE
  5
38
  8
1
 10
58.313265999999999
 20
57.134847999999991
 30
0.0
 11
132.313266
 21
57.134847999999991
 31
0.0
  0
LINE
  5
39
  8
0
 10
60.813265999999999
 20
60.114121999999988
 30
0.0
 11
60.813265999999999
 21
54.155574000000001
 31
0.0
  0
LINE
  5
3A
  8
0
 10
64.313265999999999
 20
62.134847999999991
 30
0.0
 11
75.813265999999999
 21
62.134847999999991
 31
0.0
  0
LINE
  5
3B
  8
0
 10
64.313265999999999
 20
52.134847999999991
 30
0.0
 11
75.813265999999999
 21
52.134847999999991
 31
0.0
  0
LINE
  5
3C
  8
0
 10
64.313265999999999
 20
62.134847999999991
 30
0.0
 11
64.313265999999999
 21
60.497881999999997
 31
0.0
  0
LINE
  5
3D
  8
0
 10
75.813265999999999
 20
52.134847999999991
 30
0.0
 11
75.813265999999999
 21
62.134847999999991
 31
0.0
  0
LINE
  5
3E
  8
0
 10
64.313265999999999
 20
62.134847999999991
 30
0.0
 11
60.813265999999999
 21
60.114121999999988
 31
0.0
  0
LINE
  5
3F
  8
0
 10
64.313265999999999
 20
52.134847999999991
 30
0.0
 11
60.813265999999999
 21
54.155574000000001
 31
0.0
  0
CIRCLE
  5
40
  8
0
 10
32.083142000000002
 20
57.134847999999991
 30
0.0
 40
5.0
  0
CIRCLE
  5
41
  8
0
 10
65.313265999999985
 20
57.134847999999991
 30
0.0
 40
1.8999999999999999
  0
LINE
  5
42
  8
1
 10
65.313265999999985
 20
64.034847999999997
 30
0.0
 11
65.313265999999985
 21
50.234848
 31
0.0
  0
LINE
  5
43
  8
0
 10
64.313265999999999
 20
53.771813000000002
 30
0.0
 11
64.313265999999999
 21
52.134847999999991
 31
0.0
  0
LINE
  5
44
  8
1
 10
40.356645
 20
57.134847999999991
 30
0.0
 11
23.809640000000002
 21
57.134847999999991
 31
0.0
  0
LINE
  5
45
  8
1
 10
32.083142000000002
 20
65.408349999999999
 30
0.0
 11
32.083142000000002
 21
48.861345
 31
0.0
  0
LINE
  5
46
  8
1
 10
65.313265999999985
 20
102.638158
 30
0.0
 11
65.313265999999985
 21
88.838157999999979
 31
0.0
  0
LINE
  5
47
  8
1
 10
58.313265999999999
 20
95.738157999999999
 30
0.0
 11
132.313266
 21
95.738157999999999
 31
0.0
  0
LINE
  5
48
  8
0
 10
60.813265999999999
 20
98.717431999999988
 30
0.0
 11
60.813265999999999
 21
92.758883999999995
 31
0.0
  0
LINE
  5
49
  8
0
 10
75.813265999999999
 20
100.738158
 30
0.0
 11
72.06382099999999
 21
100.738158
 31
0.0
  0
LINE
  5
4A
  8
0
 10
71.313265999999999
 20
99.438158000000016
 30
0.0
 11
72.06382099999999
 21
100.738158
 31
0.0
  0
LINE
  5
4B
  8
0
 10
75.813265999999999
 20
90.738157999999999
 30
0.0
 11
72.06382099999999
 21
90.738157999999999
 31
0.0
  0
LINE
  5
4C
  8
0
 10
62.061599999999999
 20
99.438158000000016
 30
0.0
 11
60.813265999999999
 21
98.717431999999988
 31
0.0
  0
LINE
  5
4D
  8
0
 10
62.061599999999999
 20
92.038157999999996
 30
0.0
 11
60.813265999999999
 21
92.758883999999995
 31
0.0
  0
LINE
  5
4E
  8
2
 10
35.283141999999998
 20
55.284847999999997
 30
0.0
 11
35.283141999999998
 21
58.984848
 31
0.0
  0
LINE
  5
4F
  8
2
 10
28.883141999999999
 20
58.984848
 30
0.0
 11
28.883141999999999
 21
55.284847999999997
 31
0.0
  0
LINE
  5
50
  8
2
 10
28.383141999999999
 20
59.484848
 30
0.0
 11
28.883141999999999
 21
58.984848
 31
0.0
  0
LINE
  5
51
  8
2
 10
28.883141999999999
 20
55.284847999999997
 30
0.0
 11
28.383141999999999
 21
54.784847999999997
 31
0.0
  0
LINE
  5
52
  8
2
 10
35.283141999999998
 20
55.284847999999997
 30
0.0
 11
35.783141999999998
 21
54.784847999999997
 31
0.0
  0
LINE
  5
53
  8
2
 10
35.283141999999998
 20
58.984848
 30
0.0
 11
35.783141999999998
 21
59.484848
 31
0.0
  0
LINE
  5
54
  8
2
 10
35.283141999999998
 20
55.284847999999997
 30
0.0
 11
28.883141999999999
 21
55.284847999999997
 31
0.0
  0
LINE
  5
55
  8
2
 10
35.283141999999998
 20
58.984848
 30
0.0
 11
28.883141999999999
 21
58.984848
 31
0.0
  0
LINE
  5
56
  8
0
 10
28.383141999999999
 20
60.497881999999997
 30
0.0
 11
28.383141999999999
 21
53.771813000000002
 31
0.0
  0
LINE
  5
57
  8
0
 10
35.783141999999998
 20
60.497881999999997
 30
0.0
 11
35.783141999999998
 21
53.771813000000002
 31
0.0
  0
LINE
  5
58
  8
0
 10
62.061599999999999
 20
99.438158000000016
 30
0.0
 11
71.313265999999999
 21
99.438158000000016
 31
0.0
  0
LINE
  5
59
  8
0
 10
62.061599999999999
 20
92.038157999999996
 30
0.0
 11
71.313265999999999
 21
92.038157999999996
 31
0.0
  0
LINE
  5
5A
  8
0
 10
64.313265999999999
 20
60.497881999999997
 30
0.0
 11
71.313265999999999
 21
60.497881999999997
 31
0.0
  0
LINE
  5
5B
  8
0
 10
64.313265999999999
 20
53.771813000000002
 30
0.0
 11
71.313265999999999
 21
53.771813000000002
 31
0.0
  0
ARC
  5
5C
  8
0
 10
65.698905999999994
 20
57.134847999999991
 30
0.0
 40
3.637306999999999
 50
112.39268800000001
 51
247.60731200000009
  0
LINE
  5
5D
  8
0
 10
64.313265999999999
 20
92.038157999999996
 30
0.0
 11
64.313265999999999
 21
99.438158000000016
 31
0.0
  0
LINE
  5
5E
  8
2
 10
67.163266000000007
 20
98.938158000000001
 30
0.0
 11
63.463266000000012
 21
98.938158000000001
 31
0.0
  0
LINE
  5
5F
  8
2
 10
63.463266000000012
 20
92.538157999999996
 30
0.0
 11
67.163266000000007
 21
92.538157999999996
 31
0.0
  0
LINE
  5
60
  8
2
 10
62.963265999999997
 20
92.038157999999996
 30
0.0
 11
63.463266000000012
 21
92.538157999999996
 31
0.0
  0
LINE
  5
61
  8
2
 10
67.163266000000007
 20
92.538157999999996
 30
0.0
 11
67.663266000000007
 21
92.038157999999996
 31
0.0
  0
LINE
  5
62
  8
2
 10
67.163266000000007
 20
98.938158000000001
 30
0.0
 11
67.663266000000007
 21
99.438158000000016
 31
0.0
  0
LINE
  5
63
  8
2
 10
63.463266000000012
 20
98.938158000000001
 30
0.0
 11
62.963265999999997
 21
99.438158000000016
 31
0.0
  0
LINE
  5
64
  8
2
 10
67.163266000000007
 20
98.938158000000001
 30
0.0
 11
67.163266000000007
 21
92.538157999999996
 31
0.0
  0
LINE
  5
65
  8
2
 10
63.463266000000012
 20
98.938158000000001
 30
0.0
 11
63.463266000000012
 21
92.538157999999996
 31
0.0
  0
LINE
  5
66
  8
0
 10
129.813266
 20
59.934848000000002
 30
0.0
 11
129.813266
 21
54.334848000000001
 31
0.0
  0
LINE
  5
67
  8
0
 10
76.813268999999991
 20
53.134847999999998
 30
0.0
 11
95.180929000000006
 21
53.134847999999998
 31
0.0
  0
LINE
  5
68
  8
3
 10
79.813265999999999
 20
53.811347999999988
 30
0.0
 11
95.180929000000006
 21
53.811347999999988
 31
0.0
  0
LINE
  5
69
  8
3
 10
79.813265999999999
 20
60.458348000000001
 30
0.0
 11
95.180929000000006
 21
60.458348000000001
 31
0.0
  0
LINE
  5
6A
  8
0
 10
76.813265999999999
 20
61.134847999999998
 30
0.0
 11
95.180929000000006
 21
61.134847999999998
 31
0.0
  0
LINE
  5
6B
  8
0
 10
128.61326600000001
 20
61.134847999999998
 30
0.0
 11
129.813266
 21
59.934848000000002
 31
0.0
  0
LINE
  5
6C
  8
0
 10
129.813266
 20
54.334848000000001
 30
0.0
 11
128.61326600000001
 21
53.134847999999998
 31
0.0
  0
LINE
  5
6D
  8
0
 10
128.61326600000001
 20
61.134847999999998
 30
0.0
 11
128.61326600000001
 21
53.134847999999998
 31
0.0
  0
LINE
  5
6E
  8
0
 10
79.813265999999999
 20
61.134847999999998
 30
0.0
 11
79.813265999999999
 21
53.134847999999998
 31
0.0
  0
LINE
  5
6F
  8
3
 10
79.813265999999999
 20
60.458348000000001
 30
0.0
 11
78.641532999999995
 21
61.134847999999998
 31
0.0
  0
LINE
  5
70
  8
3
 10
79.813265999999999
 20
53.811347999999988
 30
0.0
 11
78.641532999999995
 21
53.134847999999998
 31
0.0
  0
ARC
  5
71
  8
0
 10
76.813265999999999
 20
62.134847999999991
 30
0.0
 40
1.0
 50
180.00021899999999
 51
270.0
  0
ARC
  5
72
  8
0
 10
76.813265999999999
 20
52.134847999999991
 30
0.0
 40
1.0
 50
89.999810999999994
 51
180.0
  0
ARC
  5
73
  8
0
 10
76.813265999999999
 20
90.738157999999999
 30
0.0
 40
1.0
 50
89.999810999999994
 51
180.0
  0
ARC
  5
74
  8
0
 10
76.813265999999999
 20
100.738158
 30
0.0
 40
1.0
 50
180.00021899999999
 51
270.0
  0
LINE
  5
75
  8
3
 10
79.813265999999999
 20
92.414658000000003
 30
0.0
 11
78.641532999999995
 21
91.738157999999984
 31
0.0
  0
LINE
  5
76
  8
3
 10
79.813265999999999
 20
99.061657999999994
 30
0.0
 11
78.641532999999995
 21
99.738157999999999
 31
0.0
  0
LINE
  5
77
  8
0
 10
79.813265999999999
 20
99.738157999999999
 30
0.0
 11
79.813265999999999
 21
91.738157999999984
 31
0.0
  0
LINE
  5
78
  8
0
 10
128.61326600000001
 20
99.738157999999999
 30
0.0
 11
128.61326600000001
 21
91.738157999999984
 31
0.0
  0
LINE
  5
79
  8
0
 10
129.813266
 20
92.938158000000001
 30
0.0
 11
128.61326600000001
 21
91.738157999999984
 31
0.0
  0
LINE
  5
7A
  8
0
 10
128.61326600000001
 20
99.738157999999999
 30
0.0
 11
129.813266
 21
98.538157999999996
 31
0.0
  0
LINE
  5
7B
  8
0
 10
76.813265999999999
 20
99.738157999999999
 30
0.0
 11
95.180929000000006
 21
99.738157999999999
 31
0.0
  0
LINE
  5
7C
  8
3
 10
79.813265999999999
 20
99.061657999999994
 30
0.0
 11
95.180929000000006
 21
99.061657999999994
 31
0.0
  0
LINE
  5
7D
  8
3
 10
79.813265999999999
 20
92.414658000000003
 30
0.0
 11
95.180929000000006
 21
92.414658000000003
 31
0.0
  0
LINE
  5
7E
  8
0
 10
76.813268999999991
 20
91.738157999999984
 30
0.0
 11
95.180929000000006
 21
91.738157999999984
 31
0.0
  0
LINE
  5
7F
  8
0
 10
129.813266
 20
98.538157999999996
 30
0.0
 11
129.813266
 21
92.938158000000001
 31
0.0
  0
LINE
  5
80
  8
0
 10
75.813265999999999
 20
90.738157999999999
 30
0.0
 11
75.813265999999999
 21
100.738158
 31
0.0
  0
LINE
  5
81
  8
0
 10
101.68092900000001
 20
49.629294000000002
 30
0.0
 11
101.68092900000001
 21
64.640400999999997
 31
0.0
  0
LINE
  5
82
  8
0
 10
95.180929000000006
 20
50.884847999999991
 30
0.0
 11
95.180929000000006
 21
63.384847999999991
 31
0.0
  0
ARC
  5
83
  8
0
 10
98.647835999999998
 20
62.764012999999991
 30
0.0
 40
3.3225699999999989
 50
154.38424699999999
 51
214.38424699999999
  0
LINE
  5
84
  8
0
 10
95.905822999999984
 20
64.640400999999997
 30
0.0
 11
95.180929000000006
 21
63.384847999999991
 31
0.0
  0
LINE
  5
85
  8
0
 10
95.905822999999984
 20
64.640400999999997
 30
0.0
 11
101.68092900000001
 21
64.640400999999997
 31
0.0
  0
LINE
  5
86
  8
0
 10
95.905822999999984
 20
60.887624000000002
 30
0.0
 11
101.68092900000001
 21
60.887624000000002
 31
0.0
  0
LINE
  5
87
  8
0
 10
95.905822999999984
 20
53.382070999999989
 30
0.0
 11
101.68092900000001
 21
53.382070999999989
 31
0.0
  0
LINE
  5
88
  8
0
 10
95.905822999999984
 20
49.629294000000002
 30
0.0
 11
101.68092900000001
 21
49.629294000000002
 31
0.0
  0
LINE
  5
89
  8
0
 10
95.905822999999984
 20
49.629294000000002
 30
0.0
 11
95.180929000000006
 21
50.884847999999991
 31
0.0
  0
ARC
  5
8A
  8
0
 10
107.74471
 20
57.134847999999991
 30
0.0
 40
12.419442999999999
 50
162.412046
 51
197.587954
  0
ARC
  5
8B
  8
0
 10
98.647835999999998
 20
51.505682999999998
 30
0.0
 40
3.3225699999999989
 50
145.61575300000001
 51
205.61575300000001
  0
LINE
  5
8C
  8
0
 10
101.68092900000001
 20
89.238157999999984
 30
0.0
 11
101.68092900000001
 21
102.238158
 31
0.0
  0
LINE
  5
8D
  8
0
 10
95.180929000000006
 20
89.488157999999999
 30
0.0
 11
95.180929000000006
 21
101.988158
 31
0.0
  0
LINE
  5
8E
  8
0
 10
95.325267000000011
 20
89.238157999999984
 30
0.0
 11
95.180929000000006
 21
89.488157999999999
 31
0.0
  0
ARC
  5
8F
  8
0
 10
104.712419
 20
92.488157999999999
 30
0.0
 40
9.3871520000000004
 50
159.743842
 51
200.256158
  0
LINE
  5
90
  8
0
 10
95.325267000000011
 20
89.238157999999984
 30
0.0
 11
101.68092900000001
 21
89.238157999999984
 31
0.0
  0
LINE
  5
91
  8
0
 10
95.905822999999984
 20
95.738157999999999
 30
0.0
 11
101.68092900000001
 21
95.738157999999999
 31
0.0
  0
LINE
  5
92
  8
0
 10
95.325267000000011
 20
102.238158
 30
0.0
 11
101.68092900000001
 21
102.238158
 31
0.0
  0
ARC
  5
93
  8
0
 10
104.712419
 20
98.988158000000013
 30
0.0
 40
9.3871520000000004
 50
159.743842
 51
200.256158
  0
LINE
  5
94
  8
0
 10
95.325267000000011
 20
102.238158
 30
0.0
 11
95.180929000000006
 21
101.988158
 31
0.0
  0
LINE
  5
95
  8
0
 10
101.68092900000001
 20
99.738157999999999
 30
0.0
 11
128.61326600000001
 21
99.738157999999999
 31
0.0
  0
LINE
  5
96
  8
3
 10
101.68092900000001
 20
99.061657999999994
 30
0.0
 11
129.28976599999999
 21
99.061657999999994
 31
0.0
  0
LINE
  5
97
  8
3
 10
101.68092900000001
 20
92.414658000000003
 30
0.0
 11
129.28976599999999
 21
92.414658000000003
 31
0.0
  0
LINE
  5
98
  8
0
 10
101.68092900000001
 20
91.738157999999984
 30
0.0
 11
128.61326600000001
 21
91.738157999999984
 31
0.0
  0
LINE
  5
99
  8
0
 10
101.68092900000001
 20
61.134847999999998
 30
0.0
 11
128.61326600000001
 21
61.134847999999998
 31
0.0
  0
LINE
  5
9A
  8
3
 10
101.68092900000001
 20
60.458348000000001
 30
0.0
 11
129.28976599999999
 21
60.458348000000001
 31
0.0
  0
LINE
  5
9B
  8
3
 10
101.68092900000001
 20
53.811347999999988
 30
0.0
 11
129.28976599999999
 21
53.811347999999988
 31
0.0
  0
LINE
  5
9C
  8
0
 10
101.68092900000001
 20
53.134847999999998
 30
0.0
 11
128.61326600000001
 21
53.134847999999998
 31
0.0
  0
LINE
  5
9D
  8
0
 10
25.583141999999999
 20
60.887624000000002
 30
0.0
 11
25.583141999999999
 21
53.382070999999989
 31
0.0
  0
LINE
  5
9E
  8
0
 10
25.583141999999999
 20
53.382070999999989
 30
0.0
 11
32.083142000000002
 21
49.629294000000002
 31
0.0
  0
LINE
  5
9F
  8
0
 10
32.083142000000002
 20
49.629294000000002
 30
0.0
 11
38.583142000000002
 21
53.382070999999989
 31
0.0
  0
LINE
  5
A0
  8
0
 10
38.583142000000002
 20
53.382070999999989
 30
0.0
 11
38.583142000000002
 21
60.887624000000002
 31
0.0
  0
LINE
  5
A1
  8
0
 10
38.583142000000002
 20
60.887624000000002
 30
0.0
 11
32.083142000000002
 21
64.640400999999997
 31
0.0
  0
LINE
  5
A2
  8
0
 10
32.083142000000002
 20
64.640400999999997
 30
0.0
 11
25.583141999999999
 21
60.887624000000002
 31
0.0
  0
CIRCLE
  5
A3
  8
0
 10
32.083142000000002
 20
57.134847999999991
 30
0.0
 40
6.25
  0
LINE
  5
A4
  8
0
 10
71.313265999999999
 20
92.038157999999996
 30
0.0
 11
72.06382099999999
 21
90.738157999999999
 31
0.0
  0
LINE
  5
A5
  8
0
 10
71.313265999999999
 20
60.497881999999997
 30
0.0
 11
71.313265999999999
 21
53.771813000000002
 31
0.0
  0
ARC
  5
A6
  8
0
 10
64.154122000000001
 20
57.134847999999991
 30
0.0
 40
7.9096989999999998
 50
334.838033
 51
25.161967000000001
  0
LINE
  5
A7
  8
0
 10
157.43042800000001
 20
64.640400999999997
 30
0.0
 11
150.93042800000001
 21
60.887624000000002
 31
0.0
  0
LINE
  5
A8
  8
0
 10
163.93042800000001
 20
60.887624000000002
 30
0.0
 11
157.43042800000001
 21
64.640400999999997
 31
0.0
  0
LINE
  5
A9
  8
0
 10
163.93042800000001
 20
53.382070999999989
 30
0.0
 11
163.93042800000001
 21
60.887624000000002
 31
0.0
  0
LINE
  5
AA
  8
0
 10
157.43042800000001
 20
49.629294000000002
 30
0.0
 11
163.93042800000001
 21
53.382070999999989
 31
0.0
  0
LINE
  5
AB
  8
0
 10
150.93042800000001
 20
53.382070999999989
 30
0.0
 11
157.43042800000001
 21
49.629294000000002
 31
0.0
  0
LINE
  5
AC
  8
0
 10
150.93042800000001
 20
60.887624000000002
 30
0.0
 11
150.93042800000001
 21
53.382070999999989
 31
0.0
  0
LINE
  5
AD
  8
1
 10
157.43042800000001
 20
65.408349999999999
 30
0.0
 11
157.43042800000001
 21
48.861345
 31
0.0
  0
LINE
  5
AE
  8
1
 10
165.70393100000001
 20
57.134847999999991
 30
0.0
 11
149.156925
 21
57.134847999999991
 31
0.0
  0
CIRCLE
  5
AF
  8
0
 10
157.43042800000001
 20
57.134847999999991
 30
0.0
 40
4.0
  0
CIRCLE
  5
B0
  8
3
 10
157.43042800000001
 20
57.134847999999991
 30
0.0
 40
3.3235000000000001
  0
TEXT
  5
1C8
  8
0
 62
     3
 10
0.0
 20
0.0
 30
0.0
 40
10.0
  1
CBS2-35
  7
STANDARD1
  0
ENDSEC
  0
EOF
