  0
SECTION
  2
HEADER
  9
$ACADVER
  1
AC1009
  9
$INSBASE
 10
0.0
 20
0.0
 30
0.0
  9
$EXTMIN
 10
0.0
 20
-2.960436562073669
 30
0.0
  9
$EXTMAX
 10
155.564458
 20
105.110709
 30
0.0
  9
$LIMMIN
 10
0.0
 20
0.0
  9
$LIMMAX
 10
187.5
 20
135.0
  9
$ORTHOMODE
 70
     1
  9
$REGENMODE
 70
     1
  9
$FILLMODE
 70
     1
  9
$QTEXTMODE
 70
     0
  9
$MIRRTEXT
 70
     0
  9
$DRAGMODE
 70
     2
  9
$LTSCALE
 40
5.0
  9
$OSMODE
 70
  3071
  9
$ATTMODE
 70
     1
  9
$TEXTSIZE
 40
1.6000000000000001
  9
$TRACEWID
 40
0.05
  9
$TEXTSTYLE
  7
STANDARD
  9
$CLAYER
  8
0
  9
$CELTYPE
  6
BYLAYER
  9
$CECOLOR
 62
   256
  9
$DIMSCALE
 40
0.5
  9
$DIMASZ
 40
3.0
  9
$DIMEXO
 40
2.0
  9
$DIMDLI
 40
10.0
  9
$DIMRND
 40
0.0
  9
$DIMDLE
 40
0.0
  9
$DIMEXE
 40
2.0
  9
$DIMTP
 40
0.0
  9
$DIMTM
 40
0.0
  9
$DIMTXT
 40
3.2000000000000002
  9
$DIMCEN
 40
0.0
  9
$DIMTSZ
 40
0.0
  9
$DIMTOL
 70
     0
  9
$DIMLIM
 70
     0
  9
$DIMTIH
 70
     0
  9
$DIMTOH
 70
     0
  9
$DIMSE1
 70
     0
  9
$DIMSE2
 70
     0
  9
$DIMTAD
 70
     1
  9
$DIMZIN
 70
     0
  9
$DIMBLK
  1

  9
$DIMASO
 70
     0
  9
$DIMSHO
 70
     0
  9
$DIMPOST
  1

  9
$DIMAPOST
  1

  9
$DIMALT
 70
     0
  9
$DIMALTD
 70
     2
  9
$DIMALTF
 40
25.399999999999999
  9
$DIMLFAC
 40
1.0
  9
$DIMTOFL
 70
     1
  9
$DIMTVP
 40
1.6000000000000001
  9
$DIMTIX
 70
     1
  9
$DIMSOXD
 70
     0
  9
$DIMSAH
 70
     0
  9
$DIMBLK1
  1

  9
$DIMBLK2
  1

  9
$DIMSTYLE
  2
STANDARD
  9
$DIMCLRD
 70
     0
  9
$DIMCLRE
 70
     0
  9
$DIMCLRT
 70
     0
  9
$DIMTFAC
 40
1.0
  9
$DIMGAP
 40
0.09
  9
$LUNITS
 70
     2
  9
$LUPREC
 70
     4
  9
$SKETCHINC
 40
0.1
  9
$FILLETRAD
 40
0.0
  9
$AUNITS
 70
     0
  9
$AUPREC
 70
     4
  9
$MENU
  1
E:\r13\win\SUPPORT\ACAD
  9
$ELEVATION
 40
0.0
  9
$PELEVATION
 40
0.0
  9
$THICKNESS
 40
0.0
  9
$LIMCHECK
 70
     0
  9
$BLIPMODE
 70
     0
  9
$CHAMFERA
 40
0.0
  9
$CHAMFERB
 40
0.0
  9
$SKPOLY
 70
     0
  9
$TDCREATE
 40
2449839.778576389
  9
$TDUPDATE
 40
2456598.5792431948
  9
$TDINDWG
 40
0.0000881829
  9
$TDUSRTIMER
 40
0.0000881829
  9
$USRTIMER
 70
     1
  9
$ANGBASE
 50
0.0
  9
$ANGDIR
 70
     0
  9
$PDMODE
 70
    35
  9
$PDSIZE
 40
0.0
  9
$PLINEWID
 40
0.0
  9
$COORDS
 70
     1
  9
$SPLFRAME
 70
     0
  9
$SPLINETYPE
 70
     6
  9
$SPLINESEGS
 70
     8
  9
$ATTDIA
 70
     0
  9
$ATTREQ
 70
     1
  9
$HANDLING
 70
     1
  9
$HANDSEED
  5
287
  9
$SURFTAB1
 70
     6
  9
$SURFTAB2
 70
     6
  9
$SURFTYPE
 70
     6
  9
$SURFU
 70
     6
  9
$SURFV
 70
     6
  9
$UCSNAME
  2

  9
$UCSORG
 10
0.0
 20
0.0
 30
0.0
  9
$UCSXDIR
 10
1.0
 20
0.0
 30
0.0
  9
$UCSYDIR
 10
0.0
 20
1.0
 30
0.0
  9
$PUCSNAME
  2

  9
$PUCSORG
 10
0.0
 20
0.0
 30
0.0
  9
$PUCSXDIR
 10
1.0
 20
0.0
 30
0.0
  9
$PUCSYDIR
 10
0.0
 20
1.0
 30
0.0
  9
$USERI1
 70
     0
  9
$USERI2
 70
     1
  9
$USERI3
 70
     0
  9
$USERI4
 70
     0
  9
$USERI5
 70
     0
  9
$USERR1
 40
0.0
  9
$USERR2
 40
0.0
  9
$USERR3
 40
0.0
  9
$USERR4
 40
0.0
  9
$USERR5
 40
0.0
  9
$WORLDVIEW
 70
     1
  9
$SHADEDGE
 70
     3
  9
$SHADEDIF
 70
    70
  9
$TILEMODE
 70
     1
  9
$MAXACTVP
 70
    16
  9
$PLIMCHECK
 70
     0
  9
$PEXTMIN
 10
1.0000000000000000E+020
 20
1.0000000000000000E+020
 30
1.0000000000000000E+020
  9
$PEXTMAX
 10
-1.0000000000000000E+020
 20
-1.0000000000000000E+020
 30
-1.0000000000000000E+020
  9
$PLIMMIN
 10
0.0
 20
0.0
  9
$PLIMMAX
 10
12.0
 20
9.0
  9
$UNITMODE
 70
     0
  9
$VISRETAIN
 70
     0
  9
$PLINEGEN
 70
     0
  9
$PSLTSCALE
 70
     0
  0
ENDSEC
  0
SECTION
  2
TABLES
  0
TABLE
  2
VPORT
 70
     1
  0
VPORT
  2
*ACTIVE
 70
     0
 10
0.0
 20
0.0
 11
1.0
 21
1.0
 12
97.570150770051072
 22
66.014785922033241
 13
0.0
 23
0.0
 14
5.0
 24
5.0
 15
5.0
 25
5.0
 16
0.0
 26
0.0
 36
1.0
 17
0.0
 27
0.0
 37
0.0
 40
139.20783109903601
 41
1.831871345029239
 42
50.0
 43
0.0
 44
0.0
 50
0.0
 51
0.0
 71
     0
 72
   100
 73
     1
 74
     0
 75
     0
 76
     0
 77
     0
 78
     2
  0
ENDTAB
  0
TABLE
  2
LTYPE
 70
     4
  0
LTYPE
  2
CONTINUOUS
 70
     0
  3
Solid Line
 72
    65
 73
     0
 40
0.0
  0
LTYPE
  2
CENTER
 70
     0
  3
____ _ ____ _ ____ _ ____ _ ____ _ ____ _ ____
 72
    65
 73
     4
 40
2.0
 49
1.25
 49
-0.25
 49
0.25
 49
-0.25
  0
LTYPE
  2
HIDDEN
 70
     0
  3
_ _ _ _ _ _ _ _ _ _ _ _ _ _ _ _ _ _ _ _ _ _ _
 72
    65
 73
     2
 40
0.375
 49
0.25
 49
-0.125
  0
LTYPE
  2
PHANTOM2
 70
     0
  3
___ _ _ ___ _ _ ___ _ _ ___ _ _
 72
    65
 73
     6
 40
1.25
 49
0.625
 49
-0.125
 49
0.125
 49
-0.125
 49
0.125
 49
-0.125
  0
ENDTAB
  0
TABLE
  2
LAYER
 70
     4
  0
LAYER
  2
0
 70
     0
 62
     7
  6
CONTINUOUS
  0
LAYER
  2
1
 70
     0
 62
     1
  6
CENTER
  0
LAYER
  2
2
 70
     0
 62
     2
  6
HIDDEN
  0
LAYER
  2
3
 70
     0
 62
     3
  6
CONTINUOUS
  0
ENDTAB
  0
TABLE
  2
STYLE
 70
     2
  0
STYLE
  2
STANDARD
 70
     0
 40
0.0
 41
1.0
 50
0.0
 71
     0
 42
1.6000000000000001
  3
ROMANS
  4
EXTFONT
  0
STYLE
  2
STANDARD1
 70
     0
 40
0.0
 41
1.0
 50
0.0
 71
     0
 42
3.0
  3
txt
  4

  0
ENDTAB
  0
TABLE
  2
VIEW
 70
     1
  0
VIEW
  2
ALL
 70
     0
 40
135.0
 10
110.49579799999999
 20
67.5
 41
0.0
 11
0.0
 21
0.0
 31
1.0
 12
0.0
 22
0.0
 32
0.0
 42
0.0
 43
0.0
 44
0.0
 50
0.0
 71
     0
  0
ENDTAB
  0
TABLE
  2
UCS
 70
     0
  0
ENDTAB
  0
TABLE
  2
APPID
 70
     3
  0
APPID
  2
ACAD
 70
     0
  0
APPID
  2
ACAD_MLEADERVER
 70
     0
  0
APPID
  2
ACAD_NAV_VCDISPLAY
 70
     0
  0
ENDTAB
  0
TABLE
  2
DIMSTYLE
 70
     1
  0
DIMSTYLE
  2
STANDARD
 70
     0
  3

  4

  5

  6

  7

 40
1.0
 41
0.18
 42
0.0625
 43
0.38
 44
0.18
 45
0.0
 46
0.0
 47
0.0
 48
0.0
140
0.18
141
0.09
142
0.0
143
25.399999999999999
144
1.0
145
0.0
146
1.0
147
0.09
 71
     0
 72
     0
 73
     1
 74
     1
 75
     0
 76
     0
 77
     0
 78
     0
170
     0
171
     2
172
     0
173
     0
174
     0
175
     0
176
     0
177
     0
178
     0
  0
ENDTAB
  0
ENDSEC
  0
SECTION
  2
BLOCKS
  0
BLOCK
  8
0
  2
$MODEL_SPACE
 70
     0
 10
0.0
 20
0.0
 30
0.0
  3
$MODEL_SPACE
  1

  0
ENDBLK
  5
13B
  8
0
  0
BLOCK
 67
     1
  8
0
  2
$PAPER_SPACE
 70
     0
 10
0.0
 20
0.0
 30
0.0
  3
$PAPER_SPACE
  1

  0
ENDBLK
  5
139
 67
     1
  8
0
  0
ENDSEC
  0
SECTION
  2
ENTITIES
  0
LINE
  5
37
  8
1
 10
155.564458
 20
69.360539000000003
 30
0.0
 11
139.01745199999999
 21
69.360539000000003
 31
0.0
  0
LINE
  5
38
  8
1
 10
147.290955
 20
77.634041999999994
 30
0.0
 11
147.290955
 21
61.087035999999998
 31
0.0
  0
LINE
  5
39
  8
0
 10
142.290955
 20
72.247290000000007
 30
0.0
 11
142.290955
 21
66.473787000000002
 31
0.0
  0
LINE
  5
3A
  8
0
 10
142.290955
 20
66.473787000000002
 30
0.0
 11
147.290955
 21
63.587035999999998
 31
0.0
  0
LINE
  5
3B
  8
0
 10
147.290955
 20
63.587035999999998
 30
0.0
 11
152.290955
 21
66.473787000000002
 31
0.0
  0
LINE
  5
3C
  8
0
 10
152.290955
 20
66.473787000000002
 30
0.0
 11
152.290955
 21
72.247290000000007
 31
0.0
  0
LINE
  5
3D
  8
0
 10
152.290955
 20
72.247290000000007
 30
0.0
 11
147.290955
 21
75.134041999999994
 31
0.0
  0
LINE
  5
3E
  8
0
 10
147.290955
 20
75.134041999999994
 30
0.0
 11
142.290955
 21
72.247290000000007
 31
0.0
  0
CIRCLE
  5
3F
  8
0
 10
147.290955
 20
69.360539000000003
 30
0.0
 40
3.0
  0
CIRCLE
  5
40
  8
3
 10
147.290955
 20
69.360539000000003
 30
0.0
 40
2.458499999999999
  0
LINE
  5
41
  8
1
 10
67.157170999999991
 20
69.360539000000003
 30
0.0
 11
117.15717100000001
 21
69.360539000000003
 31
0.0
  0
LINE
  5
42
  8
0
 10
69.657170999999991
 20
72.339813000000007
 30
0.0
 11
69.657170999999991
 21
66.381264999999999
 31
0.0
  0
LINE
  5
43
  8
0
 10
87.657170999999991
 20
72.360539000000003
 30
0.0
 11
87.657170999999991
 21
66.360539000000003
 31
0.0
  0
LINE
  5
44
  8
0
 10
73.157170999999991
 20
74.360539000000003
 30
0.0
 11
84.657170999999991
 21
74.360539000000003
 31
0.0
  0
LINE
  5
45
  8
0
 10
73.157170999999991
 20
64.360539000000003
 30
0.0
 11
84.657170999999991
 21
64.360539000000003
 31
0.0
  0
LINE
  5
46
  8
0
 10
73.157170999999991
 20
74.360539000000003
 30
0.0
 11
73.157170999999991
 21
72.931252999999984
 31
0.0
  0
LINE
  5
47
  8
0
 10
114.65717100000001
 20
71.360539000000003
 30
0.0
 11
114.65717100000001
 21
67.360539000000003
 31
0.0
  0
LINE
  5
48
  8
0
 10
85.657170999999977
 20
66.360539000000003
 30
0.0
 11
91.046295999999998
 21
66.360539000000003
 31
0.0
  0
LINE
  5
49
  8
3
 10
87.657170999999991
 20
66.902039000000002
 30
0.0
 11
91.046295999999998
 21
66.902039000000002
 31
0.0
  0
LINE
  5
4A
  8
3
 10
87.657170999999991
 20
71.819039000000004
 30
0.0
 11
91.046295999999998
 21
71.819039000000004
 31
0.0
  0
LINE
  5
4B
  8
0
 10
85.657170999999977
 20
72.360539000000003
 30
0.0
 11
91.046295999999998
 21
72.360539000000003
 31
0.0
  0
LINE
  5
4C
  8
0
 10
113.65717100000001
 20
72.360539000000003
 30
0.0
 11
114.65717100000001
 21
71.360539000000003
 31
0.0
  0
LINE
  5
4D
  8
0
 10
114.65717100000001
 20
67.360539000000003
 30
0.0
 11
113.65717100000001
 21
66.360539000000003
 31
0.0
  0
LINE
  5
4E
  8
0
 10
113.65717100000001
 20
66.360539000000003
 30
0.0
 11
113.65717100000001
 21
72.360539000000003
 31
0.0
  0
LINE
  5
4F
  8
3
 10
87.657170999999991
 20
71.819039000000004
 30
0.0
 11
86.719266000000005
 21
72.360539000000003
 31
0.0
  0
LINE
  5
50
  8
3
 10
87.657170999999991
 20
66.902039000000002
 30
0.0
 11
86.719266000000005
 21
66.360539000000003
 31
0.0
  0
LINE
  5
51
  8
0
 10
96.046295999999998
 20
72.360539000000003
 30
0.0
 11
113.65717100000001
 21
72.360539000000003
 31
0.0
  0
LINE
  5
52
  8
0
 10
96.046295999999998
 20
66.360539000000003
 30
0.0
 11
113.65717100000001
 21
66.360539000000003
 31
0.0
  0
LINE
  5
53
  8
0
 10
84.657170999999991
 20
64.360539000000003
 30
0.0
 11
84.657170999999991
 21
74.360539000000003
 31
0.0
  0
ARC
  5
54
  8
0
 10
85.657170999999977
 20
73.360539000000003
 30
0.0
 40
1.0
 50
180.0
 51
270.0
  0
ARC
  5
55
  8
0
 10
85.657170999999977
 20
65.360539000000003
 30
0.0
 40
1.0
 50
90.0
 51
180.0
  0
LINE
  5
56
  8
0
 10
73.157170999999991
 20
74.360539000000003
 30
0.0
 11
69.657170999999991
 21
72.339813000000007
 31
0.0
  0
LINE
  5
57
  8
0
 10
73.157170999999991
 20
64.360539000000003
 30
0.0
 11
69.657170999999991
 21
66.381264999999999
 31
0.0
  0
CIRCLE
  5
58
  8
0
 10
42.248834000000002
 20
69.360539000000003
 30
0.0
 40
5.0
  0
CIRCLE
  5
59
  8
0
 10
42.248834000000002
 20
69.360539000000003
 30
0.0
 40
2.9792999999999989
  0
LINE
  5
5A
  8
0
 10
37.248834000000002
 20
72.247290000000007
 30
0.0
 11
37.248834000000002
 21
66.473787000000002
 31
0.0
  0
LINE
  5
5B
  8
0
 10
37.248834000000002
 20
66.473787000000002
 30
0.0
 11
42.248834000000002
 21
63.587035999999998
 31
0.0
  0
LINE
  5
5C
  8
0
 10
42.248834000000002
 20
63.587035999999998
 30
0.0
 11
47.248834000000002
 21
66.473787000000002
 31
0.0
  0
LINE
  5
5D
  8
0
 10
47.248834000000002
 20
66.473787000000002
 30
0.0
 11
47.248834000000002
 21
72.247290000000007
 31
0.0
  0
LINE
  5
5E
  8
0
 10
47.248834000000002
 20
72.247290000000007
 30
0.0
 11
42.248834000000002
 21
75.134041999999994
 31
0.0
  0
LINE
  5
5F
  8
0
 10
42.248834000000002
 20
75.134041999999994
 30
0.0
 11
37.248834000000002
 21
72.247290000000007
 31
0.0
  0
LINE
  5
60
  8
1
 10
74.157170999999991
 20
76.260538999999994
 30
0.0
 11
74.157170999999991
 21
62.460538999999997
 31
0.0
  0
LINE
  5
61
  8
0
 10
73.157170999999991
 20
72.931252999999984
 30
0.0
 11
80.157170999999991
 21
72.931252999999984
 31
0.0
  0
ARC
  5
62
  8
0
 10
74.311871999999994
 20
69.360539000000003
 30
0.0
 40
3.7527769999999991
 50
107.920213
 51
252.07978700000001
  0
LINE
  5
63
  8
0
 10
73.157170999999991
 20
65.789824999999993
 30
0.0
 11
80.157170999999991
 21
65.789824999999993
 31
0.0
  0
LINE
  5
64
  8
0
 10
80.157170999999991
 20
65.789824999999993
 30
0.0
 11
80.157170999999991
 21
72.931252999999984
 31
0.0
  0
ARC
  5
65
  8
0
 10
73.228968000000009
 20
69.360539000000003
 30
0.0
 40
7.7942289999999987
 50
332.73395599999998
 51
27.266044000000001
  0
LINE
  5
66
  8
0
 10
73.157170999999991
 20
65.789824999999993
 30
0.0
 11
73.157170999999991
 21
64.360539000000003
 31
0.0
  0
LINE
  5
67
  8
1
 10
50.522336000000003
 20
69.360539000000003
 30
0.0
 11
33.975330999999997
 21
69.360539000000003
 31
0.0
  0
LINE
  5
68
  8
1
 10
42.248834000000002
 20
77.634041999999994
 30
0.0
 11
42.248834000000002
 21
61.087035999999998
 31
0.0
  0
LINE
  5
69
  8
1
 10
74.157170999999991
 20
105.110709
 30
0.0
 11
74.157170999999991
 21
91.310709000000003
 31
0.0
  0
ARC
  5
6A
  8
0
 10
85.657170999999977
 20
94.210708999999994
 30
0.0
 40
1.0
 50
90.0
 51
180.0
  0
ARC
  5
6B
  8
0
 10
85.657170999999977
 20
102.21070899999999
 30
0.0
 40
1.0
 50
180.0
 51
270.0
  0
LINE
  5
6C
  8
0
 10
84.657170999999991
 20
93.210708999999994
 30
0.0
 11
84.657170999999991
 21
103.21070899999999
 31
0.0
  0
LINE
  5
6D
  8
0
 10
96.046295999999998
 20
95.210708999999994
 30
0.0
 11
113.65717100000001
 21
95.210708999999994
 31
0.0
  0
LINE
  5
6E
  8
0
 10
96.046295999999998
 20
101.21070899999999
 30
0.0
 11
113.65717100000001
 21
101.21070899999999
 31
0.0
  0
LINE
  5
6F
  8
3
 10
87.657170999999991
 20
95.752208999999993
 30
0.0
 11
86.719266000000005
 21
95.210708999999994
 31
0.0
  0
LINE
  5
70
  8
3
 10
87.657170999999991
 20
100.669209
 30
0.0
 11
86.719266000000005
 21
101.21070899999999
 31
0.0
  0
LINE
  5
71
  8
0
 10
113.65717100000001
 20
95.210708999999994
 30
0.0
 11
113.65717100000001
 21
101.21070899999999
 31
0.0
  0
LINE
  5
72
  8
0
 10
114.65717100000001
 20
96.210708999999994
 30
0.0
 11
113.65717100000001
 21
95.210708999999994
 31
0.0
  0
LINE
  5
73
  8
0
 10
113.65717100000001
 20
101.21070899999999
 30
0.0
 11
114.65717100000001
 21
100.21070899999999
 31
0.0
  0
LINE
  5
74
  8
0
 10
85.657170999999977
 20
101.21070899999999
 30
0.0
 11
91.046295999999998
 21
101.21070899999999
 31
0.0
  0
LINE
  5
75
  8
3
 10
87.657170999999991
 20
100.669209
 30
0.0
 11
91.046295999999998
 21
100.669209
 31
0.0
  0
LINE
  5
76
  8
3
 10
87.657170999999991
 20
95.752208999999993
 30
0.0
 11
91.046295999999998
 21
95.752208999999993
 31
0.0
  0
LINE
  5
77
  8
0
 10
85.657170999999977
 20
95.210708999999994
 30
0.0
 11
91.046295999999998
 21
95.210708999999994
 31
0.0
  0
LINE
  5
78
  8
0
 10
114.65717100000001
 20
100.21070899999999
 30
0.0
 11
114.65717100000001
 21
96.210708999999994
 31
0.0
  0
LINE
  5
79
  8
0
 10
87.657170999999991
 20
101.21070899999999
 30
0.0
 11
87.657170999999991
 21
95.210708999999994
 31
0.0
  0
LINE
  5
7A
  8
1
 10
67.157170999999991
 20
98.210708999999994
 30
0.0
 11
117.15717100000001
 21
98.210708999999994
 31
0.0
  0
LINE
  5
7B
  8
0
 10
69.657170999999991
 20
101.189983
 30
0.0
 11
69.657170999999991
 21
95.231435000000005
 31
0.0
  0
LINE
  5
7C
  8
0
 10
84.657170999999991
 20
103.21070899999999
 30
0.0
 11
81.023195999999984
 21
103.21070899999999
 31
0.0
  0
LINE
  5
7D
  8
0
 10
80.272641000000007
 20
101.910709
 30
0.0
 11
81.023195999999984
 21
103.21070899999999
 31
0.0
  0
LINE
  5
7E
  8
0
 10
80.272641000000007
 20
94.510708999999991
 30
0.0
 11
81.023195999999984
 21
93.210708999999994
 31
0.0
  0
LINE
  5
7F
  8
0
 10
84.657170999999991
 20
93.210708999999994
 30
0.0
 11
81.023195999999984
 21
93.210708999999994
 31
0.0
  0
LINE
  5
80
  8
0
 10
73.157170999999991
 20
94.710708999999994
 30
0.0
 11
73.157170999999991
 21
101.910709
 31
0.0
  0
LINE
  5
81
  8
0
 10
96.046295999999998
 20
93.210708999999994
 30
0.0
 11
96.046295999999998
 21
103.21070899999999
 31
0.0
  0
LINE
  5
82
  8
0
 10
91.550612999999984
 20
98.210708999999994
 30
0.0
 11
96.046295999999998
 21
98.210708999999994
 31
0.0
  0
ARC
  5
83
  8
0
 10
98.324916999999999
 20
95.710708999999994
 30
0.0
 40
7.2208860000000001
 50
159.743842
 51
200.256158
  0
LINE
  5
84
  8
0
 10
91.104031000000006
 20
93.210708999999994
 30
0.0
 11
91.046295999999998
 21
93.310709000000003
 31
0.0
  0
LINE
  5
85
  8
0
 10
91.104031000000006
 20
93.210708999999994
 30
0.0
 11
96.046295999999998
 21
93.210708999999994
 31
0.0
  0
LINE
  5
86
  8
0
 10
91.104031000000006
 20
103.21070899999999
 30
0.0
 11
96.046295999999998
 21
103.21070899999999
 31
0.0
  0
LINE
  5
87
  8
0
 10
91.104031000000006
 20
103.21070899999999
 30
0.0
 11
91.046295999999998
 21
103.110709
 31
0.0
  0
ARC
  5
88
  8
0
 10
98.324916999999999
 20
100.71070899999999
 30
0.0
 40
7.2208860000000001
 50
159.743842
 51
200.256158
  0
LINE
  5
89
  8
0
 10
91.046295999999998
 20
93.310709000000003
 30
0.0
 11
91.046295999999998
 21
103.110709
 31
0.0
  0
LINE
  5
8A
  8
0
 10
96.046295999999998
 20
75.134041999999994
 30
0.0
 11
96.046295999999998
 21
63.587035999999998
 31
0.0
  0
LINE
  5
8B
  8
0
 10
91.046295999999998
 20
74.260538999999994
 30
0.0
 11
91.046295999999998
 21
64.460538999999983
 31
0.0
  0
LINE
  5
8C
  8
0
 10
91.550612999999984
 20
75.134041999999994
 30
0.0
 11
91.046295999999998
 21
74.260538999999994
 31
0.0
  0
ARC
  5
8D
  8
0
 10
93.659852999999998
 20
73.690665999999993
 30
0.0
 40
2.5558230000000002
 50
154.38424699999999
 51
214.38424699999999
  0
LINE
  5
8E
  8
0
 10
91.550612999999984
 20
75.134041999999994
 30
0.0
 11
96.046295999999998
 21
75.134041999999994
 31
0.0
  0
LINE
  5
8F
  8
0
 10
91.550612999999984
 20
72.247290000000007
 30
0.0
 11
96.046295999999998
 21
72.247290000000007
 31
0.0
  0
LINE
  5
90
  8
0
 10
91.550612999999984
 20
66.473787000000002
 30
0.0
 11
96.046295999999998
 21
66.473787000000002
 31
0.0
  0
LINE
  5
91
  8
0
 10
91.550612999999984
 20
63.587035999999998
 30
0.0
 11
96.046295999999998
 21
63.587035999999998
 31
0.0
  0
ARC
  5
92
  8
0
 10
100.657449
 20
69.360539000000003
 30
0.0
 40
9.5534179999999989
 50
162.412046
 51
197.587954
  0
ARC
  5
93
  8
0
 10
93.659852999999998
 20
65.030411999999998
 30
0.0
 40
2.5558230000000002
 50
145.61575300000001
 51
205.61575300000001
  0
LINE
  5
94
  8
0
 10
91.550612999999984
 20
63.587035999999998
 30
0.0
 11
91.046295999999998
 21
64.460538999999983
 31
0.0
  0
LINE
  5
95
  8
3
 10
96.046295999999998
 20
71.819039000000004
 30
0.0
 11
114.198671
 21
71.819039000000004
 31
0.0
  0
LINE
  5
96
  8
3
 10
96.046295999999998
 20
66.902039000000002
 30
0.0
 11
114.198671
 21
66.902039000000002
 31
0.0
  0
LINE
  5
97
  8
3
 10
96.046295999999998
 20
100.669209
 30
0.0
 11
114.198671
 21
100.669209
 31
0.0
  0
LINE
  5
98
  8
3
 10
96.046295999999998
 20
95.752208999999993
 30
0.0
 11
114.198671
 21
95.752208999999993
 31
0.0
  0
LINE
  5
99
  8
0
 10
45.948833999999998
 20
72.723573000000002
 30
0.0
 11
45.948833999999998
 21
65.997504000000006
 31
0.0
  0
LINE
  5
9A
  8
0
 10
38.548833999999999
 20
72.723573000000002
 30
0.0
 11
38.548833999999999
 21
65.997504000000006
 31
0.0
  0
LINE
  5
9B
  8
2
 10
45.448833999999998
 20
71.210538999999983
 30
0.0
 11
39.048833999999999
 21
71.210538999999983
 31
0.0
  0
LINE
  5
9C
  8
2
 10
45.448833999999998
 20
67.510538999999994
 30
0.0
 11
39.048833999999999
 21
67.510538999999994
 31
0.0
  0
LINE
  5
9D
  8
2
 10
45.448833999999998
 20
71.210538999999983
 30
0.0
 11
45.948833999999998
 21
71.710538999999997
 31
0.0
  0
LINE
  5
9E
  8
2
 10
45.448833999999998
 20
67.510538999999994
 30
0.0
 11
45.948833999999998
 21
67.010538999999994
 31
0.0
  0
LINE
  5
9F
  8
2
 10
39.048833999999999
 20
67.510538999999994
 30
0.0
 11
38.548833999999999
 21
67.010538999999994
 31
0.0
  0
LINE
  5
A0
  8
2
 10
38.548833999999999
 20
71.710538999999997
 30
0.0
 11
39.048833999999999
 21
71.210538999999983
 31
0.0
  0
LINE
  5
A1
  8
2
 10
39.048833999999999
 20
71.210538999999983
 30
0.0
 11
39.048833999999999
 21
67.510538999999994
 31
0.0
  0
LINE
  5
A2
  8
2
 10
45.448833999999998
 20
67.510538999999994
 30
0.0
 11
45.448833999999998
 21
71.210538999999983
 31
0.0
  0
CIRCLE
  5
A3
  8
0
 10
74.157170999999991
 20
69.360539000000003
 30
0.0
 40
1.8500000000000001
  0
LINE
  5
A4
  8
2
 10
76.007171
 20
101.410709
 30
0.0
 11
72.307170999999997
 21
101.410709
 31
0.0
  0
LINE
  5
A5
  8
2
 10
72.307170999999997
 20
95.010709000000006
 30
0.0
 11
76.007171
 21
95.010709000000006
 31
0.0
  0
LINE
  5
A6
  8
2
 10
71.807170999999997
 20
94.510708999999991
 30
0.0
 11
72.307170999999997
 21
95.010709000000006
 31
0.0
  0
LINE
  5
A7
  8
2
 10
76.007171
 20
95.010709000000006
 30
0.0
 11
76.507171
 21
94.510708999999991
 31
0.0
  0
LINE
  5
A8
  8
2
 10
76.007171
 20
101.410709
 30
0.0
 11
76.507171
 21
101.910709
 31
0.0
  0
LINE
  5
A9
  8
2
 10
72.307170999999997
 20
101.410709
 30
0.0
 11
71.807170999999997
 21
101.910709
 31
0.0
  0
LINE
  5
AA
  8
2
 10
76.007171
 20
101.410709
 30
0.0
 11
76.007171
 21
95.010709000000006
 31
0.0
  0
LINE
  5
AB
  8
2
 10
72.307170999999997
 20
101.410709
 30
0.0
 11
72.307170999999997
 21
95.010709000000006
 31
0.0
  0
LINE
  5
AC
  8
0
 10
70.559094999999999
 20
101.910709
 30
0.0
 11
80.272641000000007
 21
101.910709
 31
0.0
  0
LINE
  5
AD
  8
0
 10
70.559094999999999
 20
94.510708999999991
 30
0.0
 11
80.272641000000007
 21
94.510708999999991
 31
0.0
  0
LINE
  5
AE
  8
0
 10
70.559094999999999
 20
94.510708999999991
 30
0.0
 11
69.657170999999991
 21
95.231435000000005
 31
0.0
  0
LINE
  5
AF
  8
0
 10
70.559094999999999
 20
101.910709
 30
0.0
 11
69.657170999999991
 21
101.189983
 31
0.0
  0
LINE
  5
B0
  8
0
 10
70.559094999999999
 20
43.249653999999992
 30
0.0
 11
69.657170999999991
 21
42.528928000000001
 31
0.0
  0
LINE
  5
B1
  8
0
 10
70.559094999999999
 20
35.849654000000001
 30
0.0
 11
69.657170999999991
 21
36.570379000000003
 31
0.0
  0
LINE
  5
B2
  8
0
 10
70.559094999999999
 20
35.849654000000001
 30
0.0
 11
80.272641000000007
 21
35.849654000000001
 31
0.0
  0
LINE
  5
B3
  8
0
 10
70.559094999999999
 20
43.249653999999992
 30
0.0
 11
80.272641000000007
 21
43.249653999999992
 31
0.0
  0
LINE
  5
B4
  8
2
 10
72.307170999999997
 20
42.749654
 30
0.0
 11
72.307170999999997
 21
36.349654000000001
 31
0.0
  0
LINE
  5
B5
  8
2
 10
76.007171
 20
42.749654
 30
0.0
 11
76.007171
 21
36.349654000000001
 31
0.0
  0
LINE
  5
B6
  8
2
 10
72.307170999999997
 20
42.749654
 30
0.0
 11
71.807170999999997
 21
43.249653999999992
 31
0.0
  0
LINE
  5
B7
  8
2
 10
76.007171
 20
42.749654
 30
0.0
 11
76.507171
 21
43.249653999999992
 31
0.0
  0
LINE
  5
B8
  8
2
 10
76.007171
 20
36.349654000000001
 30
0.0
 11
76.507171
 21
35.849654000000001
 31
0.0
  0
LINE
  5
B9
  8
2
 10
71.807170999999997
 20
35.849654000000001
 30
0.0
 11
72.307170999999997
 21
36.349654000000001
 31
0.0
  0
LINE
  5
BA
  8
2
 10
72.307170999999997
 20
36.349654000000001
 30
0.0
 11
76.007171
 21
36.349654000000001
 31
0.0
  0
LINE
  5
BB
  8
2
 10
76.007171
 20
42.749654
 30
0.0
 11
72.307170999999997
 21
42.749654
 31
0.0
  0
LINE
  5
BC
  8
3
 10
96.046295999999998
 20
37.091154000000003
 30
0.0
 11
114.198671
 21
37.091154000000003
 31
0.0
  0
LINE
  5
BD
  8
3
 10
96.046295999999998
 20
42.00815399999999
 30
0.0
 11
114.198671
 21
42.00815399999999
 31
0.0
  0
LINE
  5
BE
  8
0
 10
91.046295999999998
 20
34.649653999999998
 30
0.0
 11
91.046295999999998
 21
44.449654000000002
 31
0.0
  0
ARC
  5
BF
  8
0
 10
98.324916999999999
 20
42.04965399999999
 30
0.0
 40
7.2208860000000001
 50
159.743842
 51
200.256158
  0
LINE
  5
C0
  8
0
 10
91.104031000000006
 20
44.54965399999999
 30
0.0
 11
91.046295999999998
 21
44.449654000000002
 31
0.0
  0
LINE
  5
C1
  8
0
 10
91.104031000000006
 20
44.54965399999999
 30
0.0
 11
96.046295999999998
 21
44.54965399999999
 31
0.0
  0
LINE
  5
C2
  8
0
 10
91.104031000000006
 20
34.549653999999997
 30
0.0
 11
96.046295999999998
 21
34.549653999999997
 31
0.0
  0
LINE
  5
C3
  8
0
 10
91.104031000000006
 20
34.549653999999997
 30
0.0
 11
91.046295999999998
 21
34.649653999999998
 31
0.0
  0
ARC
  5
C4
  8
0
 10
98.324916999999999
 20
37.049653999999997
 30
0.0
 40
7.2208860000000001
 50
159.743842
 51
200.256158
  0
LINE
  5
C5
  8
0
 10
91.550612999999984
 20
39.549653999999997
 30
0.0
 11
96.046295999999998
 21
39.549653999999997
 31
0.0
  0
LINE
  5
C6
  8
0
 10
96.046295999999998
 20
34.549653999999997
 30
0.0
 11
96.046295999999998
 21
44.54965399999999
 31
0.0
  0
LINE
  5
C7
  8
0
 10
73.157170999999991
 20
36.049653999999997
 30
0.0
 11
73.157170999999991
 21
43.249653999999992
 31
0.0
  0
LINE
  5
C8
  8
0
 10
84.657170999999991
 20
34.549653999999997
 30
0.0
 11
81.023195999999984
 21
34.549653999999997
 31
0.0
  0
LINE
  5
C9
  8
0
 10
80.272641000000007
 20
35.849654000000001
 30
0.0
 11
81.023195999999984
 21
34.549653999999997
 31
0.0
  0
LINE
  5
CA
  8
0
 10
80.272641000000007
 20
43.249653999999992
 30
0.0
 11
81.023195999999984
 21
44.54965399999999
 31
0.0
  0
LINE
  5
CB
  8
0
 10
84.657170999999991
 20
44.54965399999999
 30
0.0
 11
81.023195999999984
 21
44.54965399999999
 31
0.0
  0
LINE
  5
CC
  8
0
 10
69.657170999999991
 20
42.528928000000001
 30
0.0
 11
69.657170999999991
 21
36.570379000000003
 31
0.0
  0
LINE
  5
CD
  8
1
 10
67.157170999999991
 20
39.549653999999997
 30
0.0
 11
117.15717100000001
 21
39.549653999999997
 31
0.0
  0
LINE
  5
CE
  8
0
 10
87.657170999999991
 20
42.54965399999999
 30
0.0
 11
87.657170999999991
 21
36.549653999999997
 31
0.0
  0
LINE
  5
CF
  8
0
 10
114.65717100000001
 20
41.549653999999997
 30
0.0
 11
114.65717100000001
 21
37.549653999999997
 31
0.0
  0
LINE
  5
D0
  8
0
 10
85.657170999999977
 20
36.549653999999997
 30
0.0
 11
91.046295999999998
 21
36.549653999999997
 31
0.0
  0
LINE
  5
D1
  8
3
 10
87.657170999999991
 20
37.091154000000003
 30
0.0
 11
91.046295999999998
 21
37.091154000000003
 31
0.0
  0
LINE
  5
D2
  8
3
 10
87.657170999999991
 20
42.00815399999999
 30
0.0
 11
91.046295999999998
 21
42.00815399999999
 31
0.0
  0
LINE
  5
D3
  8
0
 10
85.657170999999977
 20
42.54965399999999
 30
0.0
 11
91.046295999999998
 21
42.54965399999999
 31
0.0
  0
LINE
  5
D4
  8
0
 10
113.65717100000001
 20
42.54965399999999
 30
0.0
 11
114.65717100000001
 21
41.549653999999997
 31
0.0
  0
LINE
  5
D5
  8
0
 10
114.65717100000001
 20
37.549653999999997
 30
0.0
 11
113.65717100000001
 21
36.549653999999997
 31
0.0
  0
LINE
  5
D6
  8
0
 10
113.65717100000001
 20
36.549653999999997
 30
0.0
 11
113.65717100000001
 21
42.54965399999999
 31
0.0
  0
LINE
  5
D7
  8
3
 10
87.657170999999991
 20
42.00815399999999
 30
0.0
 11
86.719266000000005
 21
42.54965399999999
 31
0.0
  0
LINE
  5
D8
  8
3
 10
87.657170999999991
 20
37.091154000000003
 30
0.0
 11
86.719266000000005
 21
36.549653999999997
 31
0.0
  0
LINE
  5
D9
  8
0
 10
96.046295999999998
 20
42.54965399999999
 30
0.0
 11
113.65717100000001
 21
42.54965399999999
 31
0.0
  0
LINE
  5
DA
  8
0
 10
96.046295999999998
 20
36.549653999999997
 30
0.0
 11
113.65717100000001
 21
36.549653999999997
 31
0.0
  0
LINE
  5
DB
  8
0
 10
84.657170999999991
 20
34.549653999999997
 30
0.0
 11
84.657170999999991
 21
44.54965399999999
 31
0.0
  0
ARC
  5
DC
  8
0
 10
85.657170999999977
 20
43.549653999999997
 30
0.0
 40
1.0
 50
180.0
 51
270.0
  0
ARC
  5
DD
  8
0
 10
85.657170999999977
 20
35.549653999999997
 30
0.0
 40
1.0
 50
90.0
 51
180.0
  0
LINE
  5
DE
  8
1
 10
74.157170999999991
 20
46.449653999999988
 30
0.0
 11
74.157170999999991
 21
32.649653999999998
 31
0.0
  0
TEXT
  5
1F6
  8
0
 62
     3
 10
0.0
 20
0.0
 30
0.0
 40
10.0
  1
CBS1-35-L
  7
STANDARD1
  0
ENDSEC
  0
EOF
