  0
SECTION
  2
HEADER
  9
$ACADVER
  1
AC1009
  9
$INSBASE
 10
0.0
 20
0.0
 30
0.0
  9
$EXTMIN
 10
0.0
 20
-2.960436562073669
 30
0.0
  9
$EXTMAX
 10
668.39077300000008
 20
449.25867699999992
 30
0.0
  9
$LIMMIN
 10
0.0
 20
0.0
  9
$LIMMAX
 10
750.0
 20
540.0
  9
$ORTHOMODE
 70
     1
  9
$REGENMODE
 70
     1
  9
$FILLMODE
 70
     1
  9
$QTEXTMODE
 70
     0
  9
$MIRRTEXT
 70
     0
  9
$DRAGMODE
 70
     2
  9
$LTSCALE
 40
20.0
  9
$OSMODE
 70
  3071
  9
$ATTMODE
 70
     1
  9
$TEXTSIZE
 40
8.0
  9
$TRACEWID
 40
0.05
  9
$TEXTSTYLE
  7
K80
  9
$CLAYER
  8
0
  9
$CELTYPE
  6
BYLAYER
  9
$CECOLOR
 62
   256
  9
$DIMSCALE
 40
2.0
  9
$DIMASZ
 40
3.0
  9
$DIMEXO
 40
2.0
  9
$DIMDLI
 40
10.0
  9
$DIMRND
 40
0.0
  9
$DIMDLE
 40
0.0
  9
$DIMEXE
 40
2.0
  9
$DIMTP
 40
0.0
  9
$DIMTM
 40
0.0
  9
$DIMTXT
 40
3.2000000000000002
  9
$DIMCEN
 40
0.0
  9
$DIMTSZ
 40
0.0
  9
$DIMTOL
 70
     0
  9
$DIMLIM
 70
     0
  9
$DIMTIH
 70
     0
  9
$DIMTOH
 70
     0
  9
$DIMSE1
 70
     0
  9
$DIMSE2
 70
     0
  9
$DIMTAD
 70
     1
  9
$DIMZIN
 70
     0
  9
$DIMBLK
  1

  9
$DIMASO
 70
     0
  9
$DIMSHO
 70
     0
  9
$DIMPOST
  1

  9
$DIMAPOST
  1

  9
$DIMALT
 70
     0
  9
$DIMALTD
 70
     2
  9
$DIMALTF
 40
25.399999999999999
  9
$DIMLFAC
 40
1.0
  9
$DIMTOFL
 70
     1
  9
$DIMTVP
 40
1.6000000000000001
  9
$DIMTIX
 70
     1
  9
$DIMSOXD
 70
     0
  9
$DIMSAH
 70
     0
  9
$DIMBLK1
  1

  9
$DIMBLK2
  1

  9
$DIMSTYLE
  2
STANDARD
  9
$DIMCLRD
 70
     0
  9
$DIMCLRE
 70
     0
  9
$DIMCLRT
 70
     0
  9
$DIMTFAC
 40
1.0
  9
$DIMGAP
 40
0.09
  9
$LUNITS
 70
     2
  9
$LUPREC
 70
     4
  9
$SKETCHINC
 40
0.1
  9
$FILLETRAD
 40
0.0
  9
$AUNITS
 70
     0
  9
$AUPREC
 70
     4
  9
$MENU
  1
E:\r13\win\SUPPORT\ACAD
  9
$ELEVATION
 40
0.0
  9
$PELEVATION
 40
0.0
  9
$THICKNESS
 40
0.0
  9
$LIMCHECK
 70
     0
  9
$BLIPMODE
 70
     0
  9
$CHAMFERA
 40
0.0
  9
$CHAMFERB
 40
0.0
  9
$SKPOLY
 70
     0
  9
$TDCREATE
 40
2449839.7788425931
  9
$TDUPDATE
 40
2456598.5783162038
  9
$TDINDWG
 40
0.0002056944
  9
$TDUSRTIMER
 40
0.0002056944
  9
$USRTIMER
 70
     1
  9
$ANGBASE
 50
0.0
  9
$ANGDIR
 70
     0
  9
$PDMODE
 70
    35
  9
$PDSIZE
 40
0.0
  9
$PLINEWID
 40
0.0
  9
$COORDS
 70
     1
  9
$SPLFRAME
 70
     0
  9
$SPLINETYPE
 70
     6
  9
$SPLINESEGS
 70
     8
  9
$ATTDIA
 70
     0
  9
$ATTREQ
 70
     1
  9
$HANDLING
 70
     1
  9
$HANDSEED
  5
34A
  9
$SURFTAB1
 70
     6
  9
$SURFTAB2
 70
     6
  9
$SURFTYPE
 70
     6
  9
$SURFU
 70
     6
  9
$SURFV
 70
     6
  9
$UCSNAME
  2

  9
$UCSORG
 10
0.0
 20
0.0
 30
0.0
  9
$UCSXDIR
 10
1.0
 20
0.0
 30
0.0
  9
$UCSYDIR
 10
0.0
 20
1.0
 30
0.0
  9
$PUCSNAME
  2

  9
$PUCSORG
 10
0.0
 20
0.0
 30
0.0
  9
$PUCSXDIR
 10
1.0
 20
0.0
 30
0.0
  9
$PUCSYDIR
 10
0.0
 20
1.0
 30
0.0
  9
$USERI1
 70
     0
  9
$USERI2
 70
     1
  9
$USERI3
 70
     0
  9
$USERI4
 70
     0
  9
$USERI5
 70
     0
  9
$USERR1
 40
0.0
  9
$USERR2
 40
0.0
  9
$USERR3
 40
0.0
  9
$USERR4
 40
0.0
  9
$USERR5
 40
0.0
  9
$WORLDVIEW
 70
     1
  9
$SHADEDGE
 70
     3
  9
$SHADEDIF
 70
    70
  9
$TILEMODE
 70
     1
  9
$MAXACTVP
 70
    16
  9
$PLIMCHECK
 70
     0
  9
$PEXTMIN
 10
1.0000000000000000E+020
 20
1.0000000000000000E+020
 30
1.0000000000000000E+020
  9
$PEXTMAX
 10
-1.0000000000000000E+020
 20
-1.0000000000000000E+020
 30
-1.0000000000000000E+020
  9
$PLIMMIN
 10
0.0
 20
0.0
  9
$PLIMMAX
 10
12.0
 20
9.0
  9
$UNITMODE
 70
     0
  9
$VISRETAIN
 70
     0
  9
$PLINEGEN
 70
     0
  9
$PSLTSCALE
 70
     0
  0
ENDSEC
  0
SECTION
  2
TABLES
  0
TABLE
  2
VPORT
 70
     1
  0
VPORT
  2
*ACTIVE
 70
     0
 10
0.0
 20
0.0
 11
1.0
 21
1.0
 12
390.03402345615979
 22
268.50860658393782
 13
0.0
 23
0.0
 14
20.0
 24
20.0
 15
20.0
 25
20.0
 16
0.0
 26
0.0
 36
1.0
 17
0.0
 27
0.0
 37
0.0
 40
547.85258761088789
 41
1.831871345029239
 42
50.0
 43
0.0
 44
0.0
 50
0.0
 51
0.0
 71
     0
 72
   100
 73
     1
 74
     0
 75
     0
 76
     0
 77
     0
 78
     2
  0
ENDTAB
  0
TABLE
  2
LTYPE
 70
     4
  0
LTYPE
  2
CONTINUOUS
 70
     0
  3
Solid Line
 72
    65
 73
     0
 40
0.0
  0
LTYPE
  2
CENTER
 70
     0
  3
____ _ ____ _ ____ _ ____ _ ____ _ ____ _ ____
 72
    65
 73
     4
 40
2.0
 49
1.25
 49
-0.25
 49
0.25
 49
-0.25
  0
LTYPE
  2
HIDDEN
 70
     0
  3
_ _ _ _ _ _ _ _ _ _ _ _ _ _ _ _ _ _ _ _ _ _ _
 72
    65
 73
     2
 40
0.375
 49
0.25
 49
-0.125
  0
LTYPE
  2
PHANTOM2
 70
     0
  3
___ _ _ ___ _ _ ___ _ _ ___ _ _
 72
    65
 73
     6
 40
1.25
 49
0.625
 49
-0.125
 49
0.125
 49
-0.125
 49
0.125
 49
-0.125
  0
ENDTAB
  0
TABLE
  2
LAYER
 70
     4
  0
LAYER
  2
0
 70
     0
 62
     7
  6
CONTINUOUS
  0
LAYER
  2
1
 70
     0
 62
     1
  6
CENTER
  0
LAYER
  2
2
 70
     0
 62
     2
  6
HIDDEN
  0
LAYER
  2
3
 70
     0
 62
     3
  6
CONTINUOUS
  0
ENDTAB
  0
TABLE
  2
STYLE
 70
     3
  0
STYLE
  2
STANDARD
 70
     0
 40
0.0
 41
1.0
 50
0.0
 71
     0
 42
8.0
  3
ROMANS
  4

  0
STYLE
  2
K80
 70
     0
 40
0.0
 41
1.0
 50
0.0
 71
     0
 42
8.0
  3
romans.shx
  4

  0
STYLE
  2
STANDARD1
 70
     0
 40
0.0
 41
1.0
 50
0.0
 71
     0
 42
3.0
  3
txt
  4

  0
ENDTAB
  0
TABLE
  2
VIEW
 70
     1
  0
VIEW
  2
ALL
 70
     0
 40
540.0
 10
441.98319299999991
 20
270.0
 41
0.0
 11
0.0
 21
0.0
 31
1.0
 12
0.0
 22
0.0
 32
0.0
 42
0.0
 43
0.0
 44
0.0
 50
0.0
 71
     0
  0
ENDTAB
  0
TABLE
  2
UCS
 70
     0
  0
ENDTAB
  0
TABLE
  2
APPID
 70
     3
  0
APPID
  2
ACAD
 70
     0
  0
APPID
  2
ACAD_MLEADERVER
 70
     0
  0
APPID
  2
ACAD_NAV_VCDISPLAY
 70
     0
  0
ENDTAB
  0
TABLE
  2
DIMSTYLE
 70
     1
  0
DIMSTYLE
  2
STANDARD
 70
     0
  3

  4

  5

  6

  7

 40
1.0
 41
0.18
 42
0.0625
 43
0.38
 44
0.18
 45
0.0
 46
0.0
 47
0.0
 48
0.0
140
0.18
141
0.09
142
0.0
143
25.399999999999999
144
1.0
145
0.0
146
1.0
147
0.09
 71
     0
 72
     0
 73
     1
 74
     1
 75
     0
 76
     0
 77
     0
 78
     0
170
     0
171
     2
172
     0
173
     0
174
     0
175
     0
176
     0
177
     0
178
     0
  0
ENDTAB
  0
ENDSEC
  0
SECTION
  2
BLOCKS
  0
BLOCK
  8
0
  2
$MODEL_SPACE
 70
     0
 10
0.0
 20
0.0
 30
0.0
  3
$MODEL_SPACE
  1

  0
ENDBLK
  5
1F5
  8
0
  0
BLOCK
 67
     1
  8
0
  2
$PAPER_SPACE
 70
     0
 10
0.0
 20
0.0
 30
0.0
  3
$PAPER_SPACE
  1

  0
ENDBLK
  5
1F3
 67
     1
  8
0
  0
ENDSEC
  0
SECTION
  2
ENTITIES
  0
LINE
  5
37
  8
1
 10
229.004426
 20
404.20867700000002
 30
0.0
 11
229.004426
 21
449.25867699999992
 31
0.0
  0
LINE
  5
38
  8
0
 10
272.00442600000002
 20
416.733677
 30
0.0
 11
272.00442600000002
 21
436.73367699999989
 31
0.0
  0
LINE
  5
39
  8
0
 10
265.00442600000002
 20
436.73367699999989
 30
0.0
 11
275.00442600000002
 21
436.73367699999989
 31
0.0
  0
LINE
  5
3A
  8
3
 10
272.00442600000002
 20
435.38067699999988
 30
0.0
 11
275.00442600000002
 21
435.38067699999988
 31
0.0
  0
LINE
  5
3B
  8
3
 10
272.00442600000002
 20
418.0866769999999
 30
0.0
 11
275.00442600000002
 21
418.0866769999999
 31
0.0
  0
LINE
  5
3C
  8
0
 10
265.00442600000002
 20
416.733677
 30
0.0
 11
275.00442600000002
 21
416.733677
 31
0.0
  0
ARC
  5
3D
  8
0
 10
265.00442600000002
 20
415.73367699999989
 30
0.0
 40
1.0
 50
90.0
 51
180.0
  0
ARC
  5
3E
  8
0
 10
265.00442600000002
 20
437.73367699999989
 30
0.0
 40
1.0
 50
180.0
 51
270.0
  0
LINE
  5
3F
  8
0
 10
214.004426
 20
416.00717999999989
 30
0.0
 11
214.004426
 21
437.46017399999999
 31
0.0
  0
LINE
  5
40
  8
0
 10
224.004426
 20
412.98367699999989
 30
0.0
 11
224.004426
 21
440.48367699999989
 31
0.0
  0
LINE
  5
41
  8
0
 10
264.00442600000002
 20
442.23367699999989
 30
0.0
 11
263.00442600000002
 21
443.23367699999989
 31
0.0
  0
LINE
  5
42
  8
0
 10
263.00442600000002
 20
410.23367699999989
 30
0.0
 11
264.00442600000002
 21
411.23367699999989
 31
0.0
  0
LINE
  5
43
  8
0
 10
264.00442600000002
 20
411.23367699999989
 30
0.0
 11
264.00442600000002
 21
442.23367699999989
 31
0.0
  0
LINE
  5
44
  8
0
 10
263.00442600000002
 20
410.23367699999989
 30
0.0
 11
263.00442600000002
 21
443.23367699999989
 31
0.0
  0
LINE
  5
45
  8
0
 10
246.148763
 20
440.48367699999989
 30
0.0
 11
247.73647600000001
 21
443.23367699999989
 31
0.0
  0
LINE
  5
46
  8
0
 10
246.148763
 20
412.98367699999989
 30
0.0
 11
247.73647600000001
 21
410.23367699999989
 31
0.0
  0
LINE
  5
47
  8
0
 10
247.73647600000001
 20
443.23367699999989
 30
0.0
 11
263.00442600000002
 21
443.23367699999989
 31
0.0
  0
LINE
  5
48
  8
0
 10
247.73647600000001
 20
410.23367699999989
 30
0.0
 11
263.00442600000002
 21
410.23367699999989
 31
0.0
  0
CIRCLE
  5
49
  8
0
 10
105.78589100000001
 20
279.60248200000001
 30
0.0
 40
16.5
  0
CIRCLE
  5
4A
  8
0
 10
105.78589100000001
 20
279.60248200000001
 30
0.0
 40
10.726497
  0
LINE
  5
4B
  8
1
 10
127.28589100000001
 20
279.60248200000001
 30
0.0
 11
84.285891000000007
 21
279.60248200000001
 31
0.0
  0
LINE
  5
4C
  8
1
 10
105.78589100000001
 20
301.10248200000001
 30
0.0
 11
105.78589100000001
 21
258.10248200000001
 31
0.0
  0
LINE
  5
4D
  8
0
 10
291.00442600000002
 20
411.73367699999989
 30
0.0
 11
291.00442600000002
 21
441.73367699999989
 31
0.0
  0
ARC
  5
4E
  8
0
 10
296.95576
 20
434.23367699999989
 30
0.0
 40
21.662659000000001
 50
159.743842
 51
200.256158
  0
LINE
  5
4F
  8
0
 10
275.00442600000002
 20
441.23367699999989
 30
0.0
 11
275.29310099999998
 21
441.73367699999989
 31
0.0
  0
LINE
  5
50
  8
0
 10
275.29310099999998
 20
441.73367699999989
 30
0.0
 11
291.00442600000002
 21
441.73367699999989
 31
0.0
  0
LINE
  5
51
  8
0
 10
275.29310099999998
 20
411.73367699999989
 30
0.0
 11
291.00442600000002
 21
411.73367699999989
 31
0.0
  0
LINE
  5
52
  8
0
 10
275.00442600000002
 20
412.233677
 30
0.0
 11
275.29310099999998
 21
411.73367699999989
 31
0.0
  0
ARC
  5
53
  8
0
 10
296.95576
 20
419.23367699999989
 30
0.0
 40
21.662659000000001
 50
159.743842
 51
200.256158
  0
LINE
  5
54
  8
0
 10
275.00442600000002
 20
412.233677
 30
0.0
 11
275.00442600000002
 21
441.23367699999989
 31
0.0
  0
LINE
  5
55
  8
0
 10
276.63284700000003
 20
426.73367699999989
 30
0.0
 11
291.00442600000002
 21
426.73367699999989
 31
0.0
  0
TEXT
  5
56
  8
0
 10
428.8404438571427
 20
277.35248200000001
 30
0.0
 40
4.5
  1
L
 72
     4
 11
430.98330099999998
 21
279.60248200000001
 31
0.0
  0
LINE
  5
57
  8
0
 10
441.00442599999991
 20
265.10248200000001
 30
0.0
 11
439.37600500000002
 21
262.2819740000001
 31
0.0
  0
ARC
  5
58
  8
0
 10
433.04828199999997
 20
266.612101
 30
0.0
 40
7.6674679999999986
 50
334.38424700000002
 51
34.384247000000002
  0
ARC
  5
59
  8
0
 10
433.04828199999997
 20
266.612101
 30
0.0
 40
7.6674679999999986
 50
325.61575299999998
 51
325.61575299999998
  0
ARC
  5
5A
  8
0
 10
412.05549599999989
 20
279.60248200000001
 30
0.0
 40
28.660253999999998
 50
342.41204599999998
 51
17.587954
  0
ARC
  5
5B
  8
0
 10
433.04828199999997
 20
292.59286299999991
 30
0.0
 40
7.6674679999999986
 50
34.384247000000002
 51
34.384247000000002
  0
ARC
  5
5C
  8
0
 10
433.04828199999997
 20
292.59286299999991
 30
0.0
 40
7.6674679999999986
 50
325.61575299999998
 51
25.615753000000002
  0
LINE
  5
5D
  8
0
 10
441.00442599999991
 20
294.10248200000001
 30
0.0
 11
439.37600500000002
 21
296.92299000000003
 31
0.0
  0
LINE
  5
5E
  8
0
 10
441.00442599999991
 20
265.10248200000001
 30
0.0
 11
441.00442599999991
 21
294.10248200000001
 31
0.0
  0
LINE
  5
5F
  8
0
 10
291.00442600000002
 20
265.10248200000001
 30
0.0
 11
291.00442600000002
 21
294.10248200000001
 31
0.0
  0
LINE
  5
60
  8
0
 10
291.00442600000002
 20
294.10248200000001
 30
0.0
 11
292.63284700000008
 21
296.92299000000003
 31
0.0
  0
ARC
  5
61
  8
0
 10
298.96056900000002
 20
292.59286299999991
 30
0.0
 40
7.6674679999999986
 50
154.38424699999999
 51
214.38424699999999
  0
ARC
  5
62
  8
0
 10
298.96056900000002
 20
292.59286299999991
 30
0.0
 40
7.6674679999999986
 50
145.61575300000001
 51
145.61575300000001
  0
LINE
  5
63
  8
0
 10
292.63284700000008
 20
296.92299000000003
 30
0.0
 11
439.37600500000002
 21
296.92299000000003
 31
0.0
  0
LINE
  5
64
  8
0
 10
292.63284700000008
 20
262.2819740000001
 30
0.0
 11
439.37600500000002
 21
262.2819740000001
 31
0.0
  0
ARC
  5
65
  8
0
 10
319.95335499999999
 20
279.60248200000001
 30
0.0
 40
28.660253999999998
 50
162.412046
 51
197.587954
  0
ARC
  5
66
  8
0
 10
298.96056900000002
 20
266.612101
 30
0.0
 40
7.6674679999999986
 50
214.38424699999999
 51
214.38424699999999
  0
ARC
  5
67
  8
0
 10
298.96056900000002
 20
266.612101
 30
0.0
 40
7.6674679999999986
 50
145.61575300000001
 51
205.61575300000001
  0
LINE
  5
68
  8
0
 10
291.00442600000002
 20
265.10248200000001
 30
0.0
 11
292.63284700000008
 21
262.2819740000001
 31
0.0
  0
LINE
  5
69
  8
2
 10
441.00442599999991
 20
269.60248200000001
 30
0.0
 11
370.50442600000002
 21
269.60248200000001
 31
0.0
  0
LINE
  5
6A
  8
2
 10
441.00442599999991
 20
270.95548200000002
 30
0.0
 11
369.1514259999999
 21
270.95548200000002
 31
0.0
  0
LINE
  5
6B
  8
2
 10
441.00442599999991
 20
288.249482
 30
0.0
 11
369.1514259999999
 21
288.249482
 31
0.0
  0
LINE
  5
6C
  8
2
 10
441.00442599999991
 20
289.60248200000001
 30
0.0
 11
370.50442600000002
 21
289.60248200000001
 31
0.0
  0
LINE
  5
6D
  8
0
 10
457.00442599999991
 20
265.10248200000001
 30
0.0
 11
457.00442599999991
 21
294.10248200000001
 31
0.0
  0
LINE
  5
6E
  8
0
 10
457.00442599999991
 20
294.10248200000001
 30
0.0
 11
455.37600500000002
 21
296.92299000000003
 31
0.0
  0
ARC
  5
6F
  8
0
 10
449.04828199999997
 20
292.59286299999991
 30
0.0
 40
7.6674679999999986
 50
325.61575299999998
 51
25.615753000000002
  0
ARC
  5
70
  8
0
 10
449.04828199999997
 20
292.59286299999991
 30
0.0
 40
7.6674679999999986
 50
34.384247000000002
 51
34.384247000000002
  0
LINE
  5
71
  8
0
 10
455.37600500000002
 20
296.92299000000003
 30
0.0
 11
441.00442599999991
 21
296.92299000000003
 31
0.0
  0
LINE
  5
72
  8
0
 10
441.00442599999991
 20
288.26273600000002
 30
0.0
 11
455.37600500000002
 21
288.26273600000002
 31
0.0
  0
LINE
  5
73
  8
0
 10
441.00442599999991
 20
270.942228
 30
0.0
 11
455.37600500000002
 21
270.942228
 31
0.0
  0
LINE
  5
74
  8
0
 10
455.37600500000002
 20
262.2819740000001
 30
0.0
 11
441.00442599999991
 21
262.2819740000001
 31
0.0
  0
ARC
  5
75
  8
0
 10
428.05549599999989
 20
279.60248200000001
 30
0.0
 40
28.660253999999998
 50
342.41204599999998
 51
17.587954
  0
ARC
  5
76
  8
0
 10
449.04828199999997
 20
266.612101
 30
0.0
 40
7.6674679999999986
 50
325.61575299999998
 51
325.61575299999998
  0
ARC
  5
77
  8
0
 10
449.04828199999997
 20
266.612101
 30
0.0
 40
7.6674679999999986
 50
334.38424700000002
 51
34.384247000000002
  0
LINE
  5
78
  8
0
 10
457.00442599999991
 20
265.10248200000001
 30
0.0
 11
455.37600500000002
 21
262.2819740000001
 31
0.0
  0
LINE
  5
79
  8
0
 10
441.00442599999991
 20
262.2819740000001
 30
0.0
 11
441.00442599999991
 21
296.92299000000003
 31
0.0
  0
LINE
  5
7A
  8
0
 10
518.00442599999985
 20
268.8759839999999
 30
0.0
 11
518.00442599999985
 21
290.328979
 31
0.0
  0
LINE
  5
7B
  8
0
 10
508.00442600000002
 20
263.10248200000001
 30
0.0
 11
469.00442599999991
 21
263.10248200000001
 31
0.0
  0
LINE
  5
7C
  8
0
 10
508.00442600000002
 20
296.10248200000001
 30
0.0
 11
469.00442599999991
 21
296.10248200000001
 31
0.0
  0
LINE
  5
7D
  8
0
 10
486.00442599999991
 20
270.11564900000002
 30
0.0
 11
486.00442599999991
 21
289.089315
 31
0.0
  0
LINE
  5
7E
  8
0
 10
469.00442599999991
 20
263.10248200000001
 30
0.0
 11
469.00442599999991
 21
296.10248200000001
 31
0.0
  0
LINE
  5
7F
  8
0
 10
468.00442599999991
 20
264.10248200000001
 30
0.0
 11
468.00442599999991
 21
295.10248200000001
 31
0.0
  0
LINE
  5
80
  8
0
 10
469.00442599999991
 20
263.10248200000001
 30
0.0
 11
468.00442599999991
 21
264.10248200000001
 31
0.0
  0
LINE
  5
81
  8
0
 10
468.00442599999991
 20
295.10248200000001
 30
0.0
 11
469.00442599999991
 21
296.10248200000001
 31
0.0
  0
LINE
  5
82
  8
0
 10
486.00442599999991
 20
270.11564900000002
 30
0.0
 11
508.00442600000002
 21
270.11564900000002
 31
0.0
  0
LINE
  5
83
  8
0
 10
486.00442599999991
 20
289.089315
 30
0.0
 11
508.00442600000002
 21
289.089315
 31
0.0
  0
ARC
  5
84
  8
0
 10
511.11916200000002
 20
279.60248200000001
 30
0.0
 40
26.846788
 50
159.30645899999999
 51
200.69354100000001
  0
LINE
  5
85
  8
0
 10
508.00442600000002
 20
263.10248200000001
 30
0.0
 11
518.00442599999985
 21
268.8759839999999
 31
0.0
  0
LINE
  5
86
  8
0
 10
508.00442600000002
 20
296.10248200000001
 30
0.0
 11
518.00442599999985
 21
290.328979
 31
0.0
  0
ARC
  5
87
  8
0
 10
501.94224800000012
 20
279.60248200000001
 30
0.0
 40
11.258330000000001
 50
302.57897000000003
 51
57.421030000000002
  0
LINE
  5
88
  8
0
 10
508.00442600000002
 20
263.10248200000001
 30
0.0
 11
508.00442600000002
 21
270.11564900000002
 31
0.0
  0
LINE
  5
89
  8
0
 10
508.00442600000002
 20
289.089315
 30
0.0
 11
508.00442600000002
 21
296.10248200000001
 31
0.0
  0
LINE
  5
8A
  8
0
 10
460.00442599999991
 20
269.60248200000001
 30
0.0
 11
460.00442599999991
 21
289.60248200000001
 31
0.0
  0
LINE
  5
8B
  8
2
 10
370.50442600000002
 20
289.60248200000001
 30
0.0
 11
370.50442600000002
 21
269.60248200000001
 31
0.0
  0
LINE
  5
8C
  8
2
 10
368.00442600000002
 20
272.10248200000001
 30
0.0
 11
370.50442600000002
 21
269.60248200000001
 31
0.0
  0
LINE
  5
8D
  8
2
 10
370.50442600000002
 20
289.60248200000001
 30
0.0
 11
368.00442600000002
 21
287.10248200000001
 31
0.0
  0
LINE
  5
8E
  8
0
 10
467.00442600000002
 20
289.60248200000001
 30
0.0
 11
457.00442599999991
 21
289.60248200000001
 31
0.0
  0
LINE
  5
8F
  8
3
 10
460.00442599999991
 20
288.249482
 30
0.0
 11
457.00442599999991
 21
288.249482
 31
0.0
  0
LINE
  5
90
  8
3
 10
460.00442599999991
 20
270.95548200000002
 30
0.0
 11
457.00442599999991
 21
270.95548200000002
 31
0.0
  0
LINE
  5
91
  8
0
 10
467.00442600000002
 20
269.60248200000001
 30
0.0
 11
457.00442599999991
 21
269.60248200000001
 31
0.0
  0
LINE
  5
92
  8
2
 10
368.00442600000002
 20
287.10248200000001
 30
0.0
 11
368.00442600000002
 21
272.10248200000001
 31
0.0
  0
ARC
  5
93
  8
0
 10
467.00442600000002
 20
268.60248200000001
 30
0.0
 40
1.0
 50
0.0
 51
90.0
  0
ARC
  5
94
  8
0
 10
467.00442600000002
 20
290.60248200000001
 30
0.0
 40
1.0
 50
270.0
 51
0.0
  0
LINE
  5
95
  8
1
 10
503.00442599999991
 20
292.06950799999998
 30
0.0
 11
503.00442599999991
 21
267.13545499999998
 31
0.0
  0
ARC
  5
96
  8
0
 10
265.00442600000002
 20
290.60248200000001
 30
0.0
 40
1.0
 50
180.0
 51
270.0
  0
ARC
  5
97
  8
0
 10
265.00442600000002
 20
268.60248200000001
 30
0.0
 40
1.0
 50
90.0
 51
180.0
  0
LINE
  5
98
  8
2
 10
364.00442600000002
 20
287.10248200000001
 30
0.0
 11
364.00442600000002
 21
272.10248200000001
 31
0.0
  0
LINE
  5
99
  8
0
 10
265.00442600000002
 20
269.60248200000001
 30
0.0
 11
275.00442600000002
 21
269.60248200000001
 31
0.0
  0
LINE
  5
9A
  8
3
 10
272.00442600000002
 20
270.95548200000002
 30
0.0
 11
275.00442600000002
 21
270.95548200000002
 31
0.0
  0
LINE
  5
9B
  8
3
 10
272.00442600000002
 20
288.249482
 30
0.0
 11
275.00442600000002
 21
288.249482
 31
0.0
  0
LINE
  5
9C
  8
0
 10
265.00442600000002
 20
289.60248200000001
 30
0.0
 11
275.00442600000002
 21
289.60248200000001
 31
0.0
  0
LINE
  5
9D
  8
2
 10
361.50442600000002
 20
289.60248200000001
 30
0.0
 11
364.00442600000002
 21
287.10248200000001
 31
0.0
  0
LINE
  5
9E
  8
2
 10
364.00442600000002
 20
272.10248200000001
 30
0.0
 11
361.50442600000002
 21
269.60248200000001
 31
0.0
  0
LINE
  5
9F
  8
2
 10
361.50442600000002
 20
289.60248200000001
 30
0.0
 11
361.50442600000002
 21
269.60248200000001
 31
0.0
  0
LINE
  5
A0
  8
0
 10
272.00442600000002
 20
269.60248200000001
 30
0.0
 11
272.00442600000002
 21
289.60248200000001
 31
0.0
  0
LINE
  5
A1
  8
0
 10
224.004426
 20
289.089315
 30
0.0
 11
224.004426
 21
296.10248200000001
 31
0.0
  0
LINE
  5
A2
  8
0
 10
224.004426
 20
263.10248200000001
 30
0.0
 11
224.004426
 21
270.11564900000002
 31
0.0
  0
ARC
  5
A3
  8
0
 10
230.06660299999999
 20
279.60248200000001
 30
0.0
 40
11.258330000000001
 50
122.57897
 51
237.42103
  0
LINE
  5
A4
  8
0
 10
224.004426
 20
296.10248200000001
 30
0.0
 11
214.004426
 21
290.328979
 31
0.0
  0
LINE
  5
A5
  8
0
 10
224.004426
 20
263.10248200000001
 30
0.0
 11
214.004426
 21
268.8759839999999
 31
0.0
  0
ARC
  5
A6
  8
0
 10
220.889689
 20
279.60248200000001
 30
0.0
 40
26.846788
 50
339.30645900000002
 51
20.693541
  0
LINE
  5
A7
  8
0
 10
246.004426
 20
289.089315
 30
0.0
 11
224.004426
 21
289.089315
 31
0.0
  0
LINE
  5
A8
  8
0
 10
246.004426
 20
270.11564900000002
 30
0.0
 11
224.004426
 21
270.11564900000002
 31
0.0
  0
LINE
  5
A9
  8
0
 10
264.00442600000002
 20
295.10248200000001
 30
0.0
 11
263.00442600000002
 21
296.10248200000001
 31
0.0
  0
LINE
  5
AA
  8
0
 10
263.00442600000002
 20
263.10248200000001
 30
0.0
 11
264.00442600000002
 21
264.10248200000001
 31
0.0
  0
LINE
  5
AB
  8
0
 10
264.00442600000002
 20
264.10248200000001
 30
0.0
 11
264.00442600000002
 21
295.10248200000001
 31
0.0
  0
LINE
  5
AC
  8
0
 10
263.00442600000002
 20
263.10248200000001
 30
0.0
 11
263.00442600000002
 21
296.10248200000001
 31
0.0
  0
LINE
  5
AD
  8
0
 10
246.004426
 20
270.11564900000002
 30
0.0
 11
246.004426
 21
289.089315
 31
0.0
  0
LINE
  5
AE
  8
0
 10
224.004426
 20
296.10248200000001
 30
0.0
 11
263.00442600000002
 21
296.10248200000001
 31
0.0
  0
LINE
  5
AF
  8
0
 10
224.004426
 20
263.10248200000001
 30
0.0
 11
263.00442600000002
 21
263.10248200000001
 31
0.0
  0
LINE
  5
B0
  8
0
 10
214.004426
 20
268.8759839999999
 30
0.0
 11
214.004426
 21
290.328979
 31
0.0
  0
LINE
  5
B1
  8
0
 10
291.00442600000002
 20
262.2819740000001
 30
0.0
 11
291.00442600000002
 21
296.92299000000003
 31
0.0
  0
LINE
  5
B2
  8
0
 10
275.00442600000002
 20
265.10248200000001
 30
0.0
 11
276.63284700000003
 21
262.2819740000001
 31
0.0
  0
ARC
  5
B3
  8
0
 10
282.96056900000002
 20
266.612101
 30
0.0
 40
7.6674679999999986
 50
145.61575300000001
 51
205.61575300000001
  0
ARC
  5
B4
  8
0
 10
282.96056900000002
 20
266.612101
 30
0.0
 40
7.6674679999999986
 50
214.38424699999999
 51
214.38424699999999
  0
ARC
  5
B5
  8
0
 10
303.95335499999999
 20
279.60248200000001
 30
0.0
 40
28.660253999999998
 50
162.412046
 51
197.587954
  0
LINE
  5
B6
  8
0
 10
276.63284700000003
 20
262.2819740000001
 30
0.0
 11
291.00442600000002
 21
262.2819740000001
 31
0.0
  0
LINE
  5
B7
  8
0
 10
291.00442600000002
 20
270.942228
 30
0.0
 11
276.63284700000003
 21
270.942228
 31
0.0
  0
LINE
  5
B8
  8
0
 10
291.00442600000002
 20
288.26273600000002
 30
0.0
 11
276.63284700000003
 21
288.26273600000002
 31
0.0
  0
LINE
  5
B9
  8
0
 10
276.63284700000003
 20
296.92299000000003
 30
0.0
 11
291.00442600000002
 21
296.92299000000003
 31
0.0
  0
ARC
  5
BA
  8
0
 10
282.96056900000002
 20
292.59286299999991
 30
0.0
 40
7.6674679999999986
 50
145.61575300000001
 51
145.61575300000001
  0
ARC
  5
BB
  8
0
 10
282.96056900000002
 20
292.59286299999991
 30
0.0
 40
7.6674679999999986
 50
154.38424699999999
 51
214.38424699999999
  0
LINE
  5
BC
  8
0
 10
275.00442600000002
 20
294.10248200000001
 30
0.0
 11
276.63284700000003
 21
296.92299000000003
 31
0.0
  0
LINE
  5
BD
  8
0
 10
275.00442600000002
 20
265.10248200000001
 30
0.0
 11
275.00442600000002
 21
294.10248200000001
 31
0.0
  0
LINE
  5
BE
  8
2
 10
291.00442600000002
 20
289.60248200000001
 30
0.0
 11
361.50442600000002
 21
289.60248200000001
 31
0.0
  0
LINE
  5
BF
  8
2
 10
291.00442600000002
 20
269.60248200000001
 30
0.0
 11
361.50442600000002
 21
269.60248200000001
 31
0.0
  0
LINE
  5
C0
  8
2
 10
362.85742599999998
 20
288.249482
 30
0.0
 11
291.00442600000002
 21
288.249482
 31
0.0
  0
LINE
  5
C1
  8
2
 10
362.85742599999998
 20
270.95548200000002
 30
0.0
 11
291.00442600000002
 21
270.95548200000002
 31
0.0
  0
LINE
  5
C2
  8
0
 10
439.38020199999988
 20
288.249482
 30
0.0
 11
292.628649
 21
288.249482
 31
0.0
  0
LINE
  5
C3
  8
0
 10
292.628649
 20
270.95548200000002
 30
0.0
 11
439.38020199999988
 21
270.95548200000002
 31
0.0
  0
LINE
  5
C4
  8
0
 10
455.37600500000002
 20
426.73367699999989
 30
0.0
 11
441.00442599999991
 21
426.73367699999989
 31
0.0
  0
LINE
  5
C5
  8
0
 10
457.00442599999991
 20
412.233677
 30
0.0
 11
457.00442599999991
 21
441.23367699999989
 31
0.0
  0
ARC
  5
C6
  8
0
 10
435.05309199999988
 20
419.23367699999989
 30
0.0
 40
21.662659000000001
 50
339.74384199999997
 51
20.256157999999999
  0
LINE
  5
C7
  8
0
 10
457.00442599999991
 20
412.233677
 30
0.0
 11
456.7157509999999
 21
411.73367699999989
 31
0.0
  0
LINE
  5
C8
  8
0
 10
456.7157509999999
 20
411.73367699999989
 30
0.0
 11
441.00442599999991
 21
411.73367699999989
 31
0.0
  0
LINE
  5
C9
  8
0
 10
456.7157509999999
 20
441.73367699999989
 30
0.0
 11
441.00442599999991
 21
441.73367699999989
 31
0.0
  0
LINE
  5
CA
  8
0
 10
457.00442599999991
 20
441.23367699999989
 30
0.0
 11
456.7157509999999
 21
441.73367699999989
 31
0.0
  0
ARC
  5
CB
  8
0
 10
435.05309199999988
 20
434.23367699999989
 30
0.0
 40
21.662659000000001
 50
339.74384199999997
 51
20.256157999999999
  0
LINE
  5
CC
  8
0
 10
441.00442599999991
 20
411.73367699999989
 30
0.0
 11
441.00442599999991
 21
441.73367699999989
 31
0.0
  0
LINE
  5
CD
  8
0
 10
513.20057799999995
 20
413.233677
 30
0.0
 11
486.00442599999991
 21
413.233677
 31
0.0
  0
LINE
  5
CE
  8
0
 10
513.20057799999995
 20
440.23367699999989
 30
0.0
 11
486.00442599999991
 21
440.23367699999989
 31
0.0
  0
LINE
  5
CF
  8
2
 10
498.10442599999999
 20
414.233677
 30
0.0
 11
498.10442599999999
 21
439.23367699999989
 31
0.0
  0
LINE
  5
D0
  8
2
 10
507.90442599999989
 20
414.233677
 30
0.0
 11
507.90442599999989
 21
439.23367699999989
 31
0.0
  0
LINE
  5
D1
  8
2
 10
507.90442599999989
 20
414.233677
 30
0.0
 11
498.10442599999999
 21
414.233677
 31
0.0
  0
LINE
  5
D2
  8
2
 10
507.90442599999989
 20
439.23367699999989
 30
0.0
 11
498.10442599999999
 21
439.23367699999989
 31
0.0
  0
LINE
  5
D3
  8
2
 10
498.10442599999999
 20
414.233677
 30
0.0
 11
497.10442599999999
 21
413.233677
 31
0.0
  0
LINE
  5
D4
  8
2
 10
507.90442599999989
 20
414.233677
 30
0.0
 11
508.904426
 21
413.233677
 31
0.0
  0
LINE
  5
D5
  8
2
 10
508.904426
 20
440.23367699999989
 30
0.0
 11
507.90442599999989
 21
439.23367699999989
 31
0.0
  0
LINE
  5
D6
  8
2
 10
498.10442599999999
 20
439.23367699999989
 30
0.0
 11
497.10442599999999
 21
440.23367699999989
 31
0.0
  0
LINE
  5
D7
  8
0
 10
484.27237500000001
 20
410.23367699999989
 30
0.0
 11
469.00442599999991
 21
410.23367699999989
 31
0.0
  0
LINE
  5
D8
  8
0
 10
484.27237500000001
 20
443.23367699999989
 30
0.0
 11
469.00442599999991
 21
443.23367699999989
 31
0.0
  0
LINE
  5
D9
  8
0
 10
486.00442599999991
 20
413.233677
 30
0.0
 11
484.27237500000001
 21
410.23367699999989
 31
0.0
  0
LINE
  5
DA
  8
0
 10
486.00442599999991
 20
440.23367699999989
 30
0.0
 11
484.27237500000001
 21
443.23367699999989
 31
0.0
  0
LINE
  5
DB
  8
0
 10
469.00442599999991
 20
410.23367699999989
 30
0.0
 11
469.00442599999991
 21
443.23367699999989
 31
0.0
  0
LINE
  5
DC
  8
0
 10
468.00442599999991
 20
411.23367699999989
 30
0.0
 11
468.00442599999991
 21
442.23367699999989
 31
0.0
  0
LINE
  5
DD
  8
0
 10
469.00442599999991
 20
410.23367699999989
 30
0.0
 11
468.00442599999991
 21
411.23367699999989
 31
0.0
  0
LINE
  5
DE
  8
0
 10
468.00442599999991
 20
442.23367699999989
 30
0.0
 11
469.00442599999991
 21
443.23367699999989
 31
0.0
  0
LINE
  5
DF
  8
0
 10
508.00442600000002
 20
413.233677
 30
0.0
 11
508.00442600000002
 21
440.23367699999989
 31
0.0
  0
LINE
  5
E0
  8
0
 10
518.00442599999985
 20
416.00717999999989
 30
0.0
 11
518.00442599999985
 21
437.46017399999999
 31
0.0
  0
LINE
  5
E1
  8
0
 10
513.20057799999995
 20
440.23367699999989
 30
0.0
 11
518.00442599999985
 21
437.46017399999999
 31
0.0
  0
LINE
  5
E2
  8
0
 10
513.20057799999995
 20
413.233677
 30
0.0
 11
518.00442599999985
 21
416.00717999999989
 31
0.0
  0
ARC
  5
E3
  8
0
 10
467.00442600000002
 20
437.73367699999989
 30
0.0
 40
1.0
 50
270.0
 51
0.0
  0
ARC
  5
E4
  8
0
 10
467.00442600000002
 20
415.73367699999989
 30
0.0
 40
1.0
 50
0.0
 51
90.0
  0
LINE
  5
E5
  8
0
 10
467.00442600000002
 20
416.733677
 30
0.0
 11
457.00442599999991
 21
416.733677
 31
0.0
  0
LINE
  5
E6
  8
3
 10
460.00442599999991
 20
418.0866769999999
 30
0.0
 11
457.00442599999991
 21
418.0866769999999
 31
0.0
  0
LINE
  5
E7
  8
3
 10
460.00442599999991
 20
435.38067699999988
 30
0.0
 11
457.00442599999991
 21
435.38067699999988
 31
0.0
  0
LINE
  5
E8
  8
0
 10
467.00442600000002
 20
436.73367699999989
 30
0.0
 11
457.00442599999991
 21
436.73367699999989
 31
0.0
  0
LINE
  5
E9
  8
0
 10
460.00442599999991
 20
416.733677
 30
0.0
 11
460.00442599999991
 21
436.73367699999989
 31
0.0
  0
LINE
  5
EA
  8
1
 10
503.00442599999991
 20
404.20867700000002
 30
0.0
 11
503.00442599999991
 21
449.25867699999992
 31
0.0
  0
LINE
  5
EB
  8
0
 10
291.00442600000002
 20
412.233677
 30
0.0
 11
291.00442600000002
 21
441.23367699999989
 31
0.0
  0
ARC
  5
EC
  8
0
 10
312.95576
 20
419.23367699999989
 30
0.0
 40
21.662659000000001
 50
159.743842
 51
200.256158
  0
LINE
  5
ED
  8
0
 10
291.00442600000002
 20
412.233677
 30
0.0
 11
291.29310099999998
 21
411.73367699999989
 31
0.0
  0
LINE
  5
EE
  8
0
 10
291.29310099999998
 20
411.73367699999989
 30
0.0
 11
366.00442600000002
 21
411.73367699999989
 31
0.0
  0
LINE
  5
EF
  8
0
 10
291.29310099999998
 20
441.73367699999989
 30
0.0
 11
366.00442600000002
 21
441.73367699999989
 31
0.0
  0
LINE
  5
F0
  8
0
 10
291.00442600000002
 20
441.23367699999989
 30
0.0
 11
291.29310099999998
 21
441.73367699999989
 31
0.0
  0
ARC
  5
F1
  8
0
 10
312.95576
 20
434.23367699999989
 30
0.0
 40
21.662659000000001
 50
159.743842
 51
200.256158
  0
ARC
  5
F2
  8
0
 10
419.05309199999988
 20
434.23367699999989
 30
0.0
 40
21.662659000000001
 50
339.74384199999997
 51
20.256157999999999
  0
LINE
  5
F3
  8
0
 10
441.00442599999991
 20
441.23367699999989
 30
0.0
 11
440.7157509999999
 21
441.73367699999989
 31
0.0
  0
LINE
  5
F4
  8
0
 10
440.7157509999999
 20
441.73367699999989
 30
0.0
 11
366.00442600000002
 21
441.73367699999989
 31
0.0
  0
LINE
  5
F5
  8
0
 10
440.7157509999999
 20
411.73367699999989
 30
0.0
 11
366.00442600000002
 21
411.73367699999989
 31
0.0
  0
LINE
  5
F6
  8
0
 10
441.00442599999991
 20
412.233677
 30
0.0
 11
440.7157509999999
 21
411.73367699999989
 31
0.0
  0
ARC
  5
F7
  8
0
 10
419.05309199999988
 20
419.23367699999989
 30
0.0
 40
21.662659000000001
 50
339.74384199999997
 51
20.256157999999999
  0
LINE
  5
F8
  8
0
 10
441.00442599999991
 20
412.233677
 30
0.0
 11
441.00442599999991
 21
441.23367699999989
 31
0.0
  0
LINE
  5
F9
  8
0
 10
439.37600500000002
 20
426.73367699999989
 30
0.0
 11
292.63284700000008
 21
426.73367699999989
 31
0.0
  0
LINE
  5
FA
  8
1
 10
229.004426
 20
292.06950799999998
 30
0.0
 11
229.004426
 21
267.13545499999998
 31
0.0
  0
LINE
  5
FB
  8
0
 10
105.78589100000001
 20
296.92299000000003
 30
0.0
 11
104.238831
 21
296.02979399999998
 31
0.0
  0
LINE
  5
FC
  8
0
 10
120.78589100000001
 20
288.26273600000002
 30
0.0
 11
119.238831
 21
289.15593100000001
 31
0.0
  0
LINE
  5
FD
  8
0
 10
120.78589100000001
 20
270.942228
 30
0.0
 11
120.78589100000001
 21
272.7286180000001
 31
0.0
  0
LINE
  5
FE
  8
0
 10
105.78589100000001
 20
262.2819740000001
 30
0.0
 11
107.33295
 21
263.17516899999998
 31
0.0
  0
LINE
  5
FF
  8
0
 10
90.785891000000007
 20
270.942228
 30
0.0
 11
92.332949999999997
 21
270.04903200000001
 31
0.0
  0
LINE
  5
100
  8
0
 10
90.785891000000007
 20
288.26273600000002
 30
0.0
 11
90.785891000000007
 21
286.47634499999998
 31
0.0
  0
LINE
  5
101
  8
0
 10
107.33295
 20
296.02979399999998
 30
0.0
 11
105.78589100000001
 21
296.92299000000003
 31
0.0
  0
LINE
  5
102
  8
0
 10
92.332949999999997
 20
289.15593100000001
 30
0.0
 11
90.785891000000007
 21
288.26273600000002
 31
0.0
  0
LINE
  5
103
  8
0
 10
120.78589100000001
 20
286.47634499999998
 30
0.0
 11
120.78589100000001
 21
288.26273600000002
 31
0.0
  0
LINE
  5
104
  8
0
 10
119.238831
 20
270.04903200000001
 30
0.0
 11
120.78589100000001
 21
270.942228
 31
0.0
  0
LINE
  5
105
  8
0
 10
104.238831
 20
263.17516899999998
 30
0.0
 11
105.78589100000001
 21
262.2819740000001
 31
0.0
  0
LINE
  5
106
  8
0
 10
90.785891000000007
 20
272.7286180000001
 30
0.0
 11
90.785891000000007
 21
270.942228
 31
0.0
  0
LINE
  5
107
  8
2
 10
93.035891000000007
 20
284.40248199999991
 30
0.0
 11
93.035891000000007
 21
274.802482
 31
0.0
  0
LINE
  5
108
  8
2
 10
118.53589100000001
 20
284.40248199999991
 30
0.0
 11
118.53589100000001
 21
274.802482
 31
0.0
  0
LINE
  5
109
  8
2
 10
118.53589100000001
 20
274.802482
 30
0.0
 11
119.53589100000001
 21
273.802482
 31
0.0
  0
LINE
  5
10A
  8
2
 10
93.035891000000007
 20
274.802482
 30
0.0
 11
92.035891000000007
 21
273.802482
 31
0.0
  0
LINE
  5
10B
  8
2
 10
93.035891000000007
 20
284.40248199999991
 30
0.0
 11
92.035891000000007
 21
285.40248200000002
 31
0.0
  0
LINE
  5
10C
  8
2
 10
119.53589100000001
 20
285.40248200000002
 30
0.0
 11
118.53589100000001
 21
284.40248199999991
 31
0.0
  0
LINE
  5
10D
  8
2
 10
118.53589100000001
 20
274.802482
 30
0.0
 11
93.035891000000007
 21
274.802482
 31
0.0
  0
LINE
  5
10E
  8
2
 10
118.53589100000001
 20
284.40248199999991
 30
0.0
 11
93.035891000000007
 21
284.40248199999991
 31
0.0
  0
LINE
  5
10F
  8
0
 10
119.53589100000001
 20
270.481763
 30
0.0
 11
119.53589100000001
 21
288.72320000000002
 31
0.0
  0
LINE
  5
110
  8
0
 10
92.035891000000007
 20
270.481763
 30
0.0
 11
92.035891000000007
 21
288.72320000000002
 31
0.0
  0
CIRCLE
  5
111
  8
0
 10
229.004426
 20
279.60248200000001
 30
0.0
 40
4.7999999999999989
  0
LINE
  5
112
  8
0
 10
633.14077300000008
 20
270.481763
 30
0.0
 11
633.14077300000008
 21
288.72320000000002
 31
0.0
  0
LINE
  5
113
  8
0
 10
660.64077299999997
 20
270.481763
 30
0.0
 11
660.64077299999997
 21
288.72320000000002
 31
0.0
  0
LINE
  5
114
  8
2
 10
659.64077300000008
 20
284.40248199999991
 30
0.0
 11
634.14077300000008
 21
284.40248199999991
 31
0.0
  0
LINE
  5
115
  8
2
 10
659.64077300000008
 20
274.802482
 30
0.0
 11
634.14077300000008
 21
274.802482
 31
0.0
  0
LINE
  5
116
  8
2
 10
660.64077299999997
 20
285.40248200000002
 30
0.0
 11
659.64077300000008
 21
284.40248199999991
 31
0.0
  0
LINE
  5
117
  8
2
 10
634.14077300000008
 20
284.40248199999991
 30
0.0
 11
633.14077300000008
 21
285.40248200000002
 31
0.0
  0
LINE
  5
118
  8
2
 10
634.14077300000008
 20
274.802482
 30
0.0
 11
633.14077300000008
 21
273.802482
 31
0.0
  0
LINE
  5
119
  8
2
 10
659.64077300000008
 20
274.802482
 30
0.0
 11
660.64077299999997
 21
273.802482
 31
0.0
  0
LINE
  5
11A
  8
2
 10
659.64077300000008
 20
284.40248199999991
 30
0.0
 11
659.64077300000008
 21
274.802482
 31
0.0
  0
LINE
  5
11B
  8
2
 10
634.14077300000008
 20
284.40248199999991
 30
0.0
 11
634.14077300000008
 21
274.802482
 31
0.0
  0
LINE
  5
11C
  8
0
 10
631.89077300000008
 20
272.7286180000001
 30
0.0
 11
631.89077300000008
 21
270.942228
 31
0.0
  0
LINE
  5
11D
  8
0
 10
645.34371399999998
 20
263.17516899999998
 30
0.0
 11
646.89077299999997
 21
262.2819740000001
 31
0.0
  0
LINE
  5
11E
  8
0
 10
660.34371399999986
 20
270.04903200000001
 30
0.0
 11
661.89077299999997
 21
270.942228
 31
0.0
  0
LINE
  5
11F
  8
0
 10
661.89077299999997
 20
286.47634499999998
 30
0.0
 11
661.89077299999997
 21
288.26273600000002
 31
0.0
  0
LINE
  5
120
  8
0
 10
633.43783299999996
 20
289.15593100000001
 30
0.0
 11
631.89077300000008
 21
288.26273600000002
 31
0.0
  0
LINE
  5
121
  8
0
 10
648.43783299999996
 20
296.02979399999998
 30
0.0
 11
646.89077299999997
 21
296.92299000000003
 31
0.0
  0
LINE
  5
122
  8
0
 10
631.89077300000008
 20
288.26273600000002
 30
0.0
 11
631.89077300000008
 21
286.47634499999998
 31
0.0
  0
LINE
  5
123
  8
0
 10
631.89077300000008
 20
270.942228
 30
0.0
 11
633.43783299999996
 21
270.04903200000001
 31
0.0
  0
LINE
  5
124
  8
0
 10
646.89077299999997
 20
262.2819740000001
 30
0.0
 11
648.43783299999996
 21
263.17516899999998
 31
0.0
  0
LINE
  5
125
  8
0
 10
661.89077299999997
 20
270.942228
 30
0.0
 11
661.89077299999997
 21
272.7286180000001
 31
0.0
  0
LINE
  5
126
  8
0
 10
661.89077299999997
 20
288.26273600000002
 30
0.0
 11
660.34371399999986
 21
289.15593100000001
 31
0.0
  0
LINE
  5
127
  8
0
 10
646.89077299999997
 20
296.92299000000003
 30
0.0
 11
645.34371399999998
 21
296.02979399999998
 31
0.0
  0
LINE
  5
128
  8
1
 10
646.89077299999997
 20
301.10248200000001
 30
0.0
 11
646.89077299999997
 21
258.10248200000001
 31
0.0
  0
LINE
  5
129
  8
1
 10
668.39077300000008
 20
279.60248200000001
 30
0.0
 11
625.39077299999997
 21
279.60248200000001
 31
0.0
  0
CIRCLE
  5
12A
  8
0
 10
646.89077299999997
 20
279.60248200000001
 30
0.0
 40
10.726497
  0
CIRCLE
  5
12B
  8
0
 10
646.89077299999997
 20
279.60248200000001
 30
0.0
 40
16.5
  0
CIRCLE
  5
12C
  8
0
 10
503.00442599999991
 20
279.60248200000001
 30
0.0
 40
4.7999999999999989
  0
LINE
  5
12D
  8
2
 10
224.20442600000001
 20
439.48367699999989
 30
0.0
 11
224.20442600000001
 21
413.983677
 31
0.0
  0
LINE
  5
12E
  8
2
 10
233.80442600000001
 20
439.48367699999989
 30
0.0
 11
233.80442600000001
 21
413.983677
 31
0.0
  0
LINE
  5
12F
  8
2
 10
223.20442600000001
 20
440.48367699999989
 30
0.0
 11
224.20442600000001
 21
439.48367699999989
 31
0.0
  0
LINE
  5
130
  8
2
 10
224.20442600000001
 20
413.983677
 30
0.0
 11
223.20442600000001
 21
412.98367699999989
 31
0.0
  0
LINE
  5
131
  8
2
 10
233.80442600000001
 20
413.983677
 30
0.0
 11
234.80442600000001
 21
412.98367699999989
 31
0.0
  0
LINE
  5
132
  8
2
 10
233.80442600000001
 20
439.48367699999989
 30
0.0
 11
234.80442600000001
 21
440.48367699999989
 31
0.0
  0
LINE
  5
133
  8
2
 10
224.20442600000001
 20
439.48367699999989
 30
0.0
 11
233.80442600000001
 21
439.48367699999989
 31
0.0
  0
LINE
  5
134
  8
2
 10
224.20442600000001
 20
413.983677
 30
0.0
 11
233.80442600000001
 21
413.983677
 31
0.0
  0
LINE
  5
135
  8
0
 10
218.80827300000001
 20
440.48367699999989
 30
0.0
 11
246.148763
 21
440.48367699999989
 31
0.0
  0
LINE
  5
136
  8
0
 10
218.80827300000001
 20
412.98367699999989
 30
0.0
 11
246.148763
 21
412.98367699999989
 31
0.0
  0
LINE
  5
137
  8
0
 10
218.80827300000001
 20
412.98367699999989
 30
0.0
 11
214.004426
 21
416.00717999999989
 31
0.0
  0
LINE
  5
138
  8
0
 10
218.80827300000001
 20
440.48367699999989
 30
0.0
 11
214.004426
 21
437.46017399999999
 31
0.0
  0
LINE
  5
139
  8
1
 10
204.004426
 20
279.60248200000001
 30
0.0
 11
528.00442599999985
 21
279.60248200000001
 31
0.0
  0
LINE
  5
13A
  8
1
 10
204.004426
 20
426.73367699999989
 30
0.0
 11
528.00442599999985
 21
426.73367699999989
 31
0.0
  0
LINE
  5
13B
  8
1
 10
204.004426
 20
132.47128599999999
 30
0.0
 11
528.00442599999985
 21
132.47128599999999
 31
0.0
  0
LINE
  5
13C
  8
0
 10
218.80827300000001
 20
118.72128600000001
 30
0.0
 11
214.004426
 21
121.744789
 31
0.0
  0
LINE
  5
13D
  8
0
 10
218.80827300000001
 20
146.22128599999999
 30
0.0
 11
214.004426
 21
143.19778299999999
 31
0.0
  0
LINE
  5
13E
  8
0
 10
218.80827300000001
 20
146.22128599999999
 30
0.0
 11
246.148763
 21
146.22128599999999
 31
0.0
  0
LINE
  5
13F
  8
0
 10
218.80827300000001
 20
118.72128600000001
 30
0.0
 11
246.148763
 21
118.72128600000001
 31
0.0
  0
LINE
  5
140
  8
2
 10
224.20442600000001
 20
145.22128599999999
 30
0.0
 11
233.80442600000001
 21
145.22128599999999
 31
0.0
  0
LINE
  5
141
  8
2
 10
224.20442600000001
 20
119.72128600000001
 30
0.0
 11
233.80442600000001
 21
119.72128600000001
 31
0.0
  0
LINE
  5
142
  8
2
 10
233.80442600000001
 20
119.72128600000001
 30
0.0
 11
234.80442600000001
 21
118.72128600000001
 31
0.0
  0
LINE
  5
143
  8
2
 10
233.80442600000001
 20
145.22128599999999
 30
0.0
 11
234.80442600000001
 21
146.22128599999999
 31
0.0
  0
LINE
  5
144
  8
2
 10
224.20442600000001
 20
145.22128599999999
 30
0.0
 11
223.20442600000001
 21
146.22128599999999
 31
0.0
  0
LINE
  5
145
  8
2
 10
223.20442600000001
 20
118.72128600000001
 30
0.0
 11
224.20442600000001
 21
119.72128600000001
 31
0.0
  0
LINE
  5
146
  8
2
 10
233.80442600000001
 20
119.72128600000001
 30
0.0
 11
233.80442600000001
 21
145.22128599999999
 31
0.0
  0
LINE
  5
147
  8
2
 10
224.20442600000001
 20
119.72128600000001
 30
0.0
 11
224.20442600000001
 21
145.22128599999999
 31
0.0
  0
LINE
  5
148
  8
0
 10
439.37600500000002
 20
132.47128599999999
 30
0.0
 11
292.63284700000008
 21
132.47128599999999
 31
0.0
  0
LINE
  5
149
  8
0
 10
441.00442599999991
 20
146.97128599999999
 30
0.0
 11
441.00442599999991
 21
117.97128600000001
 31
0.0
  0
ARC
  5
14A
  8
0
 10
419.05309199999988
 20
139.97128599999999
 30
0.0
 40
21.662659000000001
 50
339.74384199999997
 51
20.256157999999999
  0
LINE
  5
14B
  8
0
 10
441.00442599999991
 20
146.97128599999999
 30
0.0
 11
440.7157509999999
 21
147.47128599999999
 31
0.0
  0
LINE
  5
14C
  8
0
 10
440.7157509999999
 20
147.47128599999999
 30
0.0
 11
366.00442600000002
 21
147.47128599999999
 31
0.0
  0
LINE
  5
14D
  8
0
 10
440.7157509999999
 20
117.47128600000001
 30
0.0
 11
366.00442600000002
 21
117.47128600000001
 31
0.0
  0
LINE
  5
14E
  8
0
 10
441.00442599999991
 20
117.97128600000001
 30
0.0
 11
440.7157509999999
 21
117.47128600000001
 31
0.0
  0
ARC
  5
14F
  8
0
 10
419.05309199999988
 20
124.97128600000001
 30
0.0
 40
21.662659000000001
 50
339.74384199999997
 51
20.256157999999999
  0
ARC
  5
150
  8
0
 10
312.95576
 20
124.97128600000001
 30
0.0
 40
21.662659000000001
 50
159.743842
 51
200.256158
  0
LINE
  5
151
  8
0
 10
291.00442600000002
 20
117.97128600000001
 30
0.0
 11
291.29310099999998
 21
117.47128600000001
 31
0.0
  0
LINE
  5
152
  8
0
 10
291.29310099999998
 20
117.47128600000001
 30
0.0
 11
366.00442600000002
 21
117.47128600000001
 31
0.0
  0
LINE
  5
153
  8
0
 10
291.29310099999998
 20
147.47128599999999
 30
0.0
 11
366.00442600000002
 21
147.47128599999999
 31
0.0
  0
LINE
  5
154
  8
0
 10
291.00442600000002
 20
146.97128599999999
 30
0.0
 11
291.29310099999998
 21
147.47128599999999
 31
0.0
  0
ARC
  5
155
  8
0
 10
312.95576
 20
139.97128599999999
 30
0.0
 40
21.662659000000001
 50
159.743842
 51
200.256158
  0
LINE
  5
156
  8
0
 10
291.00442600000002
 20
146.97128599999999
 30
0.0
 11
291.00442600000002
 21
117.97128600000001
 31
0.0
  0
LINE
  5
157
  8
1
 10
503.00442599999991
 20
154.996286
 30
0.0
 11
503.00442599999991
 21
109.946286
 31
0.0
  0
LINE
  5
158
  8
0
 10
460.00442599999991
 20
142.47128599999999
 30
0.0
 11
460.00442599999991
 21
122.47128600000001
 31
0.0
  0
LINE
  5
159
  8
0
 10
467.00442600000002
 20
122.47128600000001
 30
0.0
 11
457.00442599999991
 21
122.47128600000001
 31
0.0
  0
LINE
  5
15A
  8
3
 10
460.00442599999991
 20
123.824286
 30
0.0
 11
457.00442599999991
 21
123.824286
 31
0.0
  0
LINE
  5
15B
  8
3
 10
460.00442599999991
 20
141.11828600000001
 30
0.0
 11
457.00442599999991
 21
141.11828600000001
 31
0.0
  0
LINE
  5
15C
  8
0
 10
467.00442600000002
 20
142.47128599999999
 30
0.0
 11
457.00442599999991
 21
142.47128599999999
 31
0.0
  0
ARC
  5
15D
  8
0
 10
467.00442600000002
 20
143.47128599999999
 30
0.0
 40
1.0
 50
270.0
 51
0.0
  0
ARC
  5
15E
  8
0
 10
467.00442600000002
 20
121.47128600000001
 30
0.0
 40
1.0
 50
0.0
 51
90.0
  0
LINE
  5
15F
  8
0
 10
513.20057799999995
 20
145.97128599999999
 30
0.0
 11
518.00442599999985
 21
143.19778299999999
 31
0.0
  0
LINE
  5
160
  8
0
 10
513.20057799999995
 20
118.97128600000001
 30
0.0
 11
518.00442599999985
 21
121.744789
 31
0.0
  0
LINE
  5
161
  8
0
 10
518.00442599999985
 20
143.19778299999999
 30
0.0
 11
518.00442599999985
 21
121.744789
 31
0.0
  0
LINE
  5
162
  8
0
 10
508.00442600000002
 20
145.97128599999999
 30
0.0
 11
508.00442600000002
 21
118.97128600000001
 31
0.0
  0
LINE
  5
163
  8
0
 10
468.00442599999991
 20
116.97128600000001
 30
0.0
 11
469.00442599999991
 21
115.97128600000001
 31
0.0
  0
LINE
  5
164
  8
0
 10
469.00442599999991
 20
148.97128599999999
 30
0.0
 11
468.00442599999991
 21
147.97128599999999
 31
0.0
  0
LINE
  5
165
  8
0
 10
468.00442599999991
 20
147.97128599999999
 30
0.0
 11
468.00442599999991
 21
116.97128600000001
 31
0.0
  0
LINE
  5
166
  8
0
 10
469.00442599999991
 20
148.97128599999999
 30
0.0
 11
469.00442599999991
 21
115.97128600000001
 31
0.0
  0
LINE
  5
167
  8
0
 10
486.00442599999991
 20
118.97128600000001
 30
0.0
 11
484.27237500000001
 21
115.97128600000001
 31
0.0
  0
LINE
  5
168
  8
0
 10
486.00442599999991
 20
145.97128599999999
 30
0.0
 11
484.27237500000001
 21
148.97128599999999
 31
0.0
  0
LINE
  5
169
  8
0
 10
484.27237500000001
 20
115.97128600000001
 30
0.0
 11
469.00442599999991
 21
115.97128600000001
 31
0.0
  0
LINE
  5
16A
  8
0
 10
484.27237500000001
 20
148.97128599999999
 30
0.0
 11
469.00442599999991
 21
148.97128599999999
 31
0.0
  0
LINE
  5
16B
  8
2
 10
498.10442599999999
 20
119.97128600000001
 30
0.0
 11
497.10442599999999
 21
118.97128600000001
 31
0.0
  0
LINE
  5
16C
  8
2
 10
508.904426
 20
118.97128600000001
 30
0.0
 11
507.90442599999989
 21
119.97128600000001
 31
0.0
  0
LINE
  5
16D
  8
2
 10
507.90442599999989
 20
144.97128599999999
 30
0.0
 11
508.904426
 21
145.97128599999999
 31
0.0
  0
LINE
  5
16E
  8
2
 10
498.10442599999999
 20
144.97128599999999
 30
0.0
 11
497.10442599999999
 21
145.97128599999999
 31
0.0
  0
LINE
  5
16F
  8
2
 10
507.90442599999989
 20
119.97128600000001
 30
0.0
 11
498.10442599999999
 21
119.97128600000001
 31
0.0
  0
LINE
  5
170
  8
2
 10
507.90442599999989
 20
144.97128599999999
 30
0.0
 11
498.10442599999999
 21
144.97128599999999
 31
0.0
  0
LINE
  5
171
  8
2
 10
507.90442599999989
 20
144.97128599999999
 30
0.0
 11
507.90442599999989
 21
119.97128600000001
 31
0.0
  0
LINE
  5
172
  8
2
 10
498.10442599999999
 20
144.97128599999999
 30
0.0
 11
498.10442599999999
 21
119.97128600000001
 31
0.0
  0
LINE
  5
173
  8
0
 10
513.20057799999995
 20
118.97128600000001
 30
0.0
 11
486.00442599999991
 21
118.97128600000001
 31
0.0
  0
LINE
  5
174
  8
0
 10
513.20057799999995
 20
145.97128599999999
 30
0.0
 11
486.00442599999991
 21
145.97128599999999
 31
0.0
  0
LINE
  5
175
  8
0
 10
441.00442599999991
 20
147.47128599999999
 30
0.0
 11
441.00442599999991
 21
117.47128600000001
 31
0.0
  0
ARC
  5
176
  8
0
 10
435.05309199999988
 20
124.97128600000001
 30
0.0
 40
21.662659000000001
 50
339.74384199999997
 51
20.256157999999999
  0
LINE
  5
177
  8
0
 10
457.00442599999991
 20
117.97128600000001
 30
0.0
 11
456.7157509999999
 21
117.47128600000001
 31
0.0
  0
LINE
  5
178
  8
0
 10
456.7157509999999
 20
117.47128600000001
 30
0.0
 11
441.00442599999991
 21
117.47128600000001
 31
0.0
  0
LINE
  5
179
  8
0
 10
456.7157509999999
 20
147.47128599999999
 30
0.0
 11
441.00442599999991
 21
147.47128599999999
 31
0.0
  0
LINE
  5
17A
  8
0
 10
457.00442599999991
 20
146.97128599999999
 30
0.0
 11
456.7157509999999
 21
147.47128599999999
 31
0.0
  0
ARC
  5
17B
  8
0
 10
435.05309199999988
 20
139.97128599999999
 30
0.0
 40
21.662659000000001
 50
339.74384199999997
 51
20.256157999999999
  0
LINE
  5
17C
  8
0
 10
457.00442599999991
 20
146.97128599999999
 30
0.0
 11
457.00442599999991
 21
117.97128600000001
 31
0.0
  0
LINE
  5
17D
  8
0
 10
455.37600500000002
 20
132.47128599999999
 30
0.0
 11
441.00442599999991
 21
132.47128599999999
 31
0.0
  0
LINE
  5
17E
  8
0
 10
276.63284700000003
 20
132.47128599999999
 30
0.0
 11
291.00442600000002
 21
132.47128599999999
 31
0.0
  0
LINE
  5
17F
  8
0
 10
275.00442600000002
 20
146.97128599999999
 30
0.0
 11
275.00442600000002
 21
117.97128600000001
 31
0.0
  0
ARC
  5
180
  8
0
 10
296.95576
 20
139.97128599999999
 30
0.0
 40
21.662659000000001
 50
159.743842
 51
200.256158
  0
LINE
  5
181
  8
0
 10
275.00442600000002
 20
146.97128599999999
 30
0.0
 11
275.29310099999998
 21
147.47128599999999
 31
0.0
  0
LINE
  5
182
  8
0
 10
275.29310099999998
 20
147.47128599999999
 30
0.0
 11
291.00442600000002
 21
147.47128599999999
 31
0.0
  0
LINE
  5
183
  8
0
 10
275.29310099999998
 20
117.47128600000001
 30
0.0
 11
291.00442600000002
 21
117.47128600000001
 31
0.0
  0
LINE
  5
184
  8
0
 10
275.00442600000002
 20
117.97128600000001
 30
0.0
 11
275.29310099999998
 21
117.47128600000001
 31
0.0
  0
ARC
  5
185
  8
0
 10
296.95576
 20
124.97128600000001
 30
0.0
 40
21.662659000000001
 50
159.743842
 51
200.256158
  0
LINE
  5
186
  8
0
 10
291.00442600000002
 20
147.47128599999999
 30
0.0
 11
291.00442600000002
 21
117.47128600000001
 31
0.0
  0
LINE
  5
187
  8
0
 10
247.73647600000001
 20
148.97128599999999
 30
0.0
 11
263.00442600000002
 21
148.97128599999999
 31
0.0
  0
LINE
  5
188
  8
0
 10
247.73647600000001
 20
115.97128600000001
 30
0.0
 11
263.00442600000002
 21
115.97128600000001
 31
0.0
  0
LINE
  5
189
  8
0
 10
246.148763
 20
146.22128599999999
 30
0.0
 11
247.73647600000001
 21
148.97128599999999
 31
0.0
  0
LINE
  5
18A
  8
0
 10
246.148763
 20
118.72128600000001
 30
0.0
 11
247.73647600000001
 21
115.97128600000001
 31
0.0
  0
LINE
  5
18B
  8
0
 10
263.00442600000002
 20
148.97128599999999
 30
0.0
 11
263.00442600000002
 21
115.97128600000001
 31
0.0
  0
LINE
  5
18C
  8
0
 10
264.00442600000002
 20
147.97128599999999
 30
0.0
 11
264.00442600000002
 21
116.97128600000001
 31
0.0
  0
LINE
  5
18D
  8
0
 10
263.00442600000002
 20
148.97128599999999
 30
0.0
 11
264.00442600000002
 21
147.97128599999999
 31
0.0
  0
LINE
  5
18E
  8
0
 10
264.00442600000002
 20
116.97128600000001
 30
0.0
 11
263.00442600000002
 21
115.97128600000001
 31
0.0
  0
LINE
  5
18F
  8
0
 10
224.004426
 20
146.22128599999999
 30
0.0
 11
224.004426
 21
118.72128600000001
 31
0.0
  0
LINE
  5
190
  8
0
 10
214.004426
 20
143.19778299999999
 30
0.0
 11
214.004426
 21
121.744789
 31
0.0
  0
ARC
  5
191
  8
0
 10
265.00442600000002
 20
121.47128600000001
 30
0.0
 40
1.0
 50
90.0
 51
180.0
  0
ARC
  5
192
  8
0
 10
265.00442600000002
 20
143.47128599999999
 30
0.0
 40
1.0
 50
180.0
 51
270.0
  0
LINE
  5
193
  8
0
 10
265.00442600000002
 20
142.47128599999999
 30
0.0
 11
275.00442600000002
 21
142.47128599999999
 31
0.0
  0
LINE
  5
194
  8
3
 10
272.00442600000002
 20
141.11828600000001
 30
0.0
 11
275.00442600000002
 21
141.11828600000001
 31
0.0
  0
LINE
  5
195
  8
3
 10
272.00442600000002
 20
123.824286
 30
0.0
 11
275.00442600000002
 21
123.824286
 31
0.0
  0
LINE
  5
196
  8
0
 10
265.00442600000002
 20
122.47128600000001
 30
0.0
 11
275.00442600000002
 21
122.47128600000001
 31
0.0
  0
LINE
  5
197
  8
0
 10
272.00442600000002
 20
142.47128599999999
 30
0.0
 11
272.00442600000002
 21
122.47128600000001
 31
0.0
  0
LINE
  5
198
  8
1
 10
229.004426
 20
154.996286
 30
0.0
 11
229.004426
 21
109.946286
 31
0.0
  0
TEXT
  5
2BA
  8
0
 62
     3
 10
0.0
 20
0.0
 30
0.0
 40
10.0
  1
CBD1-100
  7
STANDARD1
  0
ENDSEC
  0
EOF
