  0
SECTION
  2
HEADER
  9
$ACADVER
  1
AC1009
  9
$INSBASE
 10
0.0
 20
0.0
 30
0.0
  9
$EXTMIN
 10
0.0
 20
-2.960436562073669
 30
0.0
  9
$EXTMAX
 10
308.30000000000001
 20
145.1450827707763
 30
0.0
  9
$LIMMIN
 10
0.0
 20
0.0
  9
$LIMMAX
 10
375.0
 20
270.0
  9
$ORTHOMODE
 70
     1
  9
$REGENMODE
 70
     1
  9
$FILLMODE
 70
     1
  9
$QTEXTMODE
 70
     0
  9
$MIRRTEXT
 70
     0
  9
$DRAGMODE
 70
     2
  9
$LTSCALE
 40
10.0
  9
$OSMODE
 70
    37
  9
$ATTMODE
 70
     1
  9
$TEXTSIZE
 40
4.000000000000048
  9
$TRACEWID
 40
0.05
  9
$TEXTSTYLE
  7
STANDARD
  9
$CLAYER
  8
0
  9
$CELTYPE
  6
BYLAYER
  9
$CECOLOR
 62
   256
  9
$DIMSCALE
 40
1.0
  9
$DIMASZ
 40
3.0
  9
$DIMEXO
 40
2.0
  9
$DIMDLI
 40
0.38
  9
$DIMRND
 40
0.0
  9
$DIMDLE
 40
0.0
  9
$DIMEXE
 40
2.0
  9
$DIMTP
 40
0.0
  9
$DIMTM
 40
0.0
  9
$DIMTXT
 40
3.2000000000000002
  9
$DIMCEN
 40
0.0
  9
$DIMTSZ
 40
0.0
  9
$DIMTOL
 70
     0
  9
$DIMLIM
 70
     0
  9
$DIMTIH
 70
     0
  9
$DIMTOH
 70
     0
  9
$DIMSE1
 70
     0
  9
$DIMSE2
 70
     0
  9
$DIMTAD
 70
     1
  9
$DIMZIN
 70
     0
  9
$DIMBLK
  1

  9
$DIMASO
 70
     0
  9
$DIMSHO
 70
     0
  9
$DIMPOST
  1

  9
$DIMAPOST
  1

  9
$DIMALT
 70
     0
  9
$DIMALTD
 70
     2
  9
$DIMALTF
 40
25.399999999999999
  9
$DIMLFAC
 40
1.0
  9
$DIMTOFL
 70
     1
  9
$DIMTVP
 40
1.6000000000000001
  9
$DIMTIX
 70
     1
  9
$DIMSOXD
 70
     0
  9
$DIMSAH
 70
     0
  9
$DIMBLK1
  1

  9
$DIMBLK2
  1

  9
$DIMSTYLE
  2
STANDARD
  9
$DIMCLRD
 70
     0
  9
$DIMCLRE
 70
     0
  9
$DIMCLRT
 70
     0
  9
$DIMTFAC
 40
1.0
  9
$DIMGAP
 40
0.09
  9
$LUNITS
 70
     2
  9
$LUPREC
 70
     4
  9
$SKETCHINC
 40
0.1
  9
$FILLETRAD
 40
0.0
  9
$AUNITS
 70
     0
  9
$AUPREC
 70
     4
  9
$MENU
  1
E:\r13\win\SUPPORT\ACAD
  9
$ELEVATION
 40
0.0
  9
$PELEVATION
 40
0.0
  9
$THICKNESS
 40
0.0
  9
$LIMCHECK
 70
     0
  9
$BLIPMODE
 70
     0
  9
$CHAMFERA
 40
0.0
  9
$CHAMFERB
 40
0.0
  9
$SKPOLY
 70
     0
  9
$TDCREATE
 40
2449840.653576389
  9
$TDUPDATE
 40
2458753.3954104749
  9
$TDINDWG
 40
0.0128485648
  9
$TDUSRTIMER
 40
0.0128485648
  9
$USRTIMER
 70
     1
  9
$ANGBASE
 50
0.0
  9
$ANGDIR
 70
     0
  9
$PDMODE
 70
    35
  9
$PDSIZE
 40
0.0
  9
$PLINEWID
 40
0.0
  9
$COORDS
 70
     1
  9
$SPLFRAME
 70
     0
  9
$SPLINETYPE
 70
     6
  9
$SPLINESEGS
 70
     8
  9
$ATTDIA
 70
     0
  9
$ATTREQ
 70
     1
  9
$HANDLING
 70
     1
  9
$HANDSEED
  5
59A
  9
$SURFTAB1
 70
     6
  9
$SURFTAB2
 70
     6
  9
$SURFTYPE
 70
     6
  9
$SURFU
 70
     6
  9
$SURFV
 70
     6
  9
$UCSNAME
  2

  9
$UCSORG
 10
0.0
 20
0.0
 30
0.0
  9
$UCSXDIR
 10
1.0
 20
0.0
 30
0.0
  9
$UCSYDIR
 10
0.0
 20
1.0
 30
0.0
  9
$PUCSNAME
  2

  9
$PUCSORG
 10
0.0
 20
0.0
 30
0.0
  9
$PUCSXDIR
 10
1.0
 20
0.0
 30
0.0
  9
$PUCSYDIR
 10
0.0
 20
1.0
 30
0.0
  9
$USERI1
 70
     0
  9
$USERI2
 70
     1
  9
$USERI3
 70
     0
  9
$USERI4
 70
     0
  9
$USERI5
 70
     0
  9
$USERR1
 40
0.0
  9
$USERR2
 40
0.0
  9
$USERR3
 40
0.0
  9
$USERR4
 40
0.0
  9
$USERR5
 40
0.0
  9
$WORLDVIEW
 70
     1
  9
$SHADEDGE
 70
     3
  9
$SHADEDIF
 70
    70
  9
$TILEMODE
 70
     1
  9
$MAXACTVP
 70
    16
  9
$PLIMCHECK
 70
     0
  9
$PEXTMIN
 10
1.0000000000000000E+020
 20
1.0000000000000000E+020
 30
1.0000000000000000E+020
  9
$PEXTMAX
 10
-1.0000000000000000E+020
 20
-1.0000000000000000E+020
 30
-1.0000000000000000E+020
  9
$PLIMMIN
 10
0.0
 20
0.0
  9
$PLIMMAX
 10
12.0
 20
9.0
  9
$UNITMODE
 70
     0
  9
$VISRETAIN
 70
     0
  9
$PLINEGEN
 70
     0
  9
$PSLTSCALE
 70
     0
  0
ENDSEC
  0
SECTION
  2
TABLES
  0
TABLE
  2
VPORT
 70
     1
  0
VPORT
  2
*ACTIVE
 70
     0
 10
0.0
 20
0.0
 11
1.0
 21
1.0
 12
362.34662576687123
 22
150.0
 13
0.0
 23
0.0
 14
5.0
 24
5.0
 15
10.0
 25
10.0
 16
0.0
 26
0.0
 36
1.0
 17
0.0
 27
0.0
 37
0.0
 40
300.0
 41
2.415644171779141
 42
50.0
 43
0.0
 44
0.0
 50
0.0
 51
0.0
 71
     0
 72
   500
 73
     1
 74
     0
 75
     0
 76
     0
 77
     0
 78
     1
  0
ENDTAB
  0
TABLE
  2
LTYPE
 70
     3
  0
LTYPE
  2
CONTINUOUS
 70
     0
  3
Solid Line
 72
    65
 73
     0
 40
0.0
  0
LTYPE
  2
CENTER
 70
     0
  3
____ _ ____ _ ____ _ ____ _ ____ _ ____ _ ____
 72
    65
 73
     4
 40
2.0
 49
1.25
 49
-0.25
 49
0.25
 49
-0.25
  0
LTYPE
  2
PHANTOM2
 70
     0
  3
___ _ _ ___ _ _ ___ _ _ ___ _ _
 72
    65
 73
     6
 40
1.25
 49
0.625
 49
-0.125
 49
0.125
 49
-0.125
 49
0.125
 49
-0.125
  0
ENDTAB
  0
TABLE
  2
LAYER
 70
     3
  0
LAYER
  2
0
 70
     0
 62
     7
  6
CONTINUOUS
  0
LAYER
  2
1
 70
     0
 62
     1
  6
CENTER
  0
LAYER
  2
3
 70
     0
 62
     3
  6
CONTINUOUS
  0
ENDTAB
  0
TABLE
  2
STYLE
 70
     2
  0
STYLE
  2
STANDARD
 70
     0
 40
0.0
 41
1.0
 50
0.0
 71
     0
 42
4.000000000000048
  3
TXT
  4
BIGFONT
  0
STYLE
  2
STANDARD1
 70
     0
 40
0.0
 41
1.0
 50
0.0
 71
     0
 42
3.0
  3
txt
  4

  0
ENDTAB
  0
TABLE
  2
VIEW
 70
     1
  0
VIEW
  2
ALL
 70
     0
 40
270.0
 10
220.99159663865549
 20
135.0
 41
0.0
 11
0.0
 21
0.0
 31
1.0
 12
0.0
 22
0.0
 32
0.0
 42
0.0
 43
0.0
 44
0.0
 50
0.0
 71
     0
  0
ENDTAB
  0
TABLE
  2
UCS
 70
     0
  0
ENDTAB
  0
TABLE
  2
APPID
 70
     4
  0
APPID
  2
ACAD
 70
     0
  0
APPID
  2
ACAD_MLEADERVER
 70
     0
  0
APPID
  2
ACAD_NAV_VCDISPLAY
 70
     0
  0
APPID
  2
ACAD_EXEMPT_FROM_CAD_STANDARDS
 70
     0
  0
ENDTAB
  0
TABLE
  2
DIMSTYLE
 70
     1
  0
DIMSTYLE
  2
STANDARD
 70
     0
  3

  4

  5

  6

  7

 40
1.0
 41
0.18
 42
0.0625
 43
0.38
 44
0.18
 45
0.0
 46
0.0
 47
0.0
 48
0.0
140
0.18
141
0.09
142
0.0
143
25.399999999999999
144
1.0
145
0.0
146
1.0
147
0.09
 71
     0
 72
     0
 73
     1
 74
     1
 75
     0
 76
     0
 77
     0
 78
     0
170
     0
171
     2
172
     0
173
     0
174
     0
175
     0
176
     0
177
     0
178
     0
  0
ENDTAB
  0
ENDSEC
  0
SECTION
  2
BLOCKS
  0
BLOCK
  8
0
  2
$MODEL_SPACE
 70
     0
 10
0.0
 20
0.0
 30
0.0
  3
$MODEL_SPACE
  1

  0
ENDBLK
  5
181
  8
0
  0
BLOCK
 67
     1
  8
0
  2
$PAPER_SPACE
 70
     0
 10
0.0
 20
0.0
 30
0.0
  3
$PAPER_SPACE
  1

  0
ENDBLK
  5
17F
 67
     1
  8
0
  0
ENDSEC
  0
SECTION
  2
ENTITIES
  0
TEXT
  5
23A
  8
0
 62
     3
 10
0.0
 20
0.0
 30
0.0
 40
10.0
  1
CAH4040N
  7
STANDARD1
  0
ARC
  5
3A3
  8
0
 10
176.0
 20
94.745082770776335
 30
0.0
 40
4.000000000000056
 50
270.0
 51
359.99999999991212
  0
ARC
  5
3A4
  8
0
 10
175.2999999999999
 20
91.545082770776304
 30
0.0
 40
0.8000000000000682
 50
180.0
 51
270.0
  0
LINE
  5
3A5
  8
0
 10
175.2999999999999
 20
90.745082770776335
 30
0.0
 11
176.0
 21
90.745082770776335
 31
0.0
  0
ARC
  5
3A6
  8
0
 10
145.90000000000001
 20
94.445082770776366
 30
0.0
 40
0.4000000000000341
 50
180.0
 51
270.0
  0
LINE
  5
3A7
  8
0
 10
145.90000000000001
 20
94.045082770776304
 30
0.0
 11
148.5
 21
94.045082770776304
 31
0.0
  0
LINE
  5
3A8
  8
0
 10
148.5
 20
94.045082770776347
 30
0.0
 11
149.39999999999989
 21
94.945082770776352
 31
0.0
  0
ARC
  5
3A9
  8
0
 10
144.0
 20
125.5450827707763
 30
0.0
 40
4.0000000000000284
 50
90.0
 51
179.99999999991039
  0
ARC
  5
3AA
  8
0
 10
144.69999999999999
 20
128.74508277077629
 30
0.0
 40
0.8000000000000113
 50
0.0
 51
90.0
  0
LINE
  5
3AB
  8
0
 10
144.69999999999999
 20
129.5450827707763
 30
0.0
 11
144.0
 21
129.5450827707763
 31
0.0
  0
ARC
  5
3AC
  8
0
 10
174.09999999999991
 20
125.8450827707763
 30
0.0
 40
0.4000000000000057
 50
0.0
 51
90.0
  0
LINE
  5
3AD
  8
0
 10
174.09999999999991
 20
126.24508277077631
 30
0.0
 11
171.5
 21
126.24508277077631
 31
0.0
  0
LINE
  5
3AE
  8
0
 10
171.5
 20
126.24508277077631
 30
0.0
 11
170.59999999999999
 21
125.3450827707763
 31
0.0
  0
LINE
  5
3AF
  8
0
 10
180.69999999999999
 20
116.8950827707537
 30
0.0
 11
180.0
 21
116.1950827707538
 31
0.0
  0
LINE
  5
3B0
  8
0
 10
180.0
 20
104.0950827707989
 30
0.0
 11
180.69999999999999
 21
103.39508277079879
 31
0.0
  0
LINE
  5
3B1
  8
0
 10
183.90000000000001
 20
116.8950827707763
 30
0.0
 11
180.69999999999999
 21
116.8950827707763
 31
0.0
  0
LINE
  5
3B2
  8
0
 10
180.69999999999999
 20
103.3950827707764
 30
0.0
 11
183.90000000000001
 21
103.3950827707764
 31
0.0
  0
ARC
  5
3B3
  8
0
 10
224.96322432733291
 20
60.916236553119219
 30
0.0
 40
12.00000000036459
 50
195.99999999941551
 51
244.59037788636169
  0
LINE
  5
3B4
  8
0
 10
222.31346276148039
 20
50.793734727532311
 30
0.0
 11
223.70590460100561
 21
52.649430210329122
 31
0.0
  0
LINE
  5
3B5
  8
0
 10
219.8141823519276
 20
50.077077602886597
 30
0.0
 11
222.3134627613492
 21
50.793734727990021
 31
0.0
  0
LINE
  5
3B6
  8
0
 10
209.7999999999999
 20
117.74508277077631
 30
0.0
 11
207.94999999999999
 21
119.1450827707763
 31
0.0
  0
LINE
  5
3B7
  8
0
 10
207.94999999999999
 20
119.1450827707763
 30
0.0
 11
183.90000000000001
 21
119.1450827707763
 31
0.0
  0
LINE
  5
3B8
  8
0
 10
183.90000000000001
 20
101.1450827707763
 30
0.0
 11
200.9441950691612
 21
101.1450827707763
 31
0.0
  0
LINE
  5
3B9
  8
0
 10
200.9441950692086
 20
101.1450827707239
 30
0.0
 11
213.4280839753385
 21
57.60858828323169
 31
0.0
  0
LINE
  5
3BA
  8
0
 10
213.30000000000001
 20
116.7700827707763
 30
0.0
 11
209.7999999999999
 21
116.7700827707763
 31
0.0
  0
LINE
  5
3BB
  8
0
 10
209.7999999999999
 20
103.5200827707763
 30
0.0
 11
213.30000000000001
 21
103.5200827707763
 31
0.0
  0
LINE
  5
3BC
  8
0
 10
140.0
 20
114.1450827707763
 30
0.0
 11
139.90000000000001
 21
114.1450827707763
 31
0.0
  0
LINE
  5
3BD
  8
0
 10
139.90000000000001
 20
106.1450827707763
 30
0.0
 11
140.0
 21
106.1450827707763
 31
0.0
  0
LINE
  5
3BE
  8
0
 10
168.5
 20
117.5168776425712
 30
0.0
 11
167.34999999999991
 21
115.8950827707763
 31
0.0
  0
LINE
  5
3BF
  8
0
 10
167.34999999999991
 20
104.3950827707763
 30
0.0
 11
168.5
 21
102.77328789898139
 31
0.0
  0
LINE
  5
3C0
  8
0
 10
151.5
 20
102.77328789898139
 30
0.0
 11
152.64999999999989
 21
104.3950827707763
 31
0.0
  0
LINE
  5
3C1
  8
0
 10
152.64999999999989
 20
115.8950827707763
 30
0.0
 11
151.5
 21
117.5168776425712
 31
0.0
  0
LINE
  5
3C2
  8
0
 10
152.64999999999989
 20
104.3950827707763
 30
0.0
 11
167.34999999999991
 21
104.3950827707763
 31
0.0
  0
LINE
  5
3C3
  8
0
 10
167.34999999999991
 20
115.8950827707763
 30
0.0
 11
152.64999999999989
 21
115.8950827707763
 31
0.0
  0
LINE
  5
3C4
  8
0
 10
180.0
 20
140.1450827707763
 30
0.0
 11
180.0
 21
94.745082770776335
 31
0.0
  0
LINE
  5
3CA
  8
0
 10
180.0
 20
140.1450827707763
 30
0.0
 11
140.0
 21
140.1450827707763
 31
0.0
  0
LINE
  5
3D2
  8
0
 10
174.5
 20
131.1450827707763
 30
0.0
 11
174.5
 21
89.145082770776355
 31
0.0
  0
LINE
  5
3D3
  8
0
 10
140.0
 20
131.1450827707763
 30
0.0
 11
140.0
 21
140.1450827707763
 31
0.0
  0
LINE
  5
3D5
  8
0
 10
140.0
 20
131.1450827707763
 30
0.0
 11
174.5
 21
131.1450827707763
 31
0.0
  0
LINE
  5
3D6
  8
0
 10
145.5
 20
131.1450827707763
 30
0.0
 11
145.50000000000011
 21
89.145082770776355
 31
0.0
  0
ARC
  5
3D9
  8
0
 10
90.713692817480876
 20
146.20215471044099
 30
0.0
 40
76.199469510264777
 50
320.36887629746872
 51
322.91350818051922
  0
LINE
  5
3DA
  8
0
 10
149.39999999999989
 20
94.945082770776352
 30
0.0
 11
149.39999999999989
 21
97.598898616586737
 31
0.0
  0
LINE
  5
3DB
  8
0
 10
151.5
 20
131.1450827707763
 30
0.0
 11
151.5
 21
100.2523558778215
 31
0.0
  0
LINE
  5
3DC
  8
0
 10
140.0
 20
80.145082770776341
 30
0.0
 11
140.0
 21
125.5450827707763
 31
0.0
  0
LINE
  5
3DE
  8
0
 10
140.0
 20
80.145082770776341
 30
0.0
 11
180.0
 21
80.145082770776341
 31
0.0
  0
LINE
  5
3E0
  8
0
 10
180.00000000000011
 20
89.145082770776355
 30
0.0
 11
145.5
 21
89.145082770776355
 31
0.0
  0
LINE
  5
3EC
  8
0
 10
180.0
 20
89.145082770776355
 30
0.0
 11
180.0
 21
80.145082770776341
 31
0.0
  0
ARC
  5
3F1
  8
0
 10
229.286307182569
 20
74.088010831071088
 30
0.0
 40
76.199469510329067
 50
140.36887629746869
 51
142.91350818051851
  0
LINE
  5
3F2
  8
0
 10
170.59999999999999
 20
125.3450827707763
 30
0.0
 11
170.59999999999999
 21
122.6912669249659
 31
0.0
  0
LINE
  5
3F3
  8
0
 10
168.50000000000011
 20
89.145082770776355
 30
0.0
 11
168.5
 21
120.0378096637311
 31
0.0
  0
LINE
  5
3F4
  8
0
 10
180.69999999999999
 20
116.8950827707763
 30
0.0
 11
180.69999999999999
 21
103.39508277079879
 31
0.0
  0
LINE
  5
3F8
  8
3
 10
222.31346276148039
 20
50.79373472753224
 30
0.0
 11
207.94999999999999
 21
100.8850822265824
 31
0.0
  0
LINE
  5
3FA
  8
0
 10
223.7059046009347
 20
52.649430210234598
 30
0.0
 11
209.7999999999999
 21
101.1450827707763
 31
0.0
  0
LINE
  5
3FB
  8
3
 10
219.81418235196759
 20
50.077077602898058
 30
0.0
 11
202.58995903871781
 21
110.1450827707763
 31
0.0
  0
LINE
  5
3FC
  8
3
 10
207.94999999999999
 20
100.8850822265824
 30
0.0
 11
207.94999999999999
 21
119.1450827707764
 31
0.0
  0
LINE
  5
3FD
  8
0
 10
209.7999999999999
 20
101.1450827707763
 30
0.0
 11
209.79999999999981
 21
117.74508277077641
 31
0.0
  0
LINE
  5
400
  8
0
 10
183.90000000000001
 20
119.1450827707763
 30
0.0
 11
183.90000000000001
 21
101.1450827707763
 31
0.0
  0
POLYLINE
  5
401
  8
3
 66
     1
 10
0.0
 20
0.0
 30
0.0
 70
   128
  0
VERTEX
  5
58D
  8
3
 10
202.58995903875379
 20
110.14508277079911
 30
0.0
  0
VERTEX
  5
58E
  8
3
 10
202.82618047240089
 20
109.047033623449
 30
0.0
  0
VERTEX
  5
58F
  8
3
 10
202.9097499443655
 20
107.9052122304597
 30
0.0
  0
VERTEX
  5
590
  8
3
 10
202.8500902767673
 20
106.8370419861334
 30
0.0
  0
VERTEX
  5
591
  8
3
 10
202.68050009101299
 20
105.8041849245178
 30
0.0
  0
VERTEX
  5
592
  8
3
 10
202.35485749150399
 20
104.56871382150079
 30
0.0
  0
VERTEX
  5
593
  8
3
 10
201.96990966475801
 20
103.4639436779231
 30
0.0
  0
VERTEX
  5
594
  8
3
 10
201.6008986126804
 20
102.5601013884251
 30
0.0
  0
VERTEX
  5
595
  8
3
 10
201.27879391971351
 20
101.8426682216335
 30
0.0
  0
VERTEX
  5
596
  8
3
 10
201.05769428625709
 20
101.3771812803317
 30
0.0
  0
VERTEX
  5
597
  8
3
 10
200.95006245821349
 20
101.1569780532021
 30
0.0
  0
VERTEX
  5
598
  8
3
 10
200.94419506919351
 20
101.1450827707763
 30
0.0
  0
SEQEND
  5
599
  8
3
  0
LINE
  5
402
  8
0
 10
213.30000000000001
 20
103.5200827707763
 30
0.0
 11
213.30000000000001
 21
116.7700827707763
 31
0.0
  0
LINE
  5
403
  8
0
 10
139.90000000000001
 20
114.1450827707763
 30
0.0
 11
139.90000000000001
 21
106.1450827707763
 31
0.0
  0
LINE
  5
404
  8
0
 10
167.34999999999991
 20
115.8950827707763
 30
0.0
 11
167.34999999999991
 21
104.3950827707763
 31
0.0
  0
LINE
  5
405
  8
0
 10
152.64999999999989
 20
104.3950827707763
 30
0.0
 11
152.64999999999989
 21
115.8950827707763
 31
0.0
  0
LINE
  5
45E
  8
0
 10
50.0
 20
131.1450827707763
 30
0.0
 11
90.0
 21
131.1450827707763
 31
0.0
  0
LINE
  5
45F
  8
0
 10
90.0
 20
140.1450827707763
 30
0.0
 11
50.0
 21
140.1450827707763
 31
0.0
  0
LINE
  5
460
  8
0
 10
90.0
 20
131.1450827707763
 30
0.0
 11
87.786799398163737
 21
118.6900139990297
 31
0.0
  0
LINE
  5
461
  8
0
 10
52.213200609267851
 20
118.690014013484
 30
0.0
 11
50.000000002423462
 21
131.145082771207
 31
0.0
  0
LINE
  5
462
  8
0
 10
50.0
 20
110.74508277077631
 30
0.0
 11
50.0
 21
140.1450827707763
 31
0.0
  0
LINE
  5
463
  8
0
 10
90.0
 20
140.1450827707763
 30
0.0
 11
90.0
 21
110.74508277077631
 31
0.0
  0
LINE
  5
465
  8
0
 10
50.0
 20
109.5450827707763
 30
0.0
 11
50.0
 21
80.145082770776341
 31
0.0
  0
LINE
  5
46D
  8
0
 10
90.0
 20
109.5450827707763
 30
0.0
 11
90.0
 21
80.145082770776341
 31
0.0
  0
LINE
  5
46E
  8
0
 10
50.0
 20
80.145082770776341
 30
0.0
 11
90.0
 21
80.145082770776341
 31
0.0
  0
ARC
  5
46F
  8
0
 10
70.0
 20
109.5450827707763
 30
0.0
 40
20.0
 50
0.0
 51
180.00000000000159
  0
LINE
  5
470
  8
0
 10
61.0
 20
80.145082770776341
 30
0.0
 11
61.0
 21
58.728432866382761
 31
0.0
  0
LINE
  5
471
  8
0
 10
78.999999999963393
 20
58.728432866357267
 30
0.0
 11
78.99999999997101
 21
80.145082770776341
 31
0.0
  0
ARC
  5
472
  8
0
 10
69.999999999982094
 20
59.004224624790439
 30
0.0
 40
9.0042246247904512
 50
181.75519561074091
 51
358.2448043890995
  0
CIRCLE
  5
473
  8
0
 10
70.0
 20
110.1450827707763
 30
0.0
 40
4.0
  0
CIRCLE
  5
474
  8
0
 10
70.0
 20
110.1450827707763
 30
0.0
 40
3.4049999999999718
  0
LINE
  5
475
  8
0
 10
61.5
 20
105.2376054826763
 30
0.0
 11
61.5
 21
115.0525600588763
 31
0.0
  0
LINE
  5
476
  8
0
 10
61.5
 20
115.0525600588763
 30
0.0
 11
70.0
 21
119.96003734697631
 31
0.0
  0
LINE
  5
477
  8
0
 10
70.0
 20
119.96003734697631
 30
0.0
 11
78.5
 21
115.0525600588763
 31
0.0
  0
LINE
  5
478
  8
0
 10
78.5
 20
115.0525600588763
 30
0.0
 11
78.5
 21
105.2376054826763
 31
0.0
  0
LINE
  5
479
  8
0
 10
78.5
 20
105.2376054826763
 30
0.0
 11
70.0
 21
100.3301281945763
 31
0.0
  0
LINE
  5
47A
  8
0
 10
70.0
 20
100.3301281945763
 30
0.0
 11
61.5
 21
105.2376054826763
 31
0.0
  0
LINE
  5
47B
  8
0
 10
303.2999999999999
 20
140.1450827707763
 30
0.0
 11
263.30000000000013
 21
140.1450827707763
 31
0.0
  0
LINE
  5
47C
  8
0
 10
303.2999999999999
 20
110.74508277077631
 30
0.0
 11
303.2999999999999
 21
140.1450827707763
 31
0.0
  0
LINE
  5
484
  8
0
 10
263.30000000000001
 20
110.74508277077631
 30
0.0
 11
263.30000000000001
 21
140.1450827707763
 31
0.0
  0
ARC
  5
486
  8
0
 10
283.29999999999978
 20
110.74508277077631
 30
0.0
 40
20.000000000000028
 50
180.0
 51
243.25631604959409
  0
ARC
  5
487
  8
0
 10
283.29999999999978
 20
110.74508277077631
 30
0.0
 40
20.00000000000006
 50
296.74368395040591
 51
0.0
  0
LINE
  5
489
  8
0
 10
303.2999999999999
 20
89.145082770776355
 30
0.0
 11
292.29999999999978
 21
89.145082770776355
 31
0.0
  0
LINE
  5
48A
  8
0
 10
292.29999999999978
 20
80.145082770776341
 30
0.0
 11
303.2999999999999
 21
80.145082770776341
 31
0.0
  0
LINE
  5
490
  8
0
 10
274.2999999999999
 20
89.145082770776355
 30
0.0
 11
263.30000000000001
 21
89.145082770776355
 31
0.0
  0
LINE
  5
491
  8
0
 10
263.30000000000001
 20
80.145082770776341
 30
0.0
 11
274.2999999999999
 21
80.145082770776327
 31
0.0
  0
LINE
  5
492
  8
0
 10
263.30000000000001
 20
89.145082770776355
 30
0.0
 11
265.51320060183622
 21
101.60015154252299
 31
0.0
  0
LINE
  5
493
  8
0
 10
301.0867993907321
 20
101.60015152806869
 30
0.0
 11
303.29999999757638
 21
89.145082770345724
 31
0.0
  0
LINE
  5
494
  8
0
 10
303.2999999999999
 20
109.5450827707763
 30
0.0
 11
303.2999999999999
 21
80.145082770776327
 31
0.0
  0
LINE
  5
495
  8
0
 10
263.2999999999999
 20
80.145082770776341
 30
0.0
 11
263.30000000000001
 21
109.5450827707763
 31
0.0
  0
LINE
  5
496
  8
3
 10
275.70000000008662
 20
59.955019099782739
 30
0.0
 11
275.69999999998078
 21
110.1450827707603
 31
0.0
  0
LINE
  5
497
  8
3
 10
275.69999999999982
 20
101.1450827707763
 30
0.0
 11
290.89999999999981
 21
101.1450827707763
 31
0.0
  0
LINE
  5
498
  8
3
 10
290.89999999999981
 20
110.1450827707763
 30
0.0
 11
290.89999999991318
 21
59.955019099782717
 31
0.0
  0
ARC
  5
499
  8
3
 10
283.30000000000001
 20
60.196716812387919
 30
0.0
 40
7.6038423039251191
 50
181.82152539817261
 51
358.17847460182901
  0
ARC
  5
49A
  8
0
 10
283.30000000000001
 20
60.152787194823397
 30
0.0
 40
6.5030079362885056
 50
181.74273577416179
 51
358.25726422583978
  0
LINE
  5
49B
  8
0
 10
289.79999999999978
 20
72.451421146964762
 30
0.0
 11
289.79999999999978
 21
59.955019099745961
 31
0.0
  0
ARC
  5
49C
  8
0
 10
283.30000000000001
 20
72.253653051931039
 30
0.0
 40
6.503007936287176
 50
1.7427357737756779
 51
178.25726422622429
  0
LINE
  5
49D
  8
0
 10
276.79999999999978
 20
59.95501909974594
 30
0.0
 11
276.79999999999978
 21
72.451421146964762
 31
0.0
  0
ARC
  5
4A1
  8
0
 10
283.30000000001792
 20
59.00422462479041
 30
0.0
 40
9.0042246247904671
 50
181.75519561090221
 51
358.24480438926071
  0
LINE
  5
4A3
  8
0
 10
292.29999999999978
 20
110.1450827707763
 30
0.0
 11
292.30000000000001
 21
58.728432866380793
 31
0.0
  0
LINE
  5
4A4
  8
0
 10
274.29999999999978
 20
58.72843286755591
 30
0.0
 11
274.2999999999999
 21
110.1450827707763
 31
0.0
  0
LINE
  5
4A6
  8
0
 10
289.79999999999978
 20
71.762327757457101
 30
0.0
 11
289.79899999999992
 21
71.871924238245001
 31
0.0
  0
LINE
  5
4A7
  8
0
 10
276.80099999999987
 20
71.871924238244091
 30
0.0
 11
276.79999999999978
 21
71.762327757457129
 31
0.0
  0
ARC
  5
4AA
  8
3
 10
283.29999999999978
 20
110.1450827707763
 30
0.0
 40
7.6000000000000218
 50
0.0
 51
180.0
  0
ARC
  5
4AE
  8
0
 10
283.29999999999978
 20
110.1450827707763
 30
0.0
 40
9.0
 50
0.0
 51
180.0
  0
CIRCLE
  5
4B5
  8
0
 10
283.29999999999978
 20
110.1450827707763
 30
0.0
 40
6.6249999999999707
  0
LINE
  5
4B6
  8
0
 10
274.79999999999978
 20
113.1031226623264
 30
0.0
 11
274.79999999999978
 21
115.0525600588763
 31
0.0
  0
LINE
  5
4B7
  8
0
 10
274.79999999999978
 20
115.0525600588763
 30
0.0
 11
276.48826230848528
 21
116.02727875714081
 31
0.0
  0
LINE
  5
4B8
  8
0
 10
281.61173769154487
 20
118.9853186487295
 30
0.0
 11
283.29999999999978
 21
119.96003734697631
 31
0.0
  0
LINE
  5
4B9
  8
0
 10
291.79999999999978
 20
115.0525600588763
 30
0.0
 11
291.79999999999978
 21
113.1031226623258
 31
0.0
  0
LINE
  5
4BA
  8
0
 10
283.29999999999978
 20
119.96003734697631
 30
0.0
 11
284.98826230845492
 21
118.9853186487294
 31
0.0
  0
LINE
  5
4BB
  8
0
 10
290.11173769151401
 20
116.027278757141
 30
0.0
 11
291.79999999999978
 21
115.0525600588763
 31
0.0
  0
LINE
  5
4C3
  8
1
 10
45.0
 20
110.1450827707763
 30
0.0
 11
95.0
 21
110.1450827707763
 31
0.0
  0
LINE
  5
4C4
  8
1
 10
70.0
 20
145.1450827707763
 30
0.0
 11
70.0
 21
44.999999999999943
 31
0.0
  0
LINE
  5
4C5
  8
1
 10
283.29999999999978
 20
145.1450827707763
 30
0.0
 11
283.29999999999978
 21
44.999999999999943
 31
0.0
  0
LINE
  5
4C6
  8
1
 10
160.0
 20
145.1450827707763
 30
0.0
 11
160.0
 21
75.145082770776341
 31
0.0
  0
LINE
  5
4D3
  8
1
 10
135.0
 20
110.1450827707763
 30
0.0
 11
218.2999999999999
 21
110.1450827707763
 31
0.0
  0
LINE
  5
4D4
  8
1
 10
258.30000000000001
 20
110.1450827707763
 30
0.0
 11
308.30000000000001
 21
110.1450827707763
 31
0.0
  0
LINE
  5
4E1
  8
0
 10
279.79999999999961
 20
142.1450827707763
 30
0.0
 11
286.80000000000013
 21
142.1450827707763
 31
0.0
  0
LINE
  5
4E2
  8
0
 10
287.30000000000013
 20
141.6450827707763
 30
0.0
 11
287.30000000000013
 21
140.1450827707763
 31
0.0
  0
LINE
  5
4E3
  8
0
 10
279.29999999999961
 20
141.6450827707763
 30
0.0
 11
279.29999999999961
 21
140.1450827707763
 31
0.0
  0
ARC
  5
4E4
  8
0
 10
286.80000000000013
 20
141.6450827707763
 30
0.0
 40
0.5
 50
0.0
 51
90.0
  0
ARC
  5
4E5
  8
0
 10
279.79999999999961
 20
141.6450827707763
 30
0.0
 40
0.5
 50
90.0
 51
180.0
  0
ARC
  5
4F9
  8
0
 10
156.49999999999969
 20
141.6450827707763
 30
0.0
 40
0.5
 50
90.0
 51
180.0
  0
ARC
  5
4FA
  8
0
 10
163.5000000000002
 20
141.6450827707763
 30
0.0
 40
0.5
 50
0.0
 51
90.0
  0
LINE
  5
4FB
  8
0
 10
155.9999999999998
 20
141.6450827707763
 30
0.0
 11
155.9999999999998
 21
140.1450827707763
 31
0.0
  0
LINE
  5
4FC
  8
0
 10
164.0000000000002
 20
141.6450827707763
 30
0.0
 11
164.0000000000002
 21
140.1450827707763
 31
0.0
  0
LINE
  5
4FD
  8
0
 10
156.49999999999969
 20
142.1450827707763
 30
0.0
 11
163.5000000000002
 21
142.1450827707763
 31
0.0
  0
LINE
  5
4FE
  8
0
 10
156.49999999999969
 20
78.145082770776355
 30
0.0
 11
163.5000000000002
 21
78.145082770776355
 31
0.0
  0
LINE
  5
4FF
  8
0
 10
164.0000000000002
 20
78.645082770776355
 30
0.0
 11
164.0000000000002
 21
80.145082770776355
 31
0.0
  0
LINE
  5
500
  8
0
 10
155.9999999999998
 20
78.645082770776355
 30
0.0
 11
155.9999999999998
 21
80.145082770776355
 31
0.0
  0
ARC
  5
501
  8
0
 10
163.5000000000002
 20
78.645082770776355
 30
0.0
 40
0.5
 50
270.0
 51
0.0
  0
ARC
  5
502
  8
0
 10
156.49999999999969
 20
78.645082770776355
 30
0.0
 40
0.5
 50
180.0
 51
270.0
  0
ARC
  5
503
  8
0
 10
73.500000000000341
 20
141.6450827707763
 30
0.0
 40
0.5
 50
0.0
 51
90.0
  0
ARC
  5
504
  8
0
 10
66.499999999999886
 20
141.6450827707763
 30
0.0
 40
0.5
 50
90.0
 51
180.0
  0
LINE
  5
505
  8
0
 10
74.000000000000341
 20
141.6450827707763
 30
0.0
 11
74.000000000000341
 21
140.1450827707763
 31
0.0
  0
LINE
  5
506
  8
0
 10
65.999999999999886
 20
141.6450827707763
 30
0.0
 11
65.999999999999886
 21
140.1450827707763
 31
0.0
  0
LINE
  5
507
  8
0
 10
73.500000000000341
 20
142.1450827707763
 30
0.0
 11
66.499999999999886
 21
142.1450827707763
 31
0.0
  0
ENDSEC
  0
EOF
