  0
SECTION
  2
HEADER
  9
$ACADVER
  1
AC1009
  9
$INSBASE
 10
0.0
 20
0.0
 30
0.0
  9
$EXTMIN
 10
0.0
 20
-2.960436562073669
 30
0.0
  9
$EXTMAX
 10
753.82633762706791
 20
538.03045496478921
 30
0.0
  9
$LIMMIN
 10
0.0
 20
0.0
  9
$LIMMAX
 10
375.0
 20
270.0
  9
$ORTHOMODE
 70
     1
  9
$REGENMODE
 70
     1
  9
$FILLMODE
 70
     1
  9
$QTEXTMODE
 70
     0
  9
$MIRRTEXT
 70
     1
  9
$DRAGMODE
 70
     2
  9
$LTSCALE
 40
10.0
  9
$OSMODE
 70
  3071
  9
$ATTMODE
 70
     1
  9
$TEXTSIZE
 40
5.0
  9
$TRACEWID
 40
0.05
  9
$TEXTSTYLE
  7
STANDARD
  9
$CLAYER
  8
0
  9
$CELTYPE
  6
BYLAYER
  9
$CECOLOR
 62
     6
  9
$DIMSCALE
 40
1.0
  9
$DIMASZ
 40
3.0
  9
$DIMEXO
 40
2.0
  9
$DIMDLI
 40
0.38
  9
$DIMRND
 40
0.0
  9
$DIMDLE
 40
0.0
  9
$DIMEXE
 40
2.0
  9
$DIMTP
 40
0.0
  9
$DIMTM
 40
0.0
  9
$DIMTXT
 40
3.2000000000000002
  9
$DIMCEN
 40
0.0
  9
$DIMTSZ
 40
0.0
  9
$DIMTOL
 70
     0
  9
$DIMLIM
 70
     0
  9
$DIMTIH
 70
     0
  9
$DIMTOH
 70
     0
  9
$DIMSE1
 70
     0
  9
$DIMSE2
 70
     0
  9
$DIMTAD
 70
     1
  9
$DIMZIN
 70
     8
  9
$DIMBLK
  1

  9
$DIMASO
 70
     0
  9
$DIMSHO
 70
     0
  9
$DIMPOST
  1

  9
$DIMAPOST
  1

  9
$DIMALT
 70
     0
  9
$DIMALTD
 70
     2
  9
$DIMALTF
 40
25.399999999999999
  9
$DIMLFAC
 40
1.0
  9
$DIMTOFL
 70
     0
  9
$DIMTVP
 40
1.6000000000000001
  9
$DIMTIX
 70
     1
  9
$DIMSOXD
 70
     0
  9
$DIMSAH
 70
     0
  9
$DIMBLK1
  1

  9
$DIMBLK2
  1

  9
$DIMSTYLE
  2
STANDARD
  9
$DIMCLRD
 70
     0
  9
$DIMCLRE
 70
     0
  9
$DIMCLRT
 70
     0
  9
$DIMTFAC
 40
1.0
  9
$DIMGAP
 40
1.1999999999999991
  9
$LUNITS
 70
     2
  9
$LUPREC
 70
     4
  9
$SKETCHINC
 40
0.1
  9
$FILLETRAD
 40
0.0
  9
$AUNITS
 70
     0
  9
$AUPREC
 70
     4
  9
$MENU
  1
ACAD
  9
$ELEVATION
 40
0.0
  9
$PELEVATION
 40
0.0
  9
$THICKNESS
 40
0.0
  9
$LIMCHECK
 70
     0
  9
$BLIPMODE
 70
     0
  9
$CHAMFERA
 40
0.0
  9
$CHAMFERB
 40
0.0
  9
$SKPOLY
 70
     0
  9
$TDCREATE
 40
2448055.7149187499
  9
$TDUPDATE
 40
2456598.5779536339
  9
$TDINDWG
 40
2.0648611458000001
  9
$TDUSRTIMER
 40
2.0648611458000001
  9
$USRTIMER
 70
     1
  9
$ANGBASE
 50
0.0
  9
$ANGDIR
 70
     0
  9
$PDMODE
 70
     0
  9
$PDSIZE
 40
0.0
  9
$PLINEWID
 40
0.0
  9
$COORDS
 70
     1
  9
$SPLFRAME
 70
     0
  9
$SPLINETYPE
 70
     6
  9
$SPLINESEGS
 70
     8
  9
$ATTDIA
 70
     0
  9
$ATTREQ
 70
     1
  9
$HANDLING
 70
     1
  9
$HANDSEED
  5
144E3
  9
$SURFTAB1
 70
     6
  9
$SURFTAB2
 70
     6
  9
$SURFTYPE
 70
     6
  9
$SURFU
 70
     6
  9
$SURFV
 70
     6
  9
$UCSNAME
  2

  9
$UCSORG
 10
0.0
 20
0.0
 30
0.0
  9
$UCSXDIR
 10
1.0
 20
0.0
 30
0.0
  9
$UCSYDIR
 10
0.0
 20
1.0
 30
0.0
  9
$PUCSNAME
  2

  9
$PUCSORG
 10
0.0
 20
0.0
 30
0.0
  9
$PUCSXDIR
 10
1.0
 20
0.0
 30
0.0
  9
$PUCSYDIR
 10
0.0
 20
1.0
 30
0.0
  9
$USERI1
 70
     0
  9
$USERI2
 70
     0
  9
$USERI3
 70
     0
  9
$USERI4
 70
     0
  9
$USERI5
 70
     0
  9
$USERR1
 40
0.0
  9
$USERR2
 40
0.0
  9
$USERR3
 40
0.0
  9
$USERR4
 40
0.0
  9
$USERR5
 40
0.0
  9
$WORLDVIEW
 70
     1
  9
$SHADEDGE
 70
     3
  9
$SHADEDIF
 70
    70
  9
$TILEMODE
 70
     1
  9
$MAXACTVP
 70
    16
  9
$PLIMCHECK
 70
     0
  9
$PEXTMIN
 10
1.0000000000000000E+020
 20
1.0000000000000000E+020
 30
1.0000000000000000E+020
  9
$PEXTMAX
 10
-1.0000000000000000E+020
 20
-1.0000000000000000E+020
 30
-1.0000000000000000E+020
  9
$PLIMMIN
 10
0.0
 20
0.0
  9
$PLIMMAX
 10
12.0
 20
9.0
  9
$UNITMODE
 70
     0
  9
$VISRETAIN
 70
     0
  9
$PLINEGEN
 70
     1
  9
$PSLTSCALE
 70
     0
  0
ENDSEC
  0
SECTION
  2
TABLES
  0
TABLE
  2
VPORT
 70
     1
  0
VPORT
  2
*ACTIVE
 70
     0
 10
0.0
 20
0.0
 11
1.0
 21
1.0
 12
391.9042168265367
 22
267.5374839535022
 13
0.0
 23
0.0
 14
5.0
 24
5.0
 15
10.0
 25
10.0
 16
0.0
 26
0.0
 36
1.0
 17
0.0
 27
0.0
 37
0.0
 40
545.87096969821459
 41
1.831871345029239
 42
50.0
 43
0.0
 44
0.0
 50
0.0
 51
0.0
 71
     0
 72
   500
 73
     1
 74
     1
 75
     0
 76
     0
 77
     0
 78
     2
  0
ENDTAB
  0
TABLE
  2
LTYPE
 70
     3
  0
LTYPE
  2
CONTINUOUS
 70
     0
  3
実線
 72
    65
 73
     0
 40
0.0
  0
LTYPE
  2
CENTER
 70
     0
  3
____ _ ____ _ ____ _ ____ _ ____ _ ____ _ ____
 72
    65
 73
     4
 40
2.0
 49
1.25
 49
-0.25
 49
0.25
 49
-0.25
  0
LTYPE
  2
PHANTOM2
 70
     0
  3
___ _ _ ___ _ _ ___ _ _ ___ _ _
 72
    65
 73
     6
 40
1.25
 49
0.625
 49
-0.125
 49
0.125
 49
-0.125
 49
0.125
 49
-0.125
  0
ENDTAB
  0
TABLE
  2
LAYER
 70
     4
  0
LAYER
  2
0
 70
     0
 62
     7
  6
CONTINUOUS
  0
LAYER
  2
1
 70
     0
 62
     1
  6
CENTER
  0
LAYER
  2
DEFPOINTS
 70
     0
 62
     7
  6
CONTINUOUS
  0
LAYER
  2
3
 70
     0
 62
     3
  6
CONTINUOUS
  0
ENDTAB
  0
TABLE
  2
STYLE
 70
     3
  0
STYLE
  2
STANDARD
 70
     0
 40
0.0
 41
1.0
 50
0.0
 71
     0
 42
5.0
  3
simplex.shx
  4
bigfont.shx
  0
STYLE
  2
07500
 70
     0
 40
0.0
 41
0.75
 50
0.0
 71
     0
 42
0.2
  3
simplex.shx
  4
bigfont.shx
  0
STYLE
  2
STANDARD1
 70
     0
 40
0.0
 41
1.0
 50
0.0
 71
     0
 42
3.0
  3
txt
  4

  0
ENDTAB
  0
TABLE
  2
VIEW
 70
     2
  0
VIEW
  2
ALL
 70
     0
 40
270.0
 10
220.99159663865549
 20
135.0
 41
0.0
 11
0.0
 21
0.0
 31
1.0
 12
0.0
 22
0.0
 32
0.0
 42
0.0
 43
0.0
 44
0.0
 50
0.0
 71
     0
  0
VIEW
  2
OLE1
 70
     0
 40
168.2487151179721
 10
2892.3009567448912
 20
702.51600084347126
 41
162.5749581879237
 11
0.0
 21
0.0
 31
1.0
 12
0.0
 22
0.0
 32
0.0
 42
50.0
 43
0.0
 44
0.0
 50
0.0
 71
     0
  0
ENDTAB
  0
TABLE
  2
UCS
 70
     0
  0
ENDTAB
  0
TABLE
  2
APPID
 70
    48
  0
APPID
  2
ACAD
 70
     0
  0
APPID
  2
DCO15
 70
     0
  0
APPID
  2
GENIUS_GENOREF_13
 70
     0
  0
APPID
  2
GENIUS_GENOENT_13
 70
     0
  0
APPID
  2
GENIUS_GENBH_13
 70
     0
  0
APPID
  2
GENIUS_GENOBJ_13
 70
     0
  0
APPID
  2
GENIUS_GENODEF_13
 70
     0
  0
APPID
  2
GENIUS_GENOLIS_13
 70
     0
  0
APPID
  2
GENIUS_GENOBJ-NBEHI-BHF_13
 70
     0
  0
APPID
  2
GENIUS_GENOBJ-NBEHI-BHB_13
 70
     0
  0
APPID
  2
GENIUS_GENOBJ-F-PART_13
 70
     0
  0
APPID
  2
GENIUS_GEFSTDP_13
 70
     0
  0
APPID
  2
GENIUS_GENOBJ-N-RSSYM_13
 70
     0
  0
APPID
  2
GENIUS_GENSYMENT_13
 70
     0
  0
APPID
  2
GENIUS_GENOBJ-N-TIT_13
 70
     0
  0
APPID
  2
GENIUS_GENTITLE_13
 70
     0
  0
APPID
  2
GENIUS_GENZVEED_13
 70
     0
  0
APPID
  2
GENIUS_GENOBJ-N-LEADER_13
 70
     0
  0
APPID
  2
GENIUS_GENOBJ-N-FIL_13
 70
     0
  0
APPID
  2
GENIUS_GENOBJ-N-SEC_13
 70
     0
  0
APPID
  2
GENIUS_GENOBJ-N-CRS_13
 70
     0
  0
APPID
  2
GENIUS_GENOBJ-N-ZOO_13
 70
     0
  0
APPID
  2
GENIUS_GENZOO_13
 70
     0
  0
APPID
  2
GENIUS_GENOBJ-F-TOL_13
 70
     0
  0
APPID
  2
GENIUS_GENFIL_13
 70
     0
  0
APPID
  2
GENIUS_GENOBJ-N-CHA_13
 70
     0
  0
APPID
  2
_CALL_MAC$
 70
     0
  0
APPID
  2
ASM_BASE
 70
     0
  0
APPID
  2
ASM_EXPLO_VER_2_00
 70
     0
  0
APPID
  2
ASM_CADM_VER_12_00
 70
     0
  0
APPID
  2
ASM_BASEFORO
 70
     0
  0
APPID
  2
ASM_BASETRAVI
 70
     0
  0
APPID
  2
ASM_BASETRAVI1
 70
     0
  0
APPID
  2
ASM_GRUPPI
 70
     0
  0
APPID
  2
ASM_CADM_ALBERO
 70
     0
  0
APPID
  2
ASM_GOLE
 70
     0
  0
APPID
  2
ACAD_MLEADERVER
 70
     0
  0
APPID
  2
ACAD_DSTYLE_DIMJAG
 70
     0
  0
APPID
  2
ACAD_DSTYLE_DIMTALN
 70
     0
  0
APPID
  2
ACAD_EXEMPT_FROM_CAD_STANDARDS
 70
     0
  0
APPID
  2
ACAD_DSTYLE_DIMRADIAL_EXTENSION
 70
     0
  0
APPID
  2
ACAD_PSEXT
 70
     0
  0
APPID
  2
ACAD_DSTYLE_DIMBREAK
 70
     0
  0
APPID
  2
ACAECLAYERSTANDARD
 70
     0
  0
APPID
  2
ACCMTRANSPARENCY
 70
     0
  0
APPID
  2
GRADIENTCOLOR1ACI
 70
     0
  0
APPID
  2
GRADIENTCOLOR2ACI
 70
     0
  0
APPID
  2
ACAD_NAV_VCDISPLAY
 70
     0
  0
ENDTAB
  0
TABLE
  2
DIMSTYLE
 70
     1
  0
DIMSTYLE
  2
STANDARD
 70
     0
  3

  4

  5

  6

  7

 40
1.0
 41
0.18
 42
0.0625
 43
0.38
 44
0.18
 45
0.0
 46
0.0
 47
0.0
 48
0.0
140
0.18
141
0.09
142
0.0
143
25.399999999999999
144
1.0
145
0.0
146
1.0
147
0.09
 71
     0
 72
     0
 73
     1
 74
     1
 75
     0
 76
     0
 77
     0
 78
     0
170
     0
171
     2
172
     0
173
     0
174
     0
175
     0
176
     0
177
     0
178
     0
  0
ENDTAB
  0
ENDSEC
  0
SECTION
  2
BLOCKS
  0
BLOCK
  8
0
  2
$MODEL_SPACE
 70
     0
 10
0.0
 20
0.0
 30
0.0
  3
$MODEL_SPACE
  1

  0
ENDBLK
  5
36
  8
0
  0
BLOCK
 67
     1
  8
0
  2
$PAPER_SPACE
 70
     0
 10
0.0
 20
0.0
 30
0.0
  3
$PAPER_SPACE
  1

  0
ENDBLK
  5
34
 67
     1
  8
0
  0
ENDSEC
  0
SECTION
  2
ENTITIES
  0
CIRCLE
  5
BDE4
  8
0
 10
463.23428809197139
 20
467.30690611222349
 30
0.0
 40
8.9249999999999972
  0
LINE
  5
BDE5
  8
0
 10
392.5342880919714
 20
436.30690611222337
 30
0.0
 11
392.5342880919714
 21
436.4069061122234
 31
0.0
  0
LINE
  5
BDE8
  8
0
 10
392.5342880919714
 20
498.20690611222358
 30
0.0
 11
392.5342880919714
 21
498.30690611222337
 31
0.0
  0
LINE
  5
BDED
  8
0
 10
393.23428809197139
 20
423.30690611222337
 30
0.0
 11
393.23428809197139
 21
511.30690611222337
 31
0.0
  0
ARC
  5
BDEE
  8
0
 10
404.23428809197128
 20
423.30690611222337
 30
0.0
 40
11.000000000000011
 50
180.0
 51
270.0
  0
LINE
  5
BDEF
  8
0
 10
522.23428809197139
 20
412.30690611222349
 30
0.0
 11
404.23428809197128
 21
412.30690611222349
 31
0.0
  0
ARC
  5
BDF0
  8
0
 10
522.23428809197139
 20
423.30690611222337
 30
0.0
 40
11.0
 50
270.0
 51
0.0
  0
LINE
  5
BDF1
  8
0
 10
533.23428809197128
 20
511.30690611222337
 30
0.0
 11
533.23428809197128
 21
423.30690611222337
 31
0.0
  0
ARC
  5
BDF2
  8
0
 10
522.23428809197139
 20
511.30690611222337
 30
0.0
 40
11.00000000000003
 50
0.0
 51
90.0
  0
LINE
  5
BDF3
  8
0
 10
404.23428809197128
 20
522.30690611222349
 30
0.0
 11
522.23428809197139
 21
522.30690611222349
 31
0.0
  0
ARC
  5
BDF4
  8
0
 10
404.23428809197128
 20
511.30690611222337
 30
0.0
 40
11.000000000000011
 50
90.0
 51
180.0000008537736
  0
ARC
  5
BDF5
  8
0
 10
515.73428809197128
 20
503.80690611222349
 30
0.0
 40
5.5
 50
180.0
 51
0.0
  0
LINE
  5
BDF6
  8
0
 10
510.23428809197139
 20
503.80690611222349
 30
0.0
 11
510.23428809197139
 21
510.80690611222337
 31
0.0
  0
ARC
  5
BDF7
  8
0
 10
515.73428809197128
 20
510.80690611222337
 30
0.0
 40
5.5
 50
0.0
 51
180.0
  0
LINE
  5
BDF8
  8
0
 10
521.23428809197128
 20
510.80690611222337
 30
0.0
 11
521.23428809197128
 21
503.80690611222349
 31
0.0
  0
LINE
  5
BDF9
  8
0
 10
510.23428809197139
 20
423.80690611222337
 30
0.0
 11
510.23428809197139
 21
430.80690611222337
 31
0.0
  0
ARC
  5
BDFA
  8
0
 10
515.73428809197128
 20
430.80690611222337
 30
0.0
 40
5.5
 50
0.0
 51
180.0
  0
LINE
  5
BDFB
  8
0
 10
521.23428809197128
 20
430.80690611222337
 30
0.0
 11
521.23428809197128
 21
423.80690611222337
 31
0.0
  0
ARC
  5
BDFC
  8
0
 10
515.73428809197128
 20
423.80690611222337
 30
0.0
 40
5.5
 50
180.0
 51
0.0
  0
LINE
  5
BDFD
  8
0
 10
405.23428809197139
 20
503.80690611222349
 30
0.0
 11
405.23428809197139
 21
510.80690611222337
 31
0.0
  0
ARC
  5
BDFE
  8
0
 10
410.73428809197139
 20
510.80690611222337
 30
0.0
 40
5.4999999999999973
 50
0.0
 51
180.0
  0
LINE
  5
BDFF
  8
0
 10
416.23428809197128
 20
510.80690611222337
 30
0.0
 11
416.23428809197128
 21
503.80690611222349
 31
0.0
  0
ARC
  5
BE00
  8
0
 10
410.73428809197139
 20
503.80690611222349
 30
0.0
 40
5.5000000000000009
 50
180.0
 51
0.0
  0
ARC
  5
BE01
  8
0
 10
410.73428809197139
 20
423.80690611222337
 30
0.0
 40
5.5000000000000009
 50
180.0
 51
0.0
  0
LINE
  5
BE02
  8
0
 10
405.23428809197139
 20
423.80690611222337
 30
0.0
 11
405.23428809197139
 21
430.80690611222337
 31
0.0
  0
ARC
  5
BE03
  8
0
 10
410.73428809197139
 20
430.80690611222337
 30
0.0
 40
5.4999999999999973
 50
0.0
 51
180.0
  0
LINE
  5
BE04
  8
0
 10
416.23428809197128
 20
430.80690611222337
 30
0.0
 11
416.23428809197128
 21
423.80690611222337
 31
0.0
  0
CIRCLE
  5
BE09
  8
0
 10
463.23428809197139
 20
467.30690611222349
 30
0.0
 40
13.57900689360916
  0
CIRCLE
  5
BE0D
  8
0
 10
463.23428809197139
 20
467.30690611222349
 30
0.0
 40
20.175000000000001
  0
CIRCLE
  5
BE0F
  8
0
 10
463.23428809197139
 20
467.30690611222349
 30
0.0
 40
23.802288713680468
  0
CIRCLE
  5
BE10
  8
0
 10
463.23428809197139
 20
467.30690611222349
 30
0.0
 40
25.66854682270689
  0
CIRCLE
  5
BE11
  8
0
 10
463.23428809197139
 20
467.30690611222349
 30
0.0
 40
27.175000000000178
  0
CIRCLE
  5
BE13
  8
0
 10
463.23428809197139
 20
467.30690611222349
 30
0.0
 40
31.175000000000001
  0
LINE
  5
BE1C
  8
0
 10
393.23428809197139
 20
498.30690611222337
 30
0.0
 11
392.5342880919714
 21
498.30690611222337
 31
0.0
  0
LINE
  5
BE1D
  8
0
 10
392.5342880919714
 20
436.30690611222337
 30
0.0
 11
393.23428809197139
 21
436.30690611222337
 31
0.0
  0
LINE
  5
BE1E
  8
0
 10
392.57459160689041
 20
498.30690611222337
 30
0.0
 11
392.57459160689041
 21
498.20690611222358
 31
0.0
  0
LINE
  5
BE28
  8
0
 10
392.57459160689041
 20
436.4069061122234
 30
0.0
 11
392.57459160689041
 21
436.30690611222337
 31
0.0
  0
LINE
  5
BE2C
  8
0
 10
393.23428809197139
 20
436.4069061122234
 30
0.0
 11
346.75094859036699
 21
436.4069061122234
 31
0.0
  0
LINE
  5
BE2F
  8
0
 10
393.23428809197139
 20
498.20690611222358
 30
0.0
 11
346.75094859036682
 21
498.20690611222358
 31
0.0
  0
LINE
  5
BE35
  8
0
 10
346.75094859036682
 20
498.20690611222358
 30
0.0
 11
346.75094859036682
 21
436.4069061122234
 31
0.0
  0
LINE
  5
BF08
  8
0
 10
732.71536470337276
 20
270.22272068512922
 30
0.0
 11
732.71536470337276
 21
271.0227206851294
 31
0.0
  0
LINE
  5
BF09
  8
0
 10
663.11536470337251
 20
271.0227206851294
 30
0.0
 11
663.11536470337251
 21
270.22272068512922
 31
0.0
  0
LINE
  5
BF0A
  8
0
 10
732.41658536735122
 20
261.72272068512922
 30
0.0
 11
733.91536470337257
 21
270.22272068512922
 31
0.0
  0
LINE
  5
BF0B
  8
0
 10
661.91536470337257
 20
270.22272068512922
 30
0.0
 11
663.41414403939507
 21
261.72272068512922
 31
0.0
  0
LINE
  5
BF0C
  8
0
 10
730.91536470337269
 20
209.52603890236219
 30
0.0
 11
730.91536470337269
 21
261.72272068512922
 31
0.0
  0
LINE
  5
BF0D
  8
0
 10
664.91536470337269
 20
261.72272068512922
 30
0.0
 11
664.91536470337269
 21
209.52603890236219
 31
0.0
  0
LINE
  5
BF14
  8
0
 10
752.91536470337269
 20
273.52272068512929
 30
0.0
 11
752.91536470337269
 21
271.0227206851294
 31
0.0
  0
LINE
  5
BF16
  8
0
 10
642.91536470337269
 20
273.52272068512929
 30
0.0
 11
752.91536470337269
 21
273.52272068512929
 31
0.0
  0
LINE
  5
BF18
  8
0
 10
642.91536470337269
 20
271.0227206851294
 30
0.0
 11
752.91536470337269
 21
271.0227206851294
 31
0.0
  0
LINE
  5
BF19
  8
0
 10
642.91536470337269
 20
273.52272068512929
 30
0.0
 11
642.91536470337269
 21
271.0227206851294
 31
0.0
  0
LINE
  5
BF28
  8
0
 10
661.91536470337257
 20
270.22272068512922
 30
0.0
 11
733.91536470337257
 21
270.22272068512922
 31
0.0
  0
LINE
  5
BF29
  8
0
 10
663.41414403939507
 20
261.72272068512922
 30
0.0
 11
732.41658536735122
 21
261.72272068512922
 31
0.0
  0
LINE
  5
BF2F
  8
0
 10
728.91536470337257
 20
193.5851327247783
 30
0.0
 11
728.91536470333995
 21
143.52272068512929
 31
0.0
  0
LINE
  5
BF32
  8
0
 10
666.91536470337257
 20
144.52272068512909
 30
0.0
 11
666.91536470337257
 21
193.5851327247783
 31
0.0
  0
POLYLINE
  5
BF33
  8
0
 66
     1
 10
0.0
 20
0.0
 30
0.0
  0
VERTEX
  5
14197
  8
0
 10
669.91536470337257
 20
192.4865737672132
 30
0.0
  0
VERTEX
  5
14198
  8
0
 10
669.78020359820493
 20
192.9344544461683
 30
0.0
  0
VERTEX
  5
14199
  8
0
 10
669.52072394574225
 20
193.83654210110811
 30
0.0
  0
VERTEX
  5
1419A
  8
0
 10
669.27581119456215
 20
194.7466787168716
 30
0.0
  0
VERTEX
  5
1419B
  8
0
 10
669.1588569644473
 20
195.2046196290357
 30
0.0
  0
VERTEX
  5
1419C
  8
0
 10
669.04559098879145
 20
195.66439737893299
 30
0.0
  0
VERTEX
  5
1419D
  8
0
 10
668.83018143504785
 20
196.58922728305561
 30
0.0
  0
VERTEX
  5
1419E
  8
0
 10
668.62969304185299
 20
197.52069397682359
 30
0.0
  0
VERTEX
  5
1419F
  8
0
 10
668.44422866293189
 20
198.4583196030421
 30
0.0
  0
VERTEX
  5
141A0
  8
0
 10
668.27388344445535
 20
199.40162314488629
 30
0.0
  0
VERTEX
  5
141A1
  8
0
 10
668.11874477622223
 20
200.35012067267101
 30
0.0
  0
VERTEX
  5
141A2
  8
0
 10
668.04690307576311
 20
200.82616521784621
 30
0.0
  0
VERTEX
  5
141A3
  8
0
 10
667.9788922468324
 20
201.303325592113
 30
0.0
  0
VERTEX
  5
141A4
  8
0
 10
667.85439760285135
 20
202.26074889396321
 30
0.0
  0
VERTEX
  5
141A5
  8
0
 10
667.74532471200837
 20
203.2218994048751
 30
0.0
  0
VERTEX
  5
141A6
  8
0
 10
667.65172953042645
 20
204.1862840393849
 30
0.0
  0
VERTEX
  5
141A7
  8
0
 10
667.57366007391829
 20
205.15340805287201
 30
0.0
  0
VERTEX
  5
141A8
  8
0
 10
667.51115639335512
 20
206.1227752953707
 30
0.0
  0
VERTEX
  5
141A9
  8
0
 10
667.48575205189525
 20
206.60814475898789
 30
0.0
  0
VERTEX
  5
141AA
  8
0
 10
667.46425055411692
 20
207.09388846610389
 30
0.0
  0
VERTEX
  5
141AB
  8
0
 10
667.43296661964177
 20
208.06624936860479
 30
0.0
  0
VERTEX
  5
141AC
  8
0
 10
667.41732063908694
 20
209.03935916630081
 30
0.0
  0
VERTEX
  5
141AD
  8
0
 10
667.41536470337257
 20
209.52603890236219
 30
0.0
  0
SEQEND
  5
141AE
  8
0
  0
POLYLINE
  5
BF34
  8
0
 66
     1
 10
0.0
 20
0.0
 30
0.0
  0
VERTEX
  5
141AF
  8
0
 10
667.41536470337257
 20
209.52603890236219
 30
0.0
  0
VERTEX
  5
141B0
  8
0
 10
667.41859062959611
 20
210.1510513544865
 30
0.0
  0
VERTEX
  5
141B1
  8
0
 10
667.44439394512574
 20
211.4005474358016
 30
0.0
  0
VERTEX
  5
141B2
  8
0
 10
667.4959787440057
 20
212.64845749575511
 30
0.0
  0
VERTEX
  5
141B3
  8
0
 10
667.5314264115749
 20
213.27148773570781
 30
0.0
  0
VERTEX
  5
141B4
  8
0
 10
667.57330138034365
 20
213.89372567784969
 30
0.0
  0
VERTEX
  5
141B5
  8
0
 10
667.67629643147109
 20
215.13529836088199
 30
0.0
  0
VERTEX
  5
141B6
  8
0
 10
667.80487675329277
 20
216.37212505040841
 30
0.0
  0
VERTEX
  5
141B7
  8
0
 10
667.95893355401847
 20
217.60315926757019
 30
0.0
  0
VERTEX
  5
141B8
  8
0
 10
668.13833648621494
 20
218.82735943451939
 30
0.0
  0
VERTEX
  5
141B9
  8
0
 10
668.34293375709046
 20
220.04368975569491
 30
0.0
  0
VERTEX
  5
141BA
  8
0
 10
668.45462700155622
 20
220.64858183488579
 30
0.0
  0
VERTEX
  5
141BB
  8
0
 10
668.57255225692734
 20
221.2511210942132
 30
0.0
  0
VERTEX
  5
141BC
  8
0
 10
668.82699770555155
 20
222.4486318426159
 30
0.0
  0
VERTEX
  5
141BD
  8
0
 10
669.10605481671064
 20
223.63520878725669
 30
0.0
  0
VERTEX
  5
141BE
  8
0
 10
669.40948748022845
 20
224.8098479655776
 30
0.0
  0
VERTEX
  5
141BF
  8
0
 10
669.73703896177904
 20
225.97155551556239
 30
0.0
  0
VERTEX
  5
141C0
  8
0
 10
670.08843212010561
 20
227.11934851664481
 30
0.0
  0
VERTEX
  5
141C1
  8
0
 10
670.27297719875514
 20
227.68772309533711
 30
0.0
  0
VERTEX
  5
141C2
  8
0
 10
670.4633696415176
 20
228.25225582135471
 30
0.0
  0
VERTEX
  5
141C3
  8
0
 10
670.86153429143724
 20
229.3693188770082
 30
0.0
  0
VERTEX
  5
141C4
  8
0
 10
671.28258918282063
 20
230.46959253673711
 30
0.0
  0
VERTEX
  5
141C5
  8
0
 10
671.50158988794738
 20
231.01314184742861
 30
0.0
  0
VERTEX
  5
141C6
  8
0
 10
671.72617806119433
 20
231.55214585917949
 30
0.0
  0
VERTEX
  5
141C7
  8
0
 10
672.19192560607996
 20
232.61606289614639
 30
0.0
  0
VERTEX
  5
141C8
  8
0
 10
672.67943774855667
 20
233.6604434676085
 30
0.0
  0
VERTEX
  5
141C9
  8
0
 10
672.93122735255827
 20
234.17503077184099
 30
0.0
  0
VERTEX
  5
141CA
  8
0
 10
673.18830200468165
 20
234.68440392333579
 30
0.0
  0
VERTEX
  5
141CB
  8
0
 10
673.71808782448988
 20
235.68707789055469
 30
0.0
  0
VERTEX
  5
141CC
  8
0
 10
674.26834695628804
 20
236.6676170069866
 30
0.0
  0
VERTEX
  5
141CD
  8
0
 10
674.83861382591476
 20
237.6251916386461
 30
0.0
  0
VERTEX
  5
141CE
  8
0
 10
675.42840593066364
 20
238.5589915817952
 30
0.0
  0
VERTEX
  5
141CF
  8
0
 10
676.03722424753414
 20
239.46822674845569
 30
0.0
  0
VERTEX
  5
141D0
  8
0
 10
676.34860787718299
 20
239.91339130338221
 30
0.0
  0
VERTEX
  5
141D1
  8
0
 10
676.66455365544778
 20
240.35212783490141
 30
0.0
  0
VERTEX
  5
141D2
  8
0
 10
677.30986337109505
 20
241.2099469725697
 30
0.0
  0
VERTEX
  5
141D3
  8
0
 10
677.97260739803176
 20
242.0409583608282
 30
0.0
  0
VERTEX
  5
141D4
  8
0
 10
678.65222498864648
 20
242.84445888107871
 30
0.0
  0
VERTEX
  5
141D5
  8
0
 10
679.34814111860669
 20
243.61976869166281
 30
0.0
  0
VERTEX
  5
141D6
  8
0
 10
680.05976697338974
 20
244.36623180307669
 30
0.0
  0
VERTEX
  5
141D7
  8
0
 10
680.42128339466581
 20
244.7284475089607
 30
0.0
  0
VERTEX
  5
141D8
  8
0
 10
680.78650044647645
 20
245.0832166330058
 30
0.0
  0
VERTEX
  5
141D9
  8
0
 10
681.52772664879456
 20
245.77011654070219
 30
0.0
  0
VERTEX
  5
141DA
  8
0
 10
682.28281842897741
 20
246.42635034026739
 30
0.0
  0
VERTEX
  5
141DB
  8
0
 10
683.0511369039923
 20
247.0513627923917
 30
0.0
  0
VERTEX
  5
141DC
  8
0
 10
683.83203199970467
 20
247.64462507414169
 30
0.0
  0
VERTEX
  5
141DD
  8
0
 10
684.62484300090182
 20
248.2056352263983
 30
0.0
  0
VERTEX
  5
141DE
  8
0
 10
685.02550772028189
 20
248.47389634230629
 30
0.0
  0
VERTEX
  5
141DF
  8
0
 10
685.42889911032671
 20
248.7339185785643
 30
0.0
  0
VERTEX
  5
141E0
  8
0
 10
686.2435200162372
 20
249.2290281501821
 30
0.0
  0
VERTEX
  5
141E1
  8
0
 10
687.06801646801875
 20
249.69054502912451
 30
0.0
  0
VERTEX
  5
141E2
  8
0
 10
687.90169085935941
 20
250.1180787260362
 30
0.0
  0
VERTEX
  5
141E3
  8
0
 10
688.74383781849235
 20
250.51126750472639
 30
0.0
  0
VERTEX
  5
141E4
  8
0
 10
689.59374480501538
 20
250.86977868823419
 30
0.0
  0
VERTEX
  5
141E5
  8
0
 10
690.02138382774581
 20
251.03593423590539
 30
0.0
  0
VERTEX
  5
141E6
  8
0
 10
690.45069271276577
 20
251.1933089403062
 30
0.0
  0
VERTEX
  5
141E7
  8
0
 10
691.31395647826037
 20
251.48158452204891
 30
0.0
  0
VERTEX
  5
141E8
  8
0
 10
692.18280569416936
 20
251.7343615235406
 30
0.0
  0
VERTEX
  5
141E9
  8
0
 10
693.05650522731321
 20
251.95142607020199
 30
0.0
  0
VERTEX
  5
141EA
  8
0
 10
693.93431584066093
 20
252.132594503755
 30
0.0
  0
VERTEX
  5
141EB
  8
0
 10
694.81549481879745
 20
252.27771353761801
 30
0.0
  0
VERTEX
  5
141EC
  8
0
 10
695.25711454956945
 20
252.33671496481591
 30
0.0
  0
VERTEX
  5
141ED
  8
0
 10
695.69929659633362
 20
252.38666038660111
 30
0.0
  0
VERTEX
  5
141EE
  8
0
 10
696.58497338872985
 20
252.4593428707924
 30
0.0
  0
VERTEX
  5
141EF
  8
0
 10
697.47177582499978
 20
252.49569949355441
 30
0.0
  0
VERTEX
  5
141F0
  8
0
 10
697.91536470337269
 20
252.5002447924951
 30
0.0
  0
VERTEX
  5
141F1
  8
0
 10
698.35895358174639
 20
252.49569949355441
 30
0.0
  0
VERTEX
  5
141F2
  8
0
 10
699.24575601801553
 20
252.4593428707924
 30
0.0
  0
VERTEX
  5
141F3
  8
0
 10
700.13143281041255
 20
252.38666038660111
 30
0.0
  0
VERTEX
  5
141F4
  8
0
 10
700.57361485717684
 20
252.33671496481591
 30
0.0
  0
VERTEX
  5
141F5
  8
0
 10
701.01523458794873
 20
252.27771353761801
 30
0.0
  0
VERTEX
  5
141F6
  8
0
 10
701.89641356608445
 20
252.132594503755
 30
0.0
  0
VERTEX
  5
141F7
  8
0
 10
702.77422417943205
 20
251.95142607020199
 30
0.0
  0
VERTEX
  5
141F8
  8
0
 10
703.64792371257579
 20
251.7343615235406
 30
0.0
  0
VERTEX
  5
141F9
  8
0
 10
704.51677292848478
 20
251.48158452204891
 30
0.0
  0
VERTEX
  5
141FA
  8
0
 10
705.38003669397938
 20
251.1933089403062
 30
0.0
  0
VERTEX
  5
141FB
  8
0
 10
705.80934557899946
 20
251.03593423590539
 30
0.0
  0
VERTEX
  5
141FC
  8
0
 10
706.23698460173
 20
250.86977868823419
 30
0.0
  0
VERTEX
  5
141FD
  8
0
 10
707.0868915882528
 20
250.51126750472639
 30
0.0
  0
VERTEX
  5
141FE
  8
0
 10
707.92903854738688
 20
250.1180787260362
 30
0.0
  0
VERTEX
  5
141FF
  8
0
 10
708.76271293872639
 20
249.69054502912451
 30
0.0
  0
VERTEX
  5
14200
  8
0
 10
709.58720939050806
 20
249.2290281501821
 30
0.0
  0
VERTEX
  5
14201
  8
0
 10
710.40183029641867
 20
248.7339185785643
 30
0.0
  0
VERTEX
  5
14202
  8
0
 10
710.80522168646439
 20
248.47389634230629
 30
0.0
  0
VERTEX
  5
14203
  8
0
 10
711.20588640584344
 20
248.2056352263983
 30
0.0
  0
VERTEX
  5
14204
  8
0
 10
711.99869740704162
 20
247.64462507414169
 30
0.0
  0
VERTEX
  5
14205
  8
0
 10
712.77959250275387
 20
247.0513627923917
 30
0.0
  0
VERTEX
  5
14206
  8
0
 10
713.54791097776888
 20
246.42635034026739
 30
0.0
  0
VERTEX
  5
14207
  8
0
 10
714.30300275795071
 20
245.77011654070219
 30
0.0
  0
VERTEX
  5
14208
  8
0
 10
715.04422896026972
 20
245.0832166330058
 30
0.0
  0
VERTEX
  5
14209
  8
0
 10
715.40944601207946
 20
244.7284475089607
 30
0.0
  0
VERTEX
  5
1420A
  8
0
 10
715.77096243335563
 20
244.36623180307669
 30
0.0
  0
VERTEX
  5
1420B
  8
0
 10
716.48258828813869
 20
243.61976869166281
 30
0.0
  0
VERTEX
  5
1420C
  8
0
 10
717.17850441809867
 20
242.84445888107871
 30
0.0
  0
VERTEX
  5
1420D
  8
0
 10
717.85812200871351
 20
242.0409583608282
 30
0.0
  0
VERTEX
  5
1420E
  8
0
 10
718.52086603565022
 20
241.2099469725697
 30
0.0
  0
VERTEX
  5
1420F
  8
0
 10
719.16617575129737
 20
240.35212783490141
 30
0.0
  0
VERTEX
  5
14210
  8
0
 10
719.48212152956239
 20
239.91339130338221
 30
0.0
  0
VERTEX
  5
14211
  8
0
 10
719.79350515921124
 20
239.46822674845569
 30
0.0
  0
VERTEX
  5
14212
  8
0
 10
720.40232347608162
 20
238.5589915817952
 30
0.0
  0
VERTEX
  5
14213
  8
0
 10
720.99211558083152
 20
237.6251916386461
 30
0.0
  0
VERTEX
  5
14214
  8
0
 10
721.56238245045733
 20
236.6676170069866
 30
0.0
  0
VERTEX
  5
14215
  8
0
 10
722.11264158225538
 20
235.68707789055469
 30
0.0
  0
VERTEX
  5
14216
  8
0
 10
722.64242740206464
 20
234.68440392333579
 30
0.0
  0
VERTEX
  5
14217
  8
0
 10
722.89950205418688
 20
234.17503077184099
 30
0.0
  0
VERTEX
  5
14218
  8
0
 10
723.15129165818871
 20
233.6604434676085
 30
0.0
  0
VERTEX
  5
14219
  8
0
 10
723.63880380066621
 20
232.61606289614639
 30
0.0
  0
VERTEX
  5
1421A
  8
0
 10
724.10455134555195
 20
231.55214585917949
 30
0.0
  0
VERTEX
  5
1421B
  8
0
 10
724.329139518798
 20
231.01314184742861
 30
0.0
  0
VERTEX
  5
1421C
  8
0
 10
724.54814022392475
 20
230.46959253673711
 30
0.0
  0
VERTEX
  5
1421D
  8
0
 10
724.96919511530905
 20
229.3693188770082
 30
0.0
  0
VERTEX
  5
1421E
  8
0
 10
725.36735976522857
 20
228.25225582135471
 30
0.0
  0
VERTEX
  5
1421F
  8
0
 10
725.55775220799023
 20
227.68772309533711
 30
0.0
  0
VERTEX
  5
14220
  8
0
 10
725.74229728663977
 20
227.11934851664481
 30
0.0
  0
VERTEX
  5
14221
  8
0
 10
726.09369044496725
 20
225.97155551556239
 30
0.0
  0
VERTEX
  5
14222
  8
0
 10
726.42124192651681
 20
224.8098479655776
 30
0.0
  0
VERTEX
  5
14223
  8
0
 10
726.72467459003474
 20
223.63520878725669
 30
0.0
  0
VERTEX
  5
14224
  8
0
 10
727.00373170119383
 20
222.4486318426159
 30
0.0
  0
VERTEX
  5
14225
  8
0
 10
727.25817714981804
 20
221.2511210942132
 30
0.0
  0
VERTEX
  5
14226
  8
0
 10
727.37610240518904
 20
220.64858183488579
 30
0.0
  0
VERTEX
  5
14227
  8
0
 10
727.48779564965571
 20
220.04368975569491
 30
0.0
  0
VERTEX
  5
14228
  8
0
 10
727.69239292053044
 20
218.82735943451939
 30
0.0
  0
VERTEX
  5
14229
  8
0
 10
727.87179585272668
 20
217.60315926757019
 30
0.0
  0
VERTEX
  5
1422A
  8
0
 10
728.0258526534526
 20
216.37212505040841
 30
0.0
  0
VERTEX
  5
1422B
  8
0
 10
728.15443297527406
 20
215.13529836088199
 30
0.0
  0
VERTEX
  5
1422C
  8
0
 10
728.2574280264015
 20
213.89372567784969
 30
0.0
  0
VERTEX
  5
1422D
  8
0
 10
728.29930299517116
 20
213.27148773570781
 30
0.0
  0
VERTEX
  5
1422E
  8
0
 10
728.33475066274048
 20
212.64845749575511
 30
0.0
  0
VERTEX
  5
1422F
  8
0
 10
728.38633546161964
 20
211.4005474358016
 30
0.0
  0
VERTEX
  5
14230
  8
0
 10
728.41213877714915
 20
210.1510513544865
 30
0.0
  0
VERTEX
  5
14231
  8
0
 10
728.41536470337257
 20
209.52603890236219
 30
0.0
  0
SEQEND
  5
14232
  8
0
  0
POLYLINE
  5
BF35
  8
0
 66
     1
 10
0.0
 20
0.0
 30
0.0
  0
VERTEX
  5
14233
  8
0
 10
728.41536470337257
 20
209.52603890236219
 30
0.0
  0
VERTEX
  5
14234
  8
0
 10
728.41340876765935
 20
209.03935916630081
 30
0.0
  0
VERTEX
  5
14235
  8
0
 10
728.3977627871036
 20
208.06624936860479
 30
0.0
  0
VERTEX
  5
14236
  8
0
 10
728.36647885262926
 20
207.09388846610389
 30
0.0
  0
VERTEX
  5
14237
  8
0
 10
728.34497735485093
 20
206.60814475898789
 30
0.0
  0
VERTEX
  5
14238
  8
0
 10
728.31957301339025
 20
206.1227752953707
 30
0.0
  0
VERTEX
  5
14239
  8
0
 10
728.25706933282709
 20
205.15340805287201
 30
0.0
  0
VERTEX
  5
1423A
  8
0
 10
728.17899987631972
 20
204.1862840393849
 30
0.0
  0
VERTEX
  5
1423B
  8
0
 10
728.08540469473701
 20
203.2218994048751
 30
0.0
  0
VERTEX
  5
1423C
  8
0
 10
727.97633180389403
 20
202.26074889396321
 30
0.0
  0
VERTEX
  5
1423D
  8
0
 10
727.85183715991298
 20
201.303325592113
 30
0.0
  0
VERTEX
  5
1423E
  8
0
 10
727.78382633098215
 20
200.82616521784621
 30
0.0
  0
VERTEX
  5
1423F
  8
0
 10
727.71198463052315
 20
200.35012067267101
 30
0.0
  0
VERTEX
  5
14240
  8
0
 10
727.55684596229003
 20
199.40162314488629
 30
0.0
  0
VERTEX
  5
14241
  8
0
 10
727.38650074381349
 20
198.4583196030421
 30
0.0
  0
VERTEX
  5
14242
  8
0
 10
727.20103636489239
 20
197.52069397682359
 30
0.0
  0
VERTEX
  5
14243
  8
0
 10
727.0005479716973
 20
196.58922728305561
 30
0.0
  0
VERTEX
  5
14244
  8
0
 10
726.78513841795484
 20
195.66439737893299
 30
0.0
  0
VERTEX
  5
14245
  8
0
 10
726.67187244229808
 20
195.2046196290357
 30
0.0
  0
VERTEX
  5
14246
  8
0
 10
726.55491821218311
 20
194.7466787168716
 30
0.0
  0
VERTEX
  5
14247
  8
0
 10
726.31000546100313
 20
193.83654210110811
 30
0.0
  0
VERTEX
  5
14248
  8
0
 10
726.05052580854135
 20
192.9344544461683
 30
0.0
  0
VERTEX
  5
14249
  8
0
 10
725.91536470337269
 20
192.4865737672132
 30
0.0
  0
SEQEND
  5
1424A
  8
0
  0
POLYLINE
  5
BF37
  8
0
 66
     1
 10
0.0
 20
0.0
 30
0.0
  0
VERTEX
  5
1424B
  8
0
 10
666.91536470337257
 20
193.5851327247783
 30
0.0
  0
VERTEX
  5
1424C
  8
0
 10
666.80685605818235
 20
194.010458070672
 30
0.0
  0
VERTEX
  5
1424D
  8
0
 10
666.59866683145708
 20
194.86546651790829
 30
0.0
  0
VERTEX
  5
1424E
  8
0
 10
666.40231346177734
 20
195.72601579322529
 30
0.0
  0
VERTEX
  5
1424F
  8
0
 10
666.30859858945223
 20
196.15826668340279
 30
0.0
  0
VERTEX
  5
14250
  8
0
 10
666.21787015908831
 20
196.59178065996301
 30
0.0
  0
VERTEX
  5
14251
  8
0
 10
666.04540663203443
 20
197.46243391027721
 30
0.0
  0
VERTEX
  5
14252
  8
0
 10
665.88498806161442
 20
198.33764648880449
 30
0.0
  0
VERTEX
  5
14253
  8
0
 10
665.41921108482893
 20
201.4320055279002
 30
0.0
  0
VERTEX
  5
14254
  8
0
 10
664.971474768181
 20
206.8157493747533
 30
0.0
  0
VERTEX
  5
14255
  8
0
 10
664.91536470337269
 20
209.52603890236219
 30
0.0
  0
SEQEND
  5
14256
  8
0
  0
POLYLINE
  5
BF38
  8
0
 66
     1
 10
0.0
 20
0.0
 30
0.0
  0
VERTEX
  5
14257
  8
0
 10
664.91536470337269
 20
209.52603890236219
 30
0.0
  0
VERTEX
  5
14258
  8
0
 10
664.91885504977824
 20
210.20228188334909
 30
0.0
  0
VERTEX
  5
14259
  8
0
 10
664.9467733911714
 20
211.55419567624739
 30
0.0
  0
VERTEX
  5
1425A
  8
0
 10
665.00258645225404
 20
212.90439344603311
 30
0.0
  0
VERTEX
  5
1425B
  8
0
 10
665.04093966634525
 20
213.57849173844099
 30
0.0
  0
VERTEX
  5
1425C
  8
0
 10
665.08624700960354
 20
214.25173279059459
 30
0.0
  0
VERTEX
  5
1425D
  8
0
 10
665.19768427803683
 20
215.5950737263345
 30
0.0
  0
VERTEX
  5
1425E
  8
0
 10
665.3368039704992
 20
216.9332796527072
 30
0.0
  0
VERTEX
  5
1425F
  8
0
 10
665.50348837784168
 20
218.26521831389871
 30
0.0
  0
VERTEX
  5
14260
  8
0
 10
665.69759646841521
 20
219.58976275682721
 30
0.0
  0
VERTEX
  5
14261
  8
0
 10
665.91896400739461
 20
220.9057922846566
 30
0.0
  0
VERTEX
  5
14262
  8
0
 10
666.03981243583348
 20
221.56026568181389
 30
0.0
  0
VERTEX
  5
14263
  8
0
 10
666.16740369574381
 20
222.21219340502029
 30
0.0
  0
VERTEX
  5
14264
  8
0
 10
666.44270532868165
 20
223.50786077214499
 30
0.0
  0
VERTEX
  5
14265
  8
0
 10
666.74463597354224
 20
224.791698122084
 30
0.0
  0
VERTEX
  5
14266
  8
0
 10
667.07294016685591
 20
226.06261920026711
 30
0.0
  0
VERTEX
  5
14267
  8
0
 10
667.42734013049994
 20
227.31954868057869
 30
0.0
  0
VERTEX
  5
14268
  8
0
 10
667.80753600672324
 20
228.56142307519241
 30
0.0
  0
VERTEX
  5
14269
  8
0
 10
668.00720773116325
 20
229.17638573410591
 30
0.0
  0
VERTEX
  5
1426A
  8
0
 10
668.21320611185718
 20
229.7871916343868
 30
0.0
  0
VERTEX
  5
1426B
  8
0
 10
668.64400720849153
 20
230.99581723558569
 30
0.0
  0
VERTEX
  5
1426C
  8
0
 10
669.09957479589036
 20
232.18627726086629
 30
0.0
  0
VERTEX
  5
1426D
  8
0
 10
669.33652637848616
 20
232.77437979374579
 30
0.0
  0
VERTEX
  5
1426E
  8
0
 10
669.57952341839245
 20
233.3575644621971
 30
0.0
  0
VERTEX
  5
1426F
  8
0
 10
670.08344699154804
 20
234.5086878136697
 30
0.0
  0
VERTEX
  5
14270
  8
0
 10
670.6109191457025
 20
235.638673350006
 30
0.0
  0
VERTEX
  5
14271
  8
0
 10
670.88334724183642
 20
236.19543994147011
 30
0.0
  0
VERTEX
  5
14272
  8
0
 10
671.16149358675545
 20
236.74656499062871
 30
0.0
  0
VERTEX
  5
14273
  8
0
 10
671.73470447376155
 20
237.83142534860301
 30
0.0
  0
VERTEX
  5
14274
  8
0
 10
672.33006681308404
 20
238.89233652375901
 30
0.0
  0
VERTEX
  5
14275
  8
0
 10
672.94707686874506
 20
239.92840087932541
 30
0.0
  0
VERTEX
  5
14276
  8
0
 10
673.58521258863857
 20
240.938741801421
 30
0.0
  0
VERTEX
  5
14277
  8
0
 10
674.24393404623595
 20
241.9225044407583
 30
0.0
  0
VERTEX
  5
14278
  8
0
 10
674.58084092421723
 20
242.4041578936297
 30
0.0
  0
VERTEX
  5
14279
  8
0
 10
674.92268389742094
 20
242.87885643592901
 30
0.0
  0
VERTEX
  5
1427A
  8
0
 10
675.62088785205651
 20
243.8069886176684
 30
0.0
  0
VERTEX
  5
1427B
  8
0
 10
676.33795515988913
 20
244.70611569348949
 30
0.0
  0
VERTEX
  5
1427C
  8
0
 10
677.0732791103901
 20
245.5754769121211
 30
0.0
  0
VERTEX
  5
1427D
  8
0
 10
677.82623754608539
 20
246.41433670717899
 30
0.0
  0
VERTEX
  5
1427E
  8
0
 10
678.59619338896482
 20
247.22198531952901
 30
0.0
  0
VERTEX
  5
1427F
  8
0
 10
678.98734230378795
 20
247.61389083737029
 30
0.0
  0
VERTEX
  5
14280
  8
0
 10
679.38249517951772
 20
247.99773939781269
 30
0.0
  0
VERTEX
  5
14281
  8
0
 10
680.18447762792755
 20
248.7409425766316
 30
0.0
  0
VERTEX
  5
14282
  8
0
 10
681.00146217697693
 20
249.4509660318993
 30
0.0
  0
VERTEX
  5
14283
  8
0
 10
681.83275757617412
 20
250.12720901288569
 30
0.0
  0
VERTEX
  5
14284
  8
0
 10
682.67766046661654
 20
250.7690993505168
 30
0.0
  0
VERTEX
  5
14285
  8
0
 10
683.53545597610901
 20
251.3760939414835
 30
0.0
  0
VERTEX
  5
14286
  8
0
 10
683.96896206592999
 20
251.66634367344909
 30
0.0
  0
VERTEX
  5
14287
  8
0
 10
684.40541832401141
 20
251.9476792077615
 30
0.0
  0
VERTEX
  5
14288
  8
0
 10
685.28681143532503
 20
252.48337153115079
 30
0.0
  0
VERTEX
  5
14289
  8
0
 10
686.17888956348168
 20
252.9827176624656
 30
0.0
  0
VERTEX
  5
1428A
  8
0
 10
687.08089792132523
 20
253.44529510502591
 30
0.0
  0
VERTEX
  5
1428B
  8
0
 10
687.99207331973128
 20
253.87071247213339
 30
0.0
  0
VERTEX
  5
1428C
  8
0
 10
688.91164481334636
 20
254.2586098182235
 30
0.0
  0
VERTEX
  5
1428D
  8
0
 10
689.37433621498985
 20
254.4383846730814
 30
0.0
  0
VERTEX
  5
1428E
  8
0
 10
689.83883435288044
 20
254.6086589434164
 30
0.0
  0
VERTEX
  5
1428F
  8
0
 10
690.77285744341589
 20
254.92056367120381
 30
0.0
  0
VERTEX
  5
14290
  8
0
 10
691.71292380816885
 20
255.19406009904719
 30
0.0
  0
VERTEX
  5
14291
  8
0
 10
692.65823805714444
 20
255.4289168216639
 30
0.0
  0
VERTEX
  5
14292
  8
0
 10
693.60800036011096
 20
255.62493512681959
 30
0.0
  0
VERTEX
  5
14293
  8
0
 10
694.56140712334036
 20
255.7819491634589
 30
0.0
  0
VERTEX
  5
14294
  8
0
 10
695.03922519270054
 20
255.8457867732138
 30
0.0
  0
VERTEX
  5
14295
  8
0
 10
695.51765166952646
 20
255.8998260820301
 30
0.0
  0
VERTEX
  5
14296
  8
0
 10
696.47592492031697
 20
255.9784661468932
 30
0.0
  0
VERTEX
  5
14297
  8
0
 10
697.43541608087071
 20
256.01780282070132
 30
0.0
  0
VERTEX
  5
14298
  8
0
 10
697.91536470337269
 20
256.0227206851294
 30
0.0
  0
VERTEX
  5
14299
  8
0
 10
698.39531332587455
 20
256.01780282070132
 30
0.0
  0
VERTEX
  5
1429A
  8
0
 10
699.3548044864292
 20
255.9784661468932
 30
0.0
  0
VERTEX
  5
1429B
  8
0
 10
700.31307773721892
 20
255.8998260820301
 30
0.0
  0
VERTEX
  5
1429C
  8
0
 10
700.79150421404574
 20
255.8457867732138
 30
0.0
  0
VERTEX
  5
1429D
  8
0
 10
701.26932228340502
 20
255.7819491634589
 30
0.0
  0
VERTEX
  5
1429E
  8
0
 10
702.22272904663441
 20
255.62493512681959
 30
0.0
  0
VERTEX
  5
1429F
  8
0
 10
703.17249134960093
 20
255.4289168216639
 30
0.0
  0
VERTEX
  5
142A0
  8
0
 10
704.11780559857652
 20
255.19406009904719
 30
0.0
  0
VERTEX
  5
142A1
  8
0
 10
705.05787196333029
 20
254.92056367120381
 30
0.0
  0
VERTEX
  5
142A2
  8
0
 10
705.99189505386585
 20
254.6086589434164
 30
0.0
  0
VERTEX
  5
142A3
  8
0
 10
706.45639319175643
 20
254.4383846730814
 30
0.0
  0
VERTEX
  5
142A4
  8
0
 10
706.91908459339902
 20
254.2586098182235
 30
0.0
  0
VERTEX
  5
142A5
  8
0
 10
707.83865608701387
 20
253.87071247213339
 30
0.0
  0
VERTEX
  5
142A6
  8
0
 10
708.74983148542015
 20
253.44529510502591
 30
0.0
  0
VERTEX
  5
142A7
  8
0
 10
709.65183984326347
 20
252.9827176624656
 30
0.0
  0
VERTEX
  5
142A8
  8
0
 10
710.54391797142125
 20
252.48337153115079
 30
0.0
  0
VERTEX
  5
142A9
  8
0
 10
711.42531108273386
 20
251.9476792077615
 30
0.0
  0
VERTEX
  5
142AA
  8
0
 10
711.86176734081607
 20
251.66634367344909
 30
0.0
  0
VERTEX
  5
142AB
  8
0
 10
712.29527343063626
 20
251.3760939414835
 30
0.0
  0
VERTEX
  5
142AC
  8
0
 10
713.15306894012883
 20
250.7690993505168
 30
0.0
  0
VERTEX
  5
142AD
  8
0
 10
713.99797183057206
 20
250.12720901288569
 30
0.0
  0
VERTEX
  5
142AE
  8
0
 10
714.82926722976845
 20
249.4509660318993
 30
0.0
  0
VERTEX
  5
142AF
  8
0
 10
715.64625177881771
 20
248.7409425766316
 30
0.0
  0
VERTEX
  5
142B0
  8
0
 10
716.44823422722754
 20
247.99773939781269
 30
0.0
  0
VERTEX
  5
142B1
  8
0
 10
716.84338710295742
 20
247.61389083737029
 30
0.0
  0
VERTEX
  5
142B2
  8
0
 10
717.23453601778056
 20
247.22198531952901
 30
0.0
  0
VERTEX
  5
142B3
  8
0
 10
718.00449186066089
 20
246.41433670717899
 30
0.0
  0
VERTEX
  5
142B4
  8
0
 10
718.75745029635527
 20
245.5754769121211
 30
0.0
  0
VERTEX
  5
142B5
  8
0
 10
719.49277424685624
 20
244.70611569348949
 30
0.0
  0
VERTEX
  5
142B6
  8
0
 10
720.20984155468966
 20
243.8069886176684
 30
0.0
  0
VERTEX
  5
142B7
  8
0
 10
720.90804550932444
 20
242.87885643592949
 30
0.0
  0
VERTEX
  5
142B8
  8
0
 10
721.24988848252895
 20
242.4041578936297
 30
0.0
  0
VERTEX
  5
142B9
  8
0
 10
721.5867953605092
 20
241.9225044407583
 30
0.0
  0
VERTEX
  5
142BA
  8
0
 10
722.24551681810681
 20
240.938741801421
 30
0.0
  0
VERTEX
  5
142BB
  8
0
 10
722.88365253800009
 20
239.92840087932541
 30
0.0
  0
VERTEX
  5
142BC
  8
0
 10
723.50066259366122
 20
238.89233652375901
 30
0.0
  0
VERTEX
  5
142BD
  8
0
 10
724.09602493298371
 20
237.83142534860301
 30
0.0
  0
VERTEX
  5
142BE
  8
0
 10
724.66923581998981
 20
236.74656499062871
 30
0.0
  0
VERTEX
  5
142BF
  8
0
 10
724.94738216490987
 20
236.19543994147011
 30
0.0
  0
VERTEX
  5
142C0
  8
0
 10
725.21981026104265
 20
235.638673350006
 30
0.0
  0
VERTEX
  5
142C1
  8
0
 10
725.74728241519824
 20
234.5086878136697
 30
0.0
  0
VERTEX
  5
142C2
  8
0
 10
726.25120598835292
 20
233.3575644621971
 30
0.0
  0
VERTEX
  5
142C3
  8
0
 10
726.49420302825911
 20
232.77437979374579
 30
0.0
  0
VERTEX
  5
142C4
  8
0
 10
726.73115461085479
 20
232.18627726086629
 30
0.0
  0
VERTEX
  5
142C5
  8
0
 10
727.18672219825385
 20
230.99581723558569
 30
0.0
  0
VERTEX
  5
142C6
  8
0
 10
727.61752329488888
 20
229.7871916343868
 30
0.0
  0
VERTEX
  5
142C7
  8
0
 10
727.8235216755819
 20
229.17638573410591
 30
0.0
  0
VERTEX
  5
142C8
  8
0
 10
728.02319340002214
 20
228.56142307519241
 30
0.0
  0
VERTEX
  5
142C9
  8
0
 10
728.40338927624543
 20
227.31954868057869
 30
0.0
  0
VERTEX
  5
142CA
  8
0
 10
728.75778923988935
 20
226.06261920026711
 30
0.0
  0
VERTEX
  5
142CB
  8
0
 10
729.08609343320404
 20
224.791698122084
 30
0.0
  0
VERTEX
  5
142CC
  8
0
 10
729.3880240780644
 20
223.50786077214499
 30
0.0
  0
VERTEX
  5
142CD
  8
0
 10
729.66332571100236
 20
222.21219340502029
 30
0.0
  0
VERTEX
  5
142CE
  8
0
 10
729.79091697091189
 20
221.56026568181389
 30
0.0
  0
VERTEX
  5
142CF
  8
0
 10
729.91176539935077
 20
220.9057922846566
 30
0.0
  0
VERTEX
  5
142D0
  8
0
 10
730.13313293833107
 20
219.58976275682721
 30
0.0
  0
VERTEX
  5
142D1
  8
0
 10
730.3272410289037
 20
218.26521831389871
 30
0.0
  0
VERTEX
  5
142D2
  8
0
 10
730.49392543624606
 20
216.9332796527072
 30
0.0
  0
VERTEX
  5
142D3
  8
0
 10
730.63304512870855
 20
215.5950737263345
 30
0.0
  0
VERTEX
  5
142D4
  8
0
 10
730.74448239714184
 20
214.25173279059459
 30
0.0
  0
VERTEX
  5
142D5
  8
0
 10
730.78978974040001
 20
213.57849173844099
 30
0.0
  0
VERTEX
  5
142D6
  8
0
 10
730.82814295449134
 20
212.90439344603311
 30
0.0
  0
VERTEX
  5
142D7
  8
0
 10
730.88395601557374
 20
211.55419567624739
 30
0.0
  0
VERTEX
  5
142D8
  8
0
 10
730.91187435696702
 20
210.20228188334909
 30
0.0
  0
VERTEX
  5
142D9
  8
0
 10
730.91536470337269
 20
209.52603890236219
 30
0.0
  0
SEQEND
  5
142DA
  8
0
  0
POLYLINE
  5
BF39
  8
0
 66
     1
 10
0.0
 20
0.0
 30
0.0
  0
VERTEX
  5
142DB
  8
0
 10
730.91536470337269
 20
209.52603890236219
 30
0.0
  0
VERTEX
  5
142DC
  8
0
 10
730.85925463856529
 20
206.8157493747533
 30
0.0
  0
VERTEX
  5
142DD
  8
0
 10
730.41151832191645
 20
201.4320055279002
 30
0.0
  0
VERTEX
  5
142DE
  8
0
 10
729.94574134513095
 20
198.33764648880449
 30
0.0
  0
VERTEX
  5
142DF
  8
0
 10
729.78532277471174
 20
197.46243391027721
 30
0.0
  0
VERTEX
  5
142E0
  8
0
 10
729.61285924765798
 20
196.59178065996301
 30
0.0
  0
VERTEX
  5
142E1
  8
0
 10
729.52213081729315
 20
196.15826668340279
 30
0.0
  0
VERTEX
  5
142E2
  8
0
 10
729.42841594496804
 20
195.72601579322529
 30
0.0
  0
VERTEX
  5
142E3
  8
0
 10
729.23206257528909
 20
194.86546651790829
 30
0.0
  0
VERTEX
  5
142E4
  8
0
 10
729.02387334856303
 20
194.010458070672
 30
0.0
  0
VERTEX
  5
142E5
  8
0
 10
728.91536470337257
 20
193.5851327247783
 30
0.0
  0
SEQEND
  5
142E6
  8
0
  0
LINE
  5
BF3D
  8
0
 10
725.91536470337269
 20
226.56598686151551
 30
0.0
 11
725.91536470337269
 21
143.52272068512929
 31
0.0
  0
LINE
  5
BF40
  8
0
 10
669.91536470337314
 20
143.52272068512929
 30
0.0
 11
669.91536470337257
 21
226.56598686151551
 31
0.0
  0
LINE
  5
BF48
  8
0
 10
716.02209690133623
 20
244.10790611940661
 30
0.0
 11
679.81349728819919
 21
244.10790611940661
 31
0.0
  0
LINE
  5
BF54
  8
0
 10
688.86675316557546
 20
250.565313402268
 30
0.0
 11
706.96397624116969
 21
250.565313402268
 31
0.0
  0
LINE
  5
BF5A
  8
0
 10
684.91536470337269
 20
241.2101286405393
 30
0.0
 11
710.91536470337269
 21
241.2101286405393
 31
0.0
  0
ARC
  5
BFEE
  8
0
 10
718.41536470337269
 20
224.58519280822819
 30
0.0
 40
1.999999999999996
 50
0.0
 51
73.690734553588598
  0
ARC
  5
BFEF
  8
0
 10
718.41536470337269
 20
84.460248562030287
 30
0.0
 40
2.0000000000000009
 50
286.30926544641142
 51
0.0
  0
ARC
  5
BFF0
  8
0
 10
697.91536470337269
 20
154.52272068512909
 30
0.0
 40
75.000000000000043
 50
253.6907345535885
 51
286.30926544641142
  0
ARC
  5
BFF1
  8
0
 10
697.91536470337269
 20
154.52272068512929
 30
0.0
 40
75.000000000000199
 50
73.690734553588598
 51
106.3092654464114
  0
ARC
  5
BFF2
  8
0
 10
677.41536470337269
 20
224.58519280822819
 30
0.0
 40
1.9999999999999989
 50
106.3092654464114
 51
180.0
  0
ARC
  5
BFF3
  8
0
 10
677.41536470337269
 20
84.460248562030287
 30
0.0
 40
1.9999999999999889
 50
180.0
 51
253.6907345535885
  0
LINE
  5
BFFE
  8
0
 10
720.41536470337257
 20
224.58519280822819
 30
0.0
 11
720.41536470337257
 21
84.460248562030287
 31
0.0
  0
LINE
  5
C000
  8
0
 10
675.41536470337257
 20
224.58519280822819
 30
0.0
 11
675.41536470337257
 21
84.460248562030287
 31
0.0
  0
LINE
  5
C021
  8
0
 10
498.03428809197158
 20
270.22272068512922
 30
0.0
 11
498.03428809197158
 21
271.0227206851294
 31
0.0
  0
LINE
  5
C022
  8
0
 10
428.4342880919711
 20
271.0227206851294
 30
0.0
 11
428.4342880919711
 21
270.22272068512922
 31
0.0
  0
LINE
  5
C023
  8
0
 10
497.73550875594941
 20
261.72272068512922
 30
0.0
 11
499.23428809197128
 21
270.22272068512922
 31
0.0
  0
LINE
  5
C024
  8
0
 10
427.23428809197139
 20
270.22272068512922
 30
0.0
 11
428.73306742799332
 21
261.72272068512922
 31
0.0
  0
LINE
  5
C025
  8
0
 10
496.23428809197128
 20
256.0227206851294
 30
0.0
 11
496.23428809197128
 21
261.72272068512922
 31
0.0
  0
LINE
  5
C026
  8
0
 10
430.23428809197139
 20
261.72272068512922
 30
0.0
 11
430.23428809197139
 21
259.72272068512922
 31
0.0
  0
LINE
  5
C029
  8
0
 10
533.23428809197128
 20
273.52272068512929
 30
0.0
 11
533.23428809197128
 21
271.0227206851294
 31
0.0
  0
LINE
  5
C02B
  8
0
 10
393.23428809197139
 20
273.52272068512929
 30
0.0
 11
393.23428809197139
 21
271.0227206851294
 31
0.0
  0
LINE
  5
C02C
  8
0
 10
393.23428809197139
 20
273.52272068512929
 30
0.0
 11
533.23428809197128
 21
273.52272068512929
 31
0.0
  0
LINE
  5
C02E
  8
0
 10
393.23428809197139
 20
271.0227206851294
 30
0.0
 11
533.23428809197128
 21
271.0227206851294
 31
0.0
  0
LINE
  5
C03E
  8
0
 10
427.23428809197139
 20
270.22272068512922
 30
0.0
 11
499.23428809197128
 21
270.22272068512922
 31
0.0
  0
LINE
  5
C03F
  8
0
 10
428.73306742799332
 20
261.72272068512922
 30
0.0
 11
497.73550875594941
 21
261.72272068512922
 31
0.0
  0
LINE
  5
C040
  8
0
 10
451.92057959298648
 20
259.72272068512922
 30
0.0
 11
401.63428809197131
 21
259.72272068512922
 31
0.0
  0
LINE
  5
C041
  8
0
 10
451.92057959298648
 20
259.72272068512922
 30
0.0
 11
451.92057959298648
 21
193.5851327247783
 31
0.0
  0
LINE
  5
C042
  8
0
 10
401.63428809197131
 20
259.72272068512922
 30
0.0
 11
401.63428809197131
 21
256.0227206851294
 31
0.0
  0
LINE
  5
C044
  8
0
 10
401.63428809197131
 20
256.0227206851294
 30
0.0
 11
392.57459160689018
 21
155.4196297803355
 31
0.0
  0
ARC
  5
C045
  8
0
 10
402.53428809197129
 20
154.52272068512929
 30
0.0
 40
10.0
 50
174.8541744025373
 51
270.0
  0
ARC
  5
C047
  8
0
 10
411.93428809197138
 20
154.52272068512929
 30
0.0
 40
10.00000000000002
 50
270.0
 51
324.6356083159053
  0
LINE
  5
C048
  8
0
 10
420.08916460511318
 20
148.7349759554952
 30
0.0
 11
451.92057959298648
 21
193.5851327247783
 31
0.0
  0
POLYLINE
  5
C049
  8
0
 66
     1
 10
0.0
 20
0.0
 30
0.0
  0
VERTEX
  5
142E7
  8
0
 10
451.92057959298648
 20
193.5851327247783
 30
0.0
  0
VERTEX
  5
142E8
  8
0
 10
453.58985985142948
 20
195.93713251214379
 30
0.0
  0
VERTEX
  5
142E9
  8
0
 10
457.00593413063677
 20
200.7503482305263
 30
0.0
  0
VERTEX
  5
142EA
  8
0
 10
460.49286019275581
 20
205.66339342781001
 30
0.0
  0
VERTEX
  5
142EB
  8
0
 10
462.25051615100341
 20
208.1399137239984
 30
0.0
  0
VERTEX
  5
142EC
  8
0
 10
464.01097187078358
 20
210.6203788571886
 30
0.0
  0
VERTEX
  5
142ED
  8
0
 10
467.52024824002359
 20
215.56491542168371
 30
0.0
  0
VERTEX
  5
142EE
  8
0
 10
470.98076888345531
 20
220.4407556386634
 30
0.0
  0
VERTEX
  5
142EF
  8
0
 10
474.35316801375978
 20
225.19243349339851
 30
0.0
  0
VERTEX
  5
142F0
  8
0
 10
476.2643954582922
 20
227.88533453288099
 30
0.0
  0
VERTEX
  5
142F1
  8
0
 10
476.80150958641468
 20
228.6421231600427
 30
0.0
  0
VERTEX
  5
142F2
  8
0
 10
477.33433263470209
 20
229.3928656970954
 30
0.0
  0
VERTEX
  5
142F3
  8
0
 10
477.5990822860548
 20
229.7658954028845
 30
0.0
  0
VERTEX
  5
142F4
  8
0
 10
477.86269608034758
 20
230.13732469703001
 30
0.0
  0
VERTEX
  5
142F5
  8
0
 10
478.38643281104208
 20
230.87526470021319
 30
0.0
  0
VERTEX
  5
142F6
  8
0
 10
478.90537717782581
 20
231.60645230885831
 30
0.0
  0
VERTEX
  5
142F7
  8
0
 10
479.41936504748168
 20
232.3306562608457
 30
0.0
  0
VERTEX
  5
142F8
  8
0
 10
479.92823385444711
 20
233.0476475028656
 30
0.0
  0
VERTEX
  5
142F9
  8
0
 10
480.43182265223368
 20
233.75719926286709
 30
0.0
  0
VERTEX
  5
142FA
  8
0
 10
480.68158720715968
 20
234.10911511229159
 30
0.0
  0
VERTEX
  5
142FB
  8
0
 10
480.92997216432741
 20
234.45908712177811
 30
0.0
  0
VERTEX
  5
142FC
  8
0
 10
481.42252483456781
 20
235.15308908448759
 30
0.0
  0
VERTEX
  5
142FD
  8
0
 10
481.90932487697989
 20
235.83898565005961
 30
0.0
  0
VERTEX
  5
142FE
  8
0
 10
482.15051947580559
 20
236.17882651397829
 30
0.0
  0
VERTEX
  5
142FF
  8
0
 10
482.39021832504608
 20
236.51655988115519
 30
0.0
  0
VERTEX
  5
14300
  8
0
 10
482.86505308040341
 20
237.18559747264749
 30
0.0
  0
VERTEX
  5
14301
  8
0
 10
483.33367896095018
 20
237.8458868194036
 30
0.0
  0
VERTEX
  5
14302
  8
0
 10
483.56561717694228
 20
238.1726855291684
 30
0.0
  0
VERTEX
  5
14303
  8
0
 10
483.79594774834459
 20
238.4972190832089
 30
0.0
  0
VERTEX
  5
14304
  8
0
 10
484.25171323488479
 20
239.13938825882249
 30
0.0
  0
VERTEX
  5
14305
  8
0
 10
484.700831269753
 20
239.77219123913
 30
0.0
  0
VERTEX
  5
14306
  8
0
 10
485.14315980460469
 20
240.39542787938561
 30
0.0
  0
VERTEX
  5
14307
  8
0
 10
485.57855893849768
 20
241.00890106051091
 30
0.0
  0
VERTEX
  5
14308
  8
0
 10
486.0068909621441
 20
241.61241675144521
 30
0.0
  0
VERTEX
  5
14309
  8
0
 10
486.21836438348322
 20
241.9103807628851
 30
0.0
  0
VERTEX
  5
1430A
  8
0
 10
486.4280204014571
 20
242.205784070509
 30
0.0
  0
VERTEX
  5
1430B
  8
0
 10
486.84181406040801
 20
242.78881534578039
 30
0.0
  0
VERTEX
  5
1430C
  8
0
 10
487.2481410631471
 20
243.3613261744506
 30
0.0
  0
VERTEX
  5
1430D
  8
0
 10
487.64687289540228
 20
243.92313548114839
 30
0.0
  0
VERTEX
  5
1430E
  8
0
 10
488.03788344512208
 20
244.47406557521049
 30
0.0
  0
VERTEX
  5
1430F
  8
0
 10
488.42104904236652
 20
245.01394220688169
 30
0.0
  0
VERTEX
  5
14310
  8
0
 10
488.6096520143592
 20
245.27968197573119
 30
0.0
  0
VERTEX
  5
14311
  8
0
 10
488.79624849841679
 20
245.5425946224284
 30
0.0
  0
VERTEX
  5
14312
  8
0
 10
489.1633631441108
 20
246.05985561814461
 30
0.0
  0
VERTEX
  5
14313
  8
0
 10
489.522276867372
 20
246.56556159323401
 30
0.0
  0
VERTEX
  5
14314
  8
0
 10
489.87287614993693
 20
247.0595526015575
 30
0.0
  0
VERTEX
  5
14315
  8
0
 10
490.21505010325473
 20
247.5416724022173
 30
0.0
  0
VERTEX
  5
14316
  8
0
 10
490.54869050356399
 20
248.01176850897599
 30
0.0
  0
VERTEX
  5
14317
  8
0
 10
490.71227753850872
 20
248.24226106375201
 30
0.0
  0
VERTEX
  5
14318
  8
0
 10
490.87369182611923
 20
248.46969223848581
 30
0.0
  0
VERTEX
  5
14319
  8
0
 10
491.1899512785667
 20
248.91529875731231
 30
0.0
  0
VERTEX
  5
1431A
  8
0
 10
491.49736883345838
 20
249.34844712774361
 30
0.0
  0
VERTEX
  5
1431B
  8
0
 10
491.7958472598857
 20
249.76900035236741
 30
0.0
  0
VERTEX
  5
1431C
  8
0
 10
492.08529215423272
 20
250.17682541740101
 30
0.0
  0
VERTEX
  5
1431D
  8
0
 10
492.36561197003579
 20
250.57179333475889
 30
0.0
  0
VERTEX
  5
1431E
  8
0
 10
492.50232215361018
 20
250.76441666512639
 30
0.0
  0
VERTEX
  5
1431F
  8
0
 10
492.6367180469378
 20
250.95377918285271
 30
0.0
  0
VERTEX
  5
14320
  8
0
 10
492.8985246387291
 20
251.3226621460997
 30
0.0
  0
VERTEX
  5
14321
  8
0
 10
493.15094894046791
 20
251.67832555313521
 30
0.0
  0
VERTEX
  5
14322
  8
0
 10
493.39391111467012
 20
252.02065691371419
 30
0.0
  0
VERTEX
  5
14323
  8
0
 10
493.62733431655943
 20
252.34954795428919
 30
0.0
  0
VERTEX
  5
14324
  8
0
 10
493.85114471837551
 20
252.66489465225621
 30
0.0
  0
VERTEX
  5
14325
  8
0
 10
493.95942287881093
 20
252.81745753618929
 30
0.0
  0
VERTEX
  5
14326
  8
0
 10
494.06527153271958
 20
252.9665972688542
 30
0.0
  0
VERTEX
  5
14327
  8
0
 10
494.26964703494832
 20
253.25456038071181
 30
0.0
  0
VERTEX
  5
14328
  8
0
 10
494.46420658458868
 20
253.52869291002821
 30
0.0
  0
VERTEX
  5
14329
  8
0
 10
494.55778602542108
 20
253.6605454397797
 30
0.0
  0
VERTEX
  5
1432A
  8
0
 10
494.64888864578779
 20
253.78890815337829
 30
0.0
  0
VERTEX
  5
1432B
  8
0
 10
494.82363480677162
 20
254.03512380913691
 30
0.0
  0
VERTEX
  5
1432C
  8
0
 10
494.9883897983218
 20
254.26726200350799
 30
0.0
  0
VERTEX
  5
1432D
  8
0
 10
495.06700419754361
 20
254.3780289339368
 30
0.0
  0
VERTEX
  5
1432E
  8
0
 10
495.14310151125619
 20
254.48524931515539
 30
0.0
  0
VERTEX
  5
1432F
  8
0
 10
495.287721012909
 20
254.68901679842591
 30
0.0
  0
VERTEX
  5
14330
  8
0
 10
495.42220256260759
 20
254.87850000515371
 30
0.0
  0
VERTEX
  5
14331
  8
0
 10
495.54650362614211
 20
255.05363900504489
 30
0.0
  0
VERTEX
  5
14332
  8
0
 10
495.66058488921362
 20
255.2143784046327
 30
0.0
  0
VERTEX
  5
14333
  8
0
 10
495.76441026987231
 20
255.3606673647985
 30
0.0
  0
VERTEX
  5
14334
  8
0
 10
495.8124666153621
 20
255.42837829218871
 30
0.0
  0
VERTEX
  5
14335
  8
0
 10
495.8579469299284
 20
255.49245961684821
 30
0.0
  0
VERTEX
  5
14336
  8
0
 10
495.94116528533772
 20
255.6097134771496
 30
0.0
  0
VERTEX
  5
14337
  8
0
 10
496.01403901555932
 20
255.71239186031491
 30
0.0
  0
VERTEX
  5
14338
  8
0
 10
496.0765450718809
 20
255.8004622909296
 30
0.0
  0
VERTEX
  5
14339
  8
0
 10
496.12866368470708
 20
255.8738969138237
 30
0.0
  0
VERTEX
  5
1433A
  8
0
 10
496.17037836981211
 20
255.9326725028848
 30
0.0
  0
VERTEX
  5
1433B
  8
0
 10
496.18732998779711
 20
255.95655716916261
 30
0.0
  0
VERTEX
  5
1433C
  8
0
 10
496.20167593355649
 20
255.97677046839979
 30
0.0
  0
VERTEX
  5
1433D
  8
0
 10
496.22254647705631
 20
256.00617686293782
 30
0.0
  0
VERTEX
  5
1433E
  8
0
 10
496.2329833993162
 20
256.02088238575902
 30
0.0
  0
VERTEX
  5
1433F
  8
0
 10
496.23428809197128
 20
256.0227206851294
 30
0.0
  0
SEQEND
  5
14340
  8
0
  0
LINE
  5
C04D
  8
0
 10
395.26760908876207
 20
259.52272068512929
 30
0.0
 11
346.75094859036682
 21
246.52272068512929
 31
0.0
  0
LINE
  5
C04E
  8
0
 10
401.63428809197131
 20
259.52272068512929
 30
0.0
 11
395.26760908876207
 21
259.52272068512929
 31
0.0
  0
LINE
  5
C04F
  8
0
 10
350.23428809197139
 20
233.5227206851294
 30
0.0
 11
399.60807628196608
 21
233.5227206851294
 31
0.0
  0
ARC
  5
C07B
  8
0
 10
407.23428809197128
 20
154.52272068512929
 30
0.0
 40
75.000000000000213
 50
96.142564151707134
 51
44.007285083330579
  0
ARC
  5
C07D
  8
0
 10
407.23428809197128
 20
154.52272068512929
 30
0.0
 40
61.83266234803483
 50
98.589203183739428
 51
41.704324537012418
  0
ARC
  5
C085
  8
0
 10
407.23428809197128
 20
154.52272068512929
 30
0.0
 40
24.358818170688291
 50
121.91768406612761
 51
20.033352456707611
  0
ARC
  5
C08D
  8
0
 10
407.23428809197128
 20
154.52272068512929
 30
0.0
 40
70.062472123098814
 50
96.949710461705976
 51
43.248597083130477
  0
LINE
  5
11CEC
  8
1
 10
316.51073923940538
 20
467.3069061122232
 30
0.0
 11
548.95783694453712
 21
467.30690611222349
 31
0.0
  0
LINE
  5
11CED
  8
1
 10
463.23428809197139
 20
538.03045496478921
 30
0.0
 11
463.23428809197139
 21
396.58335725965782
 31
0.0
  0
LINE
  5
11CEE
  8
1
 10
407.23428809197179
 20
402.06128496827267
 30
0.0
 11
407.23428809197128
 21
532.55252725617379
 31
0.0
  0
LINE
  5
11D0B
  8
0
 10
402.53428809197129
 20
144.52272068512929
 30
0.0
 11
411.93428809197138
 21
144.52272068512929
 31
0.0
  0
LINE
  5
11EA6
  8
1
 10
463.23320678276821
 20
289.24626954548989
 30
0.0
 11
463.23320678276821
 21
225.7298213624274
 31
0.0
  0
CIRCLE
  5
11EA7
  8
0
 10
407.23320678276832
 20
154.52272069292371
 30
0.0
 40
8.6625000000000121
  0
LINE
  5
11EA8
  8
1
 10
316.50965793020328
 20
154.52272069292371
 30
0.0
 11
497.95675563533399
 21
154.52272069292371
 31
0.0
  0
LINE
  5
11EA9
  8
1
 10
407.23320678276872
 20
63.799171840358213
 30
0.0
 11
407.23320678276872
 21
245.24626954548941
 31
0.0
  0
LINE
  5
11EAA
  8
0
 10
407.23320678276872
 20
164.52531410663411
 30
0.0
 11
415.89570678276817
 21
159.52401739977881
 31
0.0
  0
LINE
  5
11EAB
  8
0
 10
415.89570678276817
 20
159.52401739977881
 30
0.0
 11
415.89570678276817
 21
149.52142398606861
 31
0.0
  0
LINE
  5
11EAC
  8
0
 10
415.89570678276817
 20
149.52142398606861
 30
0.0
 11
407.23320678276872
 21
144.52012727921331
 31
0.0
  0
LINE
  5
11EAD
  8
0
 10
407.23320678276781
 20
164.52531410663411
 30
0.0
 11
398.57070678276818
 21
159.52401739977901
 31
0.0
  0
LINE
  5
11EAE
  8
0
 10
398.57070678276818
 20
159.52401739977901
 30
0.0
 11
398.57070678276801
 21
149.52142398606861
 31
0.0
  0
LINE
  5
11EAF
  8
0
 10
398.57070678276801
 20
149.52142398606861
 30
0.0
 11
407.23320678276741
 21
144.52012727921331
 31
0.0
  0
LINE
  5
11EEF
  8
0
 10
151.3532114805698
 20
270.22272068512939
 30
0.0
 11
151.3532114805698
 21
271.0227206851294
 31
0.0
  0
LINE
  5
11EF0
  8
0
 10
81.753211480569917
 20
271.0227206851294
 30
0.0
 11
81.753211480569917
 21
270.22272068512939
 31
0.0
  0
LINE
  5
11EF1
  8
0
 10
151.05443214454789
 20
261.72272068512939
 30
0.0
 11
152.5532114805699
 21
270.22272068512939
 31
0.0
  0
LINE
  5
11EF2
  8
0
 10
80.553211480569885
 20
270.22272068512939
 30
0.0
 11
82.051990816591797
 21
261.72272068512939
 31
0.0
  0
LINE
  5
11EF3
  8
0
 10
149.5532114805699
 20
209.52603890236259
 30
0.0
 11
149.5532114805699
 21
261.72272068512939
 31
0.0
  0
LINE
  5
11EF4
  8
0
 10
83.553211480569871
 20
261.72272068512939
 30
0.0
 11
83.553211480569871
 21
209.52603890236259
 31
0.0
  0
LINE
  5
11EF5
  8
0
 10
171.55321148056979
 20
273.52272068512929
 30
0.0
 11
171.55321148056979
 21
271.0227206851294
 31
0.0
  0
LINE
  5
11EF6
  8
0
 10
61.553211480569871
 20
273.52272068512929
 30
0.0
 11
171.55321148056979
 21
273.52272068512929
 31
0.0
  0
LINE
  5
11EF7
  8
0
 10
61.553211480569871
 20
271.0227206851294
 30
0.0
 11
171.55321148056979
 21
271.0227206851294
 31
0.0
  0
LINE
  5
11EF8
  8
0
 10
61.553211480569871
 20
273.52272068512929
 30
0.0
 11
61.553211480569871
 21
271.0227206851294
 31
0.0
  0
LINE
  5
11EF9
  8
0
 10
80.553211480569885
 20
270.22272068512939
 30
0.0
 11
152.5532114805699
 21
270.22272068512939
 31
0.0
  0
LINE
  5
11EFA
  8
0
 10
82.051990816591797
 20
261.72272068512939
 30
0.0
 11
151.05443214454789
 21
261.72272068512939
 31
0.0
  0
LINE
  5
11EFB
  8
0
 10
147.5532114805699
 20
259.72272068512939
 30
0.0
 11
85.553211480569885
 21
259.72272068512939
 31
0.0
  0
LINE
  5
11EFC
  8
0
 10
88.553211480569871
 20
256.0227206851294
 30
0.0
 11
144.5532114805699
 21
256.0227206851294
 31
0.0
  0
LINE
  5
11EFD
  8
0
 10
147.5532114805699
 20
259.72272068512939
 30
0.0
 11
147.5532114805699
 21
144.52272068512929
 31
0.0
  0
LINE
  5
11F01
  8
0
 10
85.551048862197604
 20
143.52272068512929
 30
0.0
 11
85.553211480569885
 21
259.72272068512939
 31
0.0
  0
POLYLINE
  5
11F02
  8
0
 66
     1
 10
0.0
 20
0.0
 30
0.0
  0
VERTEX
  5
14341
  8
0
 10
88.553211480569871
 20
226.5540399301392
 30
0.0
  0
VERTEX
  5
14342
  8
0
 10
88.726278897303004
 20
227.11934851664481
 30
0.0
  0
VERTEX
  5
14343
  8
0
 10
88.910823975952098
 20
227.68772309533759
 30
0.0
  0
VERTEX
  5
14344
  8
0
 10
89.101216418714117
 20
228.25225582135471
 30
0.0
  0
VERTEX
  5
14345
  8
0
 10
89.499381068634179
 20
229.3693188770082
 30
0.0
  0
VERTEX
  5
14346
  8
0
 10
89.920435960017812
 20
230.46959253673731
 30
0.0
  0
VERTEX
  5
14347
  8
0
 10
90.139436665144544
 20
231.0131418474291
 30
0.0
  0
VERTEX
  5
14348
  8
0
 10
90.36402483839106
 20
231.55214585917949
 30
0.0
  0
VERTEX
  5
14349
  8
0
 10
90.829772383276804
 20
232.61606289614679
 30
0.0
  0
VERTEX
  5
1434A
  8
0
 10
91.317284525753848
 20
233.6604434676087
 30
0.0
  0
VERTEX
  5
1434B
  8
0
 10
91.569074129755563
 20
234.17503077184119
 30
0.0
  0
VERTEX
  5
1434C
  8
0
 10
91.826148781878373
 20
234.68440392333579
 30
0.0
  0
VERTEX
  5
1434D
  8
0
 10
92.355934601687053
 20
235.68707789055469
 30
0.0
  0
VERTEX
  5
1434E
  8
0
 10
92.906193733485225
 20
236.6676170069868
 30
0.0
  0
VERTEX
  5
1434F
  8
0
 10
93.476460603111491
 20
237.62519163864661
 30
0.0
  0
VERTEX
  5
14350
  8
0
 10
94.066252707861167
 20
238.55899158179571
 30
0.0
  0
VERTEX
  5
14351
  8
0
 10
94.675071024731537
 20
239.46822674845569
 30
0.0
  0
VERTEX
  5
14352
  8
0
 10
94.986454654380154
 20
239.9133913033825
 30
0.0
  0
VERTEX
  5
14353
  8
0
 10
95.302400432644845
 20
240.35212783490169
 30
0.0
  0
VERTEX
  5
14354
  8
0
 10
95.947710148292344
 20
241.2099469725697
 30
0.0
  0
VERTEX
  5
14355
  8
0
 10
96.610454175229265
 20
242.0409583608284
 30
0.0
  0
VERTEX
  5
14356
  8
0
 10
97.290071765843777
 20
242.84445888107871
 30
0.0
  0
VERTEX
  5
14357
  8
0
 10
97.553211480570099
 20
243.13761892378849
 30
0.0
  0
SEQEND
  5
14358
  8
0
  0
POLYLINE
  5
11F03
  8
0
 66
     1
 10
0.0
 20
0.0
 30
0.0
  0
VERTEX
  5
14359
  8
0
 10
85.553211480569885
 20
193.5851327247783
 30
0.0
  0
VERTEX
  5
1435A
  8
0
 10
85.444702835379303
 20
194.010458070672
 30
0.0
  0
VERTEX
  5
1435B
  8
0
 10
85.236513608653908
 20
194.86546651790849
 30
0.0
  0
VERTEX
  5
1435C
  8
0
 10
85.040160238974295
 20
195.72601579322529
 30
0.0
  0
VERTEX
  5
1435D
  8
0
 10
84.946445366649414
 20
196.15826668340279
 30
0.0
  0
VERTEX
  5
1435E
  8
0
 10
84.855716936285035
 20
196.59178065996301
 30
0.0
  0
VERTEX
  5
1435F
  8
0
 10
84.683253409231156
 20
197.46243391027741
 30
0.0
  0
VERTEX
  5
14360
  8
0
 10
84.522834838811363
 20
198.33764648880469
 30
0.0
  0
VERTEX
  5
14361
  8
0
 10
84.057057862026113
 20
201.4320055279006
 30
0.0
  0
VERTEX
  5
14362
  8
0
 10
83.609321545377952
 20
206.8157493747533
 30
0.0
  0
VERTEX
  5
14363
  8
0
 10
83.553211480569871
 20
209.52603890236259
 30
0.0
  0
SEQEND
  5
14364
  8
0
  0
POLYLINE
  5
11F04
  8
0
 66
     1
 10
0.0
 20
0.0
 30
0.0
  0
VERTEX
  5
14365
  8
0
 10
149.5532114805699
 20
209.52603890236259
 30
0.0
  0
VERTEX
  5
14366
  8
0
 10
149.49710141576199
 20
206.8157493747533
 30
0.0
  0
VERTEX
  5
14367
  8
0
 10
149.0493650991136
 20
201.4320055279006
 30
0.0
  0
VERTEX
  5
14368
  8
0
 10
148.58358812232831
 20
198.33764648880469
 30
0.0
  0
VERTEX
  5
14369
  8
0
 10
148.42316955190859
 20
197.46243391027741
 30
0.0
  0
VERTEX
  5
1436A
  8
0
 10
148.25070602485471
 20
196.59178065996301
 30
0.0
  0
VERTEX
  5
1436B
  8
0
 10
148.1599775944903
 20
196.15826668340279
 30
0.0
  0
VERTEX
  5
1436C
  8
0
 10
148.06626272216539
 20
195.72601579322529
 30
0.0
  0
VERTEX
  5
1436D
  8
0
 10
147.86990935248579
 20
194.86546651790849
 30
0.0
  0
VERTEX
  5
1436E
  8
0
 10
147.66172012576041
 20
194.010458070672
 30
0.0
  0
VERTEX
  5
1436F
  8
0
 10
147.5532114805699
 20
193.5851327247783
 30
0.0
  0
SEQEND
  5
14370
  8
0
  0
LINE
  5
11F05
  8
0
 10
88.553211480569871
 20
143.52272068512929
 30
0.0
 11
88.553211480569871
 21
256.0227206851294
 31
0.0
  0
LINE
  5
11F06
  8
0
 10
144.5532114805699
 20
256.0227206851294
 30
0.0
 11
144.55321148056959
 21
143.52272068512929
 31
0.0
  0
ARC
  5
11F38
  8
0
 10
137.0532114805699
 20
224.58519280822819
 30
0.0
 40
1.999999999999996
 50
0.0
 51
73.690734553588598
  0
ARC
  5
11F39
  8
0
 10
137.0532114805699
 20
84.460248562030515
 30
0.0
 40
2.0000000000000009
 50
286.30926544641142
 51
0.0
  0
ARC
  5
11F3A
  8
0
 10
116.5532114805701
 20
154.52272068512909
 30
0.0
 40
75.000000000000043
 50
253.6907345535885
 51
286.30926544641142
  0
ARC
  5
11F3B
  8
0
 10
116.5532114805701
 20
154.52272068512929
 30
0.0
 40
75.000000000000199
 50
73.690734553588598
 51
106.3092654464114
  0
ARC
  5
11F3C
  8
0
 10
96.053211480569871
 20
224.58519280822819
 30
0.0
 40
1.9999999999999989
 50
106.3092654464114
 51
180.0
  0
ARC
  5
11F3D
  8
0
 10
96.053211480569871
 20
84.460248562030515
 30
0.0
 40
1.9999999999999889
 50
180.0
 51
253.6907345535885
  0
LINE
  5
11F3E
  8
0
 10
139.0532114805699
 20
224.58519280822819
 30
0.0
 11
139.0532114805699
 21
84.460248562030515
 31
0.0
  0
LINE
  5
11F3F
  8
0
 10
94.053211480569871
 20
224.58519280822819
 30
0.0
 11
94.053211480569871
 21
84.460248562030515
 31
0.0
  0
LINE
  5
120A0
  8
1
 10
642.00439177967746
 20
154.52272068512889
 30
0.0
 11
753.82633762706791
 21
154.52272068512909
 31
0.0
  0
LINE
  5
120A1
  8
1
 10
697.91536470337269
 20
63.799171832563609
 30
0.0
 11
697.91536470337269
 21
289.24626953769513
 31
0.0
  0
LINE
  5
120A2
  8
0
 10
666.91536470333995
 20
156.21273410166981
 30
0.0
 11
666.91536470333995
 21
143.52272068512929
 31
0.0
  0
LINE
  5
120A3
  8
0
 10
669.91536470333995
 20
143.52272068512929
 30
0.0
 11
666.91536470333995
 21
143.52272068512929
 31
0.0
  0
LINE
  5
120A4
  8
0
 10
728.91536470333995
 20
143.52272068512929
 30
0.0
 11
725.91536470333995
 21
143.52272068512929
 31
0.0
  0
LINE
  5
120A8
  8
0
 10
666.91536470333995
 20
146.20772068512929
 30
0.0
 11
666.31536470334004
 21
146.20772068512929
 31
0.0
  0
LINE
  5
120A9
  8
0
 10
742.84186470333987
 20
148.52272068512929
 30
0.0
 11
740.91536470333995
 21
148.52272068512929
 31
0.0
  0
LINE
  5
120AA
  8
0
 10
740.91536470333995
 20
160.52272068512929
 30
0.0
 11
742.84186470333987
 21
160.52272068512929
 31
0.0
  0
LINE
  5
120AB
  8
0
 10
743.91536470333995
 20
149.59622068512931
 30
0.0
 11
742.84186470333987
 21
148.52272068512929
 31
0.0
  0
LINE
  5
120AC
  8
0
 10
742.84186470333987
 20
160.52272068512929
 30
0.0
 11
743.91536470333995
 21
159.4492206851294
 31
0.0
  0
LINE
  5
120AD
  8
0
 10
659.41536470333995
 20
163.1852206851292
 30
0.0
 11
659.7744416513259
 21
164.52531409883949
 31
0.0
  0
LINE
  5
120AE
  8
0
 10
659.7744416513259
 20
144.52012727141911
 30
0.0
 11
659.41536470333995
 21
145.86022068512941
 31
0.0
  0
LINE
  5
120AF
  8
0
 10
666.31536470334004
 20
145.86022068512941
 30
0.0
 11
665.95628775535397
 21
144.52012727141911
 31
0.0
  0
LINE
  5
120B0
  8
0
 10
740.91536470333995
 20
146.20772068512929
 30
0.0
 11
737.16536470333995
 21
146.20772068512929
 31
0.0
  0
LINE
  5
120B1
  8
0
 10
737.16536470333995
 20
162.8377206851294
 30
0.0
 11
740.91536470333995
 21
162.8377206851294
 31
0.0
  0
LINE
  5
120B2
  8
0
 10
729.27444165132601
 20
144.52012727141911
 30
0.0
 11
728.91536470333995
 21
145.86022068512941
 31
0.0
  0
LINE
  5
120B3
  8
0
 10
736.80628775535388
 20
164.52531409883949
 30
0.0
 11
737.16536470333995
 21
163.1852206851292
 31
0.0
  0
LINE
  5
120B4
  8
0
 10
737.16536470333995
 20
145.86022068512941
 30
0.0
 11
736.80628775535388
 21
144.52012727141911
 31
0.0
  0
LINE
  5
120B5
  8
0
 10
725.91536470333995
 20
144.52272068512929
 30
0.0
 11
720.41536470333995
 21
144.52272068512929
 31
0.0
  0
LINE
  5
120B6
  8
0
 10
675.41536470333995
 20
144.52272068512929
 30
0.0
 11
669.91536470333995
 21
144.52272068512929
 31
0.0
  0
LINE
  5
120B7
  8
0
 10
669.91536470333995
 20
164.52272068512929
 30
0.0
 11
675.41536470333995
 21
164.52272068512929
 31
0.0
  0
LINE
  5
120B8
  8
0
 10
720.41536470333995
 20
164.52272068512929
 30
0.0
 11
725.91536470333995
 21
164.52272068512929
 31
0.0
  0
LINE
  5
120B9
  8
0
 10
742.84186470333987
 20
160.52272068512929
 30
0.0
 11
742.84186470333987
 21
148.52272068512929
 31
0.0
  0
LINE
  5
120BA
  8
0
 10
743.91536470333995
 20
159.4492206851294
 30
0.0
 11
743.91536470333995
 21
149.59622068512931
 31
0.0
  0
LINE
  5
120BB
  8
0
 10
659.41536470333995
 20
163.1852206851292
 30
0.0
 11
659.41536470333995
 21
145.86022068512941
 31
0.0
  0
LINE
  5
120BC
  8
0
 10
666.31536470334095
 20
163.18522068512829
 30
0.0
 11
666.31536470334004
 21
145.86022068512941
 31
0.0
  0
POLYLINE
  5
120BD
  8
0
 66
     1
 10
0.0
 20
0.0
 30
0.0
  0
VERTEX
  5
14371
  8
0
 10
659.7744416513259
 20
149.52142397827421
 30
0.0
  0
VERTEX
  5
14372
  8
0
 10
659.66254016389337
 20
149.0721635727466
 30
0.0
  0
VERTEX
  5
14373
  8
0
 10
659.50390175226346
 20
148.22843757856089
 30
0.0
  0
VERTEX
  5
14374
  8
0
 10
659.42531695886328
 20
147.42229470991529
 30
0.0
  0
VERTEX
  5
14375
  8
0
 10
659.41536470333995
 20
147.02077562484669
 30
0.0
  0
SEQEND
  5
14376
  8
0
  0
POLYLINE
  5
120BE
  8
0
 66
     1
 10
0.0
 20
0.0
 30
0.0
  0
VERTEX
  5
14377
  8
0
 10
659.41536470333995
 20
147.02077562484669
 30
0.0
  0
VERTEX
  5
14378
  8
0
 10
659.42531695886328
 20
146.61925653977801
 30
0.0
  0
VERTEX
  5
14379
  8
0
 10
659.50390175226346
 20
145.81311367113219
 30
0.0
  0
VERTEX
  5
1437A
  8
0
 10
659.66254016389337
 20
144.96938767694681
 30
0.0
  0
VERTEX
  5
1437B
  8
0
 10
659.7744416513259
 20
144.52012727141911
 30
0.0
  0
SEQEND
  5
1437C
  8
0
  0
POLYLINE
  5
120BF
  8
0
 66
     1
 10
0.0
 20
0.0
 30
0.0
  0
VERTEX
  5
1437D
  8
0
 10
665.95628775535397
 20
144.52012727141911
 30
0.0
  0
VERTEX
  5
1437E
  8
0
 10
666.0681892427865
 20
144.96938767694681
 30
0.0
  0
VERTEX
  5
1437F
  8
0
 10
666.22682765441596
 20
145.81311367113219
 30
0.0
  0
VERTEX
  5
14380
  8
0
 10
666.30541244781671
 20
146.61925653977801
 30
0.0
  0
VERTEX
  5
14381
  8
0
 10
666.31536470334004
 20
147.02077562484669
 30
0.0
  0
SEQEND
  5
14382
  8
0
  0
POLYLINE
  5
120C0
  8
0
 66
     1
 10
0.0
 20
0.0
 30
0.0
  0
VERTEX
  5
14383
  8
0
 10
666.31536470334004
 20
147.02077562484669
 30
0.0
  0
VERTEX
  5
14384
  8
0
 10
666.30541244781671
 20
147.42229470991529
 30
0.0
  0
VERTEX
  5
14385
  8
0
 10
666.22682765441596
 20
148.22843757856089
 30
0.0
  0
VERTEX
  5
14386
  8
0
 10
666.0681892427865
 20
149.0721635727466
 30
0.0
  0
VERTEX
  5
14387
  8
0
 10
665.95628775535397
 20
149.52142397827421
 30
0.0
  0
SEQEND
  5
14388
  8
0
  0
LINE
  5
120C1
  8
0
 10
659.7744416513259
 20
144.52012727141911
 30
0.0
 11
665.95628775535397
 21
144.52012727141911
 31
0.0
  0
POLYLINE
  5
120C2
  8
0
 66
     1
 10
0.0
 20
0.0
 30
0.0
  0
VERTEX
  5
14389
  8
0
 10
659.7744416513259
 20
164.52531409883949
 30
0.0
  0
VERTEX
  5
1438A
  8
0
 10
659.66254016389337
 20
164.07605369331191
 30
0.0
  0
VERTEX
  5
1438B
  8
0
 10
659.50390175226346
 20
163.2323276991265
 30
0.0
  0
VERTEX
  5
1438C
  8
0
 10
659.42531695886328
 20
162.42618483048071
 30
0.0
  0
VERTEX
  5
1438D
  8
0
 10
659.41536470333995
 20
162.02466574541199
 30
0.0
  0
SEQEND
  5
1438E
  8
0
  0
POLYLINE
  5
120C3
  8
0
 66
     1
 10
0.0
 20
0.0
 30
0.0
  0
VERTEX
  5
1438F
  8
0
 10
659.41536470333995
 20
162.02466574541199
 30
0.0
  0
VERTEX
  5
14390
  8
0
 10
659.42531695886328
 20
161.62314666034331
 30
0.0
  0
VERTEX
  5
14391
  8
0
 10
659.50390175226346
 20
160.81700379169769
 30
0.0
  0
VERTEX
  5
14392
  8
0
 10
659.66254016389337
 20
159.97327779751211
 30
0.0
  0
VERTEX
  5
14393
  8
0
 10
659.7744416513259
 20
159.52401739198439
 30
0.0
  0
SEQEND
  5
14394
  8
0
  0
LINE
  5
120C6
  8
0
 10
659.7744416513259
 20
159.52401739198439
 30
0.0
 11
665.95628775535397
 21
159.52401739198439
 31
0.0
  0
POLYLINE
  5
120C7
  8
0
 66
     1
 10
0.0
 20
0.0
 30
0.0
  0
VERTEX
  5
14395
  8
0
 10
659.7744416513259
 20
159.52401739198439
 30
0.0
  0
VERTEX
  5
14396
  8
0
 10
659.66254016389337
 20
158.62549658092911
 30
0.0
  0
VERTEX
  5
14397
  8
0
 10
659.50390175226346
 20
156.93804459255799
 30
0.0
  0
VERTEX
  5
14398
  8
0
 10
659.42531695886328
 20
155.32575885526671
 30
0.0
  0
VERTEX
  5
14399
  8
0
 10
659.41536470333995
 20
154.52272068512929
 30
0.0
  0
SEQEND
  5
1439A
  8
0
  0
POLYLINE
  5
120C8
  8
0
 66
     1
 10
0.0
 20
0.0
 30
0.0
  0
VERTEX
  5
1439B
  8
0
 10
659.41536470333995
 20
154.52272068512929
 30
0.0
  0
VERTEX
  5
1439C
  8
0
 10
659.42531695886328
 20
153.71968251499189
 30
0.0
  0
VERTEX
  5
1439D
  8
0
 10
659.50390175226346
 20
152.10739677770059
 30
0.0
  0
VERTEX
  5
1439E
  8
0
 10
659.66254016389337
 20
150.41994478932949
 30
0.0
  0
VERTEX
  5
1439F
  8
0
 10
659.7744416513259
 20
149.52142397827421
 30
0.0
  0
SEQEND
  5
143A0
  8
0
  0
LINE
  5
120C9
  8
0
 10
659.7744416513259
 20
149.52142397827421
 30
0.0
 11
665.95628775535397
 21
149.52142397827421
 31
0.0
  0
POLYLINE
  5
120CA
  8
0
 66
     1
 10
0.0
 20
0.0
 30
0.0
  0
VERTEX
  5
143A1
  8
0
 10
665.95628775535397
 20
149.52142397827421
 30
0.0
  0
VERTEX
  5
143A2
  8
0
 10
666.0681892427865
 20
150.41994478932949
 30
0.0
  0
VERTEX
  5
143A3
  8
0
 10
666.22682765441596
 20
152.10739677770059
 30
0.0
  0
VERTEX
  5
143A4
  8
0
 10
666.30541244781671
 20
153.71968251499189
 30
0.0
  0
VERTEX
  5
143A5
  8
0
 10
666.31536470334004
 20
154.52272068512929
 30
0.0
  0
SEQEND
  5
143A6
  8
0
  0
LINE
  5
120CB
  8
0
 10
740.91536470333995
 20
162.8377206851294
 30
0.0
 11
740.91536470333995
 21
146.20772068512929
 31
0.0
  0
LINE
  5
120CC
  8
0
 10
737.16536470333995
 20
163.1852206851292
 30
0.0
 11
737.16536470333995
 21
145.86022068512941
 31
0.0
  0
POLYLINE
  5
120CD
  8
0
 66
     1
 10
0.0
 20
0.0
 30
0.0
  0
VERTEX
  5
143A7
  8
0
 10
729.27444165132601
 20
149.52142397827421
 30
0.0
  0
VERTEX
  5
143A8
  8
0
 10
729.16254016389348
 20
149.0721635727466
 30
0.0
  0
VERTEX
  5
143A9
  8
0
 10
729.00390175226346
 20
148.22843757856089
 30
0.0
  0
VERTEX
  5
143AA
  8
0
 10
728.92531695886328
 20
147.42229470991529
 30
0.0
  0
VERTEX
  5
143AB
  8
0
 10
728.91536470333995
 20
147.02077562484669
 30
0.0
  0
SEQEND
  5
143AC
  8
0
  0
POLYLINE
  5
120CE
  8
0
 66
     1
 10
0.0
 20
0.0
 30
0.0
  0
VERTEX
  5
143AD
  8
0
 10
728.91536470333995
 20
147.02077562484669
 30
0.0
  0
VERTEX
  5
143AE
  8
0
 10
728.92531695886328
 20
146.61925653977801
 30
0.0
  0
VERTEX
  5
143AF
  8
0
 10
729.00390175226346
 20
145.81311367113219
 30
0.0
  0
VERTEX
  5
143B0
  8
0
 10
729.16254016389348
 20
144.96938767694681
 30
0.0
  0
VERTEX
  5
143B1
  8
0
 10
729.27444165132601
 20
144.52012727141911
 30
0.0
  0
SEQEND
  5
143B2
  8
0
  0
POLYLINE
  5
120CF
  8
0
 66
     1
 10
0.0
 20
0.0
 30
0.0
  0
VERTEX
  5
143B3
  8
0
 10
736.80628775535388
 20
144.52012727141911
 30
0.0
  0
VERTEX
  5
143B4
  8
0
 10
736.91818924278641
 20
144.96938767694681
 30
0.0
  0
VERTEX
  5
143B5
  8
0
 10
737.07682765441632
 20
145.81311367113219
 30
0.0
  0
VERTEX
  5
143B6
  8
0
 10
737.15541244781662
 20
146.61925653977801
 30
0.0
  0
VERTEX
  5
143B7
  8
0
 10
737.16536470333995
 20
147.02077562484669
 30
0.0
  0
SEQEND
  5
143B8
  8
0
  0
POLYLINE
  5
120D0
  8
0
 66
     1
 10
0.0
 20
0.0
 30
0.0
  0
VERTEX
  5
143B9
  8
0
 10
737.16536470333995
 20
147.02077562484669
 30
0.0
  0
VERTEX
  5
143BA
  8
0
 10
737.15541244781662
 20
147.42229470991529
 30
0.0
  0
VERTEX
  5
143BB
  8
0
 10
737.07682765441632
 20
148.22843757856089
 30
0.0
  0
VERTEX
  5
143BC
  8
0
 10
736.91818924278641
 20
149.0721635727466
 30
0.0
  0
VERTEX
  5
143BD
  8
0
 10
736.80628775535388
 20
149.52142397827421
 30
0.0
  0
SEQEND
  5
143BE
  8
0
  0
LINE
  5
120D1
  8
0
 10
729.27444165132601
 20
144.52012727141911
 30
0.0
 11
736.80628775535388
 21
144.52012727141911
 31
0.0
  0
POLYLINE
  5
120D2
  8
0
 66
     1
 10
0.0
 20
0.0
 30
0.0
  0
VERTEX
  5
143BF
  8
0
 10
737.16536470333995
 20
162.02466574541199
 30
0.0
  0
VERTEX
  5
143C0
  8
0
 10
737.15541244781662
 20
162.42618483048071
 30
0.0
  0
VERTEX
  5
143C1
  8
0
 10
737.07682765441632
 20
163.2323276991265
 30
0.0
  0
VERTEX
  5
143C2
  8
0
 10
736.91818924278641
 20
164.07605369331191
 30
0.0
  0
VERTEX
  5
143C3
  8
0
 10
736.80628775535388
 20
164.52531409883949
 30
0.0
  0
SEQEND
  5
143C4
  8
0
  0
POLYLINE
  5
120D3
  8
0
 66
     1
 10
0.0
 20
0.0
 30
0.0
  0
VERTEX
  5
143C5
  8
0
 10
736.80628775535388
 20
159.52401739198439
 30
0.0
  0
VERTEX
  5
143C6
  8
0
 10
736.91818924278641
 20
159.97327779751211
 30
0.0
  0
VERTEX
  5
143C7
  8
0
 10
737.07682765441632
 20
160.81700379169769
 30
0.0
  0
VERTEX
  5
143C8
  8
0
 10
737.15541244781662
 20
161.62314666034331
 30
0.0
  0
VERTEX
  5
143C9
  8
0
 10
737.16536470333995
 20
162.02466574541199
 30
0.0
  0
SEQEND
  5
143CA
  8
0
  0
POLYLINE
  5
120D5
  8
0
 66
     1
 10
0.0
 20
0.0
 30
0.0
  0
VERTEX
  5
143CB
  8
0
 10
737.16536470333995
 20
154.52272068512929
 30
0.0
  0
VERTEX
  5
143CC
  8
0
 10
737.15541244781662
 20
155.32575885526671
 30
0.0
  0
VERTEX
  5
143CD
  8
0
 10
737.07682765441632
 20
156.93804459255799
 30
0.0
  0
VERTEX
  5
143CE
  8
0
 10
736.91818924278641
 20
158.62549658092911
 30
0.0
  0
VERTEX
  5
143CF
  8
0
 10
736.80628775535388
 20
159.52401739198439
 30
0.0
  0
SEQEND
  5
143D0
  8
0
  0
LINE
  5
120D6
  8
0
 10
729.27444165132636
 20
159.52401739198419
 30
0.0
 11
736.80628775535388
 21
159.52401739198439
 31
0.0
  0
POLYLINE
  5
120D8
  8
0
 66
     1
 10
0.0
 20
0.0
 30
0.0
  0
VERTEX
  5
143D1
  8
0
 10
728.91536470333995
 20
154.52272068512929
 30
0.0
  0
VERTEX
  5
143D2
  8
0
 10
728.92531695886328
 20
153.71968251499189
 30
0.0
  0
VERTEX
  5
143D3
  8
0
 10
729.00390175226346
 20
152.10739677770059
 30
0.0
  0
VERTEX
  5
143D4
  8
0
 10
729.16254016389348
 20
150.41994478932949
 30
0.0
  0
VERTEX
  5
143D5
  8
0
 10
729.27444165132601
 20
149.52142397827421
 30
0.0
  0
SEQEND
  5
143D6
  8
0
  0
LINE
  5
120D9
  8
0
 10
729.27444165132601
 20
149.52142397827421
 30
0.0
 11
736.80628775535388
 21
149.52142397827421
 31
0.0
  0
POLYLINE
  5
120DA
  8
0
 66
     1
 10
0.0
 20
0.0
 30
0.0
  0
VERTEX
  5
143D7
  8
0
 10
736.80628775535388
 20
149.52142397827421
 30
0.0
  0
VERTEX
  5
143D8
  8
0
 10
736.91818924278641
 20
150.41994478932949
 30
0.0
  0
VERTEX
  5
143D9
  8
0
 10
737.07682765441632
 20
152.10739677770059
 30
0.0
  0
VERTEX
  5
143DA
  8
0
 10
737.15541244781662
 20
153.71968251499189
 30
0.0
  0
VERTEX
  5
143DB
  8
0
 10
737.16536470333995
 20
154.52272068512929
 30
0.0
  0
SEQEND
  5
143DC
  8
0
  0
LINE
  5
120DB
  8
3
 10
743.91536470333995
 20
159.4492206851294
 30
0.0
 11
740.91536470333995
 21
159.4492206851294
 31
0.0
  0
LINE
  5
120DC
  8
3
 10
743.91536470333995
 20
149.59622068512931
 30
0.0
 11
740.91536470333995
 21
149.59622068512931
 31
0.0
  0
LINE
  5
120DE
  8
0
 10
659.77444165132647
 20
164.52531409883881
 30
0.0
 11
665.95628775535442
 21
164.52531409883861
 31
0.0
  0
LINE
  5
120DF
  8
0
 10
666.31536470334095
 20
163.18522068512829
 30
0.0
 11
665.95628775535533
 21
164.52531409883861
 31
0.0
  0
POLYLINE
  5
120E0
  8
0
 66
     1
 10
0.0
 20
0.0
 30
0.0
  0
VERTEX
  5
143DD
  8
0
 10
665.95628775535397
 20
164.52531409883949
 30
0.0
  0
VERTEX
  5
143DE
  8
0
 10
666.0681892427865
 20
164.07605369331191
 30
0.0
  0
VERTEX
  5
143DF
  8
0
 10
666.22682765441596
 20
163.2323276991265
 30
0.0
  0
VERTEX
  5
143E0
  8
0
 10
666.30541244781671
 20
162.42618483048071
 30
0.0
  0
VERTEX
  5
143E1
  8
0
 10
666.31536470334004
 20
162.02466574541199
 30
0.0
  0
SEQEND
  5
143E2
  8
0
  0
POLYLINE
  5
120E1
  8
0
 66
     1
 10
0.0
 20
0.0
 30
0.0
  0
VERTEX
  5
143E3
  8
0
 10
666.31536470334004
 20
162.02466574541199
 30
0.0
  0
VERTEX
  5
143E4
  8
0
 10
666.30541244781671
 20
161.62314666034331
 30
0.0
  0
VERTEX
  5
143E5
  8
0
 10
666.22682765441596
 20
160.81700379169769
 30
0.0
  0
VERTEX
  5
143E6
  8
0
 10
666.0681892427865
 20
159.97327779751211
 30
0.0
  0
VERTEX
  5
143E7
  8
0
 10
665.95628775535397
 20
159.52401739198439
 30
0.0
  0
SEQEND
  5
143E8
  8
0
  0
POLYLINE
  5
120E2
  8
0
 66
     1
 10
0.0
 20
0.0
 30
0.0
  0
VERTEX
  5
143E9
  8
0
 10
665.95628775535397
 20
159.52401739198439
 30
0.0
  0
VERTEX
  5
143EA
  8
0
 10
666.0681892427865
 20
158.62549658092911
 30
0.0
  0
VERTEX
  5
143EB
  8
0
 10
666.22682765441596
 20
156.93804459255799
 30
0.0
  0
VERTEX
  5
143EC
  8
0
 10
666.30541244781671
 20
155.32575885526671
 30
0.0
  0
VERTEX
  5
143ED
  8
0
 10
666.31536470334004
 20
154.52272068512929
 30
0.0
  0
SEQEND
  5
143EE
  8
0
  0
LINE
  5
120E3
  8
0
 10
666.91536470334131
 20
162.83772068512849
 30
0.0
 11
666.31536470334129
 21
162.83772068512869
 31
0.0
  0
POLYLINE
  5
120E4
  8
0
 66
     1
 10
0.0
 20
0.0
 30
0.0
  0
VERTEX
  5
143EF
  8
0
 10
728.91536470333995
 20
162.02466574541199
 30
0.0
  0
VERTEX
  5
143F0
  8
0
 10
728.92531695886328
 20
162.42618483048071
 30
0.0
  0
VERTEX
  5
143F1
  8
0
 10
729.00390175226346
 20
163.2323276991265
 30
0.0
  0
VERTEX
  5
143F2
  8
0
 10
729.16254016389348
 20
164.07605369331191
 30
0.0
  0
VERTEX
  5
143F3
  8
0
 10
729.27444165132601
 20
164.52531409883949
 30
0.0
  0
SEQEND
  5
143F4
  8
0
  0
LINE
  5
120E5
  8
0
 10
729.27444165132601
 20
164.52531409883949
 30
0.0
 11
736.80628775535388
 21
164.52531409883949
 31
0.0
  0
LINE
  5
120E6
  8
0
 10
729.27444165132727
 20
164.52531409883929
 30
0.0
 11
728.91536470334086
 21
163.1852206851292
 31
0.0
  0
POLYLINE
  5
120E7
  8
0
 66
     1
 10
0.0
 20
0.0
 30
0.0
  0
VERTEX
  5
143F5
  8
0
 10
729.27444165132636
 20
159.52401739198419
 30
0.0
  0
VERTEX
  5
143F6
  8
0
 10
729.16254016389394
 20
159.9732777975118
 30
0.0
  0
VERTEX
  5
143F7
  8
0
 10
729.00390175226437
 20
160.81700379169769
 30
0.0
  0
VERTEX
  5
143F8
  8
0
 10
728.92531695886419
 20
161.62314666034331
 30
0.0
  0
VERTEX
  5
143F9
  8
0
 10
728.91536470334086
 20
162.02466574541199
 30
0.0
  0
SEQEND
  5
143FA
  8
0
  0
POLYLINE
  5
120E8
  8
0
 66
     1
 10
0.0
 20
0.0
 30
0.0
  0
VERTEX
  5
143FB
  8
0
 10
728.91536470334086
 20
162.02466574541199
 30
0.0
  0
VERTEX
  5
143FC
  8
0
 10
728.92531695886419
 20
162.42618483048071
 30
0.0
  0
VERTEX
  5
143FD
  8
0
 10
729.00390175226437
 20
163.2323276991265
 30
0.0
  0
VERTEX
  5
143FE
  8
0
 10
729.16254016389439
 20
164.07605369331171
 30
0.0
  0
VERTEX
  5
143FF
  8
0
 10
729.27444165132727
 20
164.52531409883929
 30
0.0
  0
SEQEND
  5
14400
  8
0
  0
POLYLINE
  5
120E9
  8
0
 66
     1
 10
0.0
 20
0.0
 30
0.0
  0
VERTEX
  5
14401
  8
0
 10
728.91536470333995
 20
154.52272068512929
 30
0.0
  0
VERTEX
  5
14402
  8
0
 10
728.92531695886328
 20
155.32575885526671
 30
0.0
  0
VERTEX
  5
14403
  8
0
 10
729.00390175226403
 20
156.93804459255799
 30
0.0
  0
VERTEX
  5
14404
  8
0
 10
729.16254016389394
 20
158.62549658092891
 30
0.0
  0
VERTEX
  5
14405
  8
0
 10
729.27444165132636
 20
159.52401739198419
 30
0.0
  0
SEQEND
  5
14406
  8
0
  0
LINE
  5
12128
  8
0
 10
147.5510488621976
 20
156.21273410166981
 30
0.0
 11
147.5510488621976
 21
143.52272068512929
 31
0.0
  0
LINE
  5
12129
  8
0
 10
144.5510488621976
 20
143.52272068512929
 30
0.0
 11
147.5510488621976
 21
143.52272068512929
 31
0.0
  0
LINE
  5
1212A
  8
0
 10
85.551048862197604
 20
143.52272068512929
 30
0.0
 11
88.551048862197604
 21
143.52272068512929
 31
0.0
  0
LINE
  5
1212C
  8
0
 10
147.5510488621976
 20
146.20772068512929
 30
0.0
 11
148.15104886219751
 21
146.20772068512929
 31
0.0
  0
LINE
  5
1212D
  8
0
 10
71.624548862197571
 20
148.52272068512929
 30
0.0
 11
73.551048862197604
 21
148.52272068512929
 31
0.0
  0
LINE
  5
1212E
  8
0
 10
73.551048862197604
 20
160.52272068512929
 30
0.0
 11
71.624548862197571
 21
160.52272068512929
 31
0.0
  0
LINE
  5
1212F
  8
0
 10
70.551048862197604
 20
149.59622068512931
 30
0.0
 11
71.624548862197571
 21
148.52272068512929
 31
0.0
  0
LINE
  5
12130
  8
0
 10
71.624548862197571
 20
160.52272068512929
 30
0.0
 11
70.551048862197604
 21
159.4492206851294
 31
0.0
  0
LINE
  5
12131
  8
0
 10
155.0510488621976
 20
163.1852206851292
 30
0.0
 11
154.69197191421151
 21
164.52531409883949
 31
0.0
  0
LINE
  5
12132
  8
0
 10
154.69197191421151
 20
144.52012727141911
 30
0.0
 11
155.0510488621976
 21
145.86022068512941
 31
0.0
  0
LINE
  5
12133
  8
0
 10
148.15104886219751
 20
145.86022068512941
 30
0.0
 11
148.51012581018361
 21
144.52012727141911
 31
0.0
  0
LINE
  5
12134
  8
0
 10
73.551048862197604
 20
146.20772068512929
 30
0.0
 11
77.301048862197604
 21
146.20772068512929
 31
0.0
  0
LINE
  5
12135
  8
0
 10
77.301048862197604
 20
162.8377206851294
 30
0.0
 11
73.551048862197604
 21
162.8377206851294
 31
0.0
  0
LINE
  5
12136
  8
0
 10
85.191971914211535
 20
144.52012727141911
 30
0.0
 11
85.551048862197604
 21
145.86022068512941
 31
0.0
  0
LINE
  5
12137
  8
0
 10
77.660125810183672
 20
164.52531409883949
 30
0.0
 11
77.301048862197604
 21
163.1852206851292
 31
0.0
  0
LINE
  5
12138
  8
0
 10
77.301048862197604
 20
145.86022068512941
 30
0.0
 11
77.660125810183672
 21
144.52012727141911
 31
0.0
  0
LINE
  5
12139
  8
0
 10
88.551048862197604
 20
144.52272068512929
 30
0.0
 11
94.051048862197604
 21
144.52272068512929
 31
0.0
  0
LINE
  5
1213A
  8
0
 10
139.0510488621976
 20
144.52272068512929
 30
0.0
 11
144.5510488621976
 21
144.52272068512929
 31
0.0
  0
LINE
  5
1213B
  8
0
 10
144.5510488621976
 20
164.52272068512929
 30
0.0
 11
139.0510488621976
 21
164.52272068512929
 31
0.0
  0
LINE
  5
1213C
  8
0
 10
94.051048862197604
 20
164.52272068512929
 30
0.0
 11
88.551048862197604
 21
164.52272068512929
 31
0.0
  0
LINE
  5
1213D
  8
0
 10
71.624548862197571
 20
160.52272068512929
 30
0.0
 11
71.624548862197571
 21
148.52272068512929
 31
0.0
  0
LINE
  5
1213E
  8
0
 10
70.551048862197604
 20
159.4492206851294
 30
0.0
 11
70.551048862197604
 21
149.59622068512931
 31
0.0
  0
LINE
  5
1213F
  8
0
 10
155.0510488621976
 20
163.1852206851292
 30
0.0
 11
155.0510488621976
 21
145.86022068512941
 31
0.0
  0
LINE
  5
12140
  8
0
 10
148.1510488621966
 20
163.18522068512829
 30
0.0
 11
148.15104886219751
 21
145.86022068512941
 31
0.0
  0
POLYLINE
  5
12141
  8
0
 66
     1
 10
0.0
 20
0.0
 30
0.0
  0
VERTEX
  5
14407
  8
0
 10
154.69197191421151
 20
149.52142397827421
 30
0.0
  0
VERTEX
  5
14408
  8
0
 10
154.80387340164401
 20
149.0721635727466
 30
0.0
  0
VERTEX
  5
14409
  8
0
 10
154.96251181327401
 20
148.22843757856089
 30
0.0
  0
VERTEX
  5
1440A
  8
0
 10
155.04109660667419
 20
147.42229470991529
 30
0.0
  0
VERTEX
  5
1440B
  8
0
 10
155.0510488621976
 20
147.02077562484669
 30
0.0
  0
SEQEND
  5
1440C
  8
0
  0
POLYLINE
  5
12142
  8
0
 66
     1
 10
0.0
 20
0.0
 30
0.0
  0
VERTEX
  5
1440D
  8
0
 10
155.0510488621976
 20
147.02077562484669
 30
0.0
  0
VERTEX
  5
1440E
  8
0
 10
155.04109660667419
 20
146.61925653977801
 30
0.0
  0
VERTEX
  5
1440F
  8
0
 10
154.96251181327401
 20
145.81311367113219
 30
0.0
  0
VERTEX
  5
14410
  8
0
 10
154.80387340164401
 20
144.96938767694681
 30
0.0
  0
VERTEX
  5
14411
  8
0
 10
154.69197191421151
 20
144.52012727141911
 30
0.0
  0
SEQEND
  5
14412
  8
0
  0
POLYLINE
  5
12143
  8
0
 66
     1
 10
0.0
 20
0.0
 30
0.0
  0
VERTEX
  5
14413
  8
0
 10
148.51012581018361
 20
144.52012727141911
 30
0.0
  0
VERTEX
  5
14414
  8
0
 10
148.39822432275099
 20
144.96938767694681
 30
0.0
  0
VERTEX
  5
14415
  8
0
 10
148.23958591112159
 20
145.81311367113219
 30
0.0
  0
VERTEX
  5
14416
  8
0
 10
148.16100111772079
 20
146.61925653977801
 30
0.0
  0
VERTEX
  5
14417
  8
0
 10
148.15104886219751
 20
147.02077562484669
 30
0.0
  0
SEQEND
  5
14418
  8
0
  0
POLYLINE
  5
12144
  8
0
 66
     1
 10
0.0
 20
0.0
 30
0.0
  0
VERTEX
  5
14419
  8
0
 10
148.15104886219751
 20
147.02077562484669
 30
0.0
  0
VERTEX
  5
1441A
  8
0
 10
148.16100111772079
 20
147.42229470991529
 30
0.0
  0
VERTEX
  5
1441B
  8
0
 10
148.23958591112159
 20
148.22843757856089
 30
0.0
  0
VERTEX
  5
1441C
  8
0
 10
148.39822432275099
 20
149.0721635727466
 30
0.0
  0
VERTEX
  5
1441D
  8
0
 10
148.51012581018361
 20
149.52142397827421
 30
0.0
  0
SEQEND
  5
1441E
  8
0
  0
LINE
  5
12145
  8
0
 10
154.69197191421151
 20
144.52012727141911
 30
0.0
 11
148.51012581018361
 21
144.52012727141911
 31
0.0
  0
POLYLINE
  5
12146
  8
0
 66
     1
 10
0.0
 20
0.0
 30
0.0
  0
VERTEX
  5
1441F
  8
0
 10
154.69197191421151
 20
164.52531409883949
 30
0.0
  0
VERTEX
  5
14420
  8
0
 10
154.80387340164401
 20
164.07605369331191
 30
0.0
  0
VERTEX
  5
14421
  8
0
 10
154.96251181327401
 20
163.2323276991265
 30
0.0
  0
VERTEX
  5
14422
  8
0
 10
155.04109660667419
 20
162.42618483048071
 30
0.0
  0
VERTEX
  5
14423
  8
0
 10
155.0510488621976
 20
162.02466574541199
 30
0.0
  0
SEQEND
  5
14424
  8
0
  0
POLYLINE
  5
12147
  8
0
 66
     1
 10
0.0
 20
0.0
 30
0.0
  0
VERTEX
  5
14425
  8
0
 10
155.0510488621976
 20
162.02466574541199
 30
0.0
  0
VERTEX
  5
14426
  8
0
 10
155.04109660667419
 20
161.62314666034331
 30
0.0
  0
VERTEX
  5
14427
  8
0
 10
154.96251181327401
 20
160.81700379169769
 30
0.0
  0
VERTEX
  5
14428
  8
0
 10
154.80387340164401
 20
159.97327779751211
 30
0.0
  0
VERTEX
  5
14429
  8
0
 10
154.69197191421151
 20
159.52401739198439
 30
0.0
  0
SEQEND
  5
1442A
  8
0
  0
LINE
  5
12148
  8
0
 10
154.69197191421151
 20
159.52401739198439
 30
0.0
 11
148.51012581018361
 21
159.52401739198439
 31
0.0
  0
POLYLINE
  5
12149
  8
0
 66
     1
 10
0.0
 20
0.0
 30
0.0
  0
VERTEX
  5
1442B
  8
0
 10
154.69197191421151
 20
159.52401739198439
 30
0.0
  0
VERTEX
  5
1442C
  8
0
 10
154.80387340164401
 20
158.62549658092911
 30
0.0
  0
VERTEX
  5
1442D
  8
0
 10
154.96251181327401
 20
156.93804459255799
 30
0.0
  0
VERTEX
  5
1442E
  8
0
 10
155.04109660667419
 20
155.32575885526671
 30
0.0
  0
VERTEX
  5
1442F
  8
0
 10
155.0510488621976
 20
154.52272068512929
 30
0.0
  0
SEQEND
  5
14430
  8
0
  0
POLYLINE
  5
1214A
  8
0
 66
     1
 10
0.0
 20
0.0
 30
0.0
  0
VERTEX
  5
14431
  8
0
 10
155.0510488621976
 20
154.52272068512929
 30
0.0
  0
VERTEX
  5
14432
  8
0
 10
155.04109660667419
 20
153.71968251499189
 30
0.0
  0
VERTEX
  5
14433
  8
0
 10
154.96251181327401
 20
152.10739677770059
 30
0.0
  0
VERTEX
  5
14434
  8
0
 10
154.80387340164401
 20
150.41994478932949
 30
0.0
  0
VERTEX
  5
14435
  8
0
 10
154.69197191421151
 20
149.52142397827421
 30
0.0
  0
SEQEND
  5
14436
  8
0
  0
LINE
  5
1214B
  8
0
 10
154.69197191421151
 20
149.52142397827421
 30
0.0
 11
148.51012581018361
 21
149.52142397827421
 31
0.0
  0
POLYLINE
  5
1214C
  8
0
 66
     1
 10
0.0
 20
0.0
 30
0.0
  0
VERTEX
  5
14437
  8
0
 10
148.51012581018361
 20
149.52142397827421
 30
0.0
  0
VERTEX
  5
14438
  8
0
 10
148.39822432275099
 20
150.41994478932949
 30
0.0
  0
VERTEX
  5
14439
  8
0
 10
148.23958591112159
 20
152.10739677770059
 30
0.0
  0
VERTEX
  5
1443A
  8
0
 10
148.16100111772079
 20
153.71968251499189
 30
0.0
  0
VERTEX
  5
1443B
  8
0
 10
148.15104886219751
 20
154.52272068512929
 30
0.0
  0
SEQEND
  5
1443C
  8
0
  0
LINE
  5
1214D
  8
0
 10
73.551048862197604
 20
162.8377206851294
 30
0.0
 11
73.551048862197604
 21
146.20772068512929
 31
0.0
  0
LINE
  5
1214E
  8
0
 10
77.301048862197604
 20
163.1852206851292
 30
0.0
 11
77.301048862197604
 21
145.86022068512941
 31
0.0
  0
POLYLINE
  5
1214F
  8
0
 66
     1
 10
0.0
 20
0.0
 30
0.0
  0
VERTEX
  5
1443D
  8
0
 10
85.191971914211535
 20
149.52142397827421
 30
0.0
  0
VERTEX
  5
1443E
  8
0
 10
85.303873401644069
 20
149.0721635727466
 30
0.0
  0
VERTEX
  5
1443F
  8
0
 10
85.462511813273963
 20
148.22843757856089
 30
0.0
  0
VERTEX
  5
14440
  8
0
 10
85.541096606674259
 20
147.42229470991529
 30
0.0
  0
VERTEX
  5
14441
  8
0
 10
85.551048862197604
 20
147.02077562484669
 30
0.0
  0
SEQEND
  5
14442
  8
0
  0
POLYLINE
  5
12150
  8
0
 66
     1
 10
0.0
 20
0.0
 30
0.0
  0
VERTEX
  5
14443
  8
0
 10
85.551048862197604
 20
147.02077562484669
 30
0.0
  0
VERTEX
  5
14444
  8
0
 10
85.541096606674259
 20
146.61925653977801
 30
0.0
  0
VERTEX
  5
14445
  8
0
 10
85.462511813273963
 20
145.81311367113219
 30
0.0
  0
VERTEX
  5
14446
  8
0
 10
85.303873401644069
 20
144.96938767694681
 30
0.0
  0
VERTEX
  5
14447
  8
0
 10
85.191971914211535
 20
144.52012727141911
 30
0.0
  0
SEQEND
  5
14448
  8
0
  0
POLYLINE
  5
12151
  8
0
 66
     1
 10
0.0
 20
0.0
 30
0.0
  0
VERTEX
  5
14449
  8
0
 10
77.660125810183672
 20
144.52012727141911
 30
0.0
  0
VERTEX
  5
1444A
  8
0
 10
77.548224322751139
 20
144.96938767694681
 30
0.0
  0
VERTEX
  5
1444B
  8
0
 10
77.38958591112123
 20
145.81311367113219
 30
0.0
  0
VERTEX
  5
1444C
  8
0
 10
77.311001117720934
 20
146.61925653977801
 30
0.0
  0
VERTEX
  5
1444D
  8
0
 10
77.301048862197604
 20
147.02077562484669
 30
0.0
  0
SEQEND
  5
1444E
  8
0
  0
POLYLINE
  5
12152
  8
0
 66
     1
 10
0.0
 20
0.0
 30
0.0
  0
VERTEX
  5
1444F
  8
0
 10
77.301048862197604
 20
147.02077562484669
 30
0.0
  0
VERTEX
  5
14450
  8
0
 10
77.311001117720934
 20
147.42229470991529
 30
0.0
  0
VERTEX
  5
14451
  8
0
 10
77.38958591112123
 20
148.22843757856089
 30
0.0
  0
VERTEX
  5
14452
  8
0
 10
77.548224322751139
 20
149.0721635727466
 30
0.0
  0
VERTEX
  5
14453
  8
0
 10
77.660125810183672
 20
149.52142397827421
 30
0.0
  0
SEQEND
  5
14454
  8
0
  0
LINE
  5
12153
  8
0
 10
85.191971914211535
 20
144.52012727141911
 30
0.0
 11
77.660125810183672
 21
144.52012727141911
 31
0.0
  0
POLYLINE
  5
12154
  8
0
 66
     1
 10
0.0
 20
0.0
 30
0.0
  0
VERTEX
  5
14455
  8
0
 10
77.301048862197604
 20
162.02466574541199
 30
0.0
  0
VERTEX
  5
14456
  8
0
 10
77.311001117720934
 20
162.42618483048071
 30
0.0
  0
VERTEX
  5
14457
  8
0
 10
77.38958591112123
 20
163.2323276991265
 30
0.0
  0
VERTEX
  5
14458
  8
0
 10
77.548224322751139
 20
164.07605369331191
 30
0.0
  0
VERTEX
  5
14459
  8
0
 10
77.660125810183672
 20
164.52531409883949
 30
0.0
  0
SEQEND
  5
1445A
  8
0
  0
POLYLINE
  5
12155
  8
0
 66
     1
 10
0.0
 20
0.0
 30
0.0
  0
VERTEX
  5
1445B
  8
0
 10
77.660125810183672
 20
159.52401739198439
 30
0.0
  0
VERTEX
  5
1445C
  8
0
 10
77.548224322751139
 20
159.97327779751211
 30
0.0
  0
VERTEX
  5
1445D
  8
0
 10
77.38958591112123
 20
160.81700379169769
 30
0.0
  0
VERTEX
  5
1445E
  8
0
 10
77.311001117720934
 20
161.62314666034331
 30
0.0
  0
VERTEX
  5
1445F
  8
0
 10
77.301048862197604
 20
162.02466574541199
 30
0.0
  0
SEQEND
  5
14460
  8
0
  0
POLYLINE
  5
12156
  8
0
 66
     1
 10
0.0
 20
0.0
 30
0.0
  0
VERTEX
  5
14461
  8
0
 10
77.301048862197604
 20
154.52272068512929
 30
0.0
  0
VERTEX
  5
14462
  8
0
 10
77.311001117720934
 20
155.32575885526671
 30
0.0
  0
VERTEX
  5
14463
  8
0
 10
77.38958591112123
 20
156.93804459255799
 30
0.0
  0
VERTEX
  5
14464
  8
0
 10
77.548224322751139
 20
158.62549658092911
 30
0.0
  0
VERTEX
  5
14465
  8
0
 10
77.660125810183672
 20
159.52401739198439
 30
0.0
  0
SEQEND
  5
14466
  8
0
  0
LINE
  5
12157
  8
0
 10
85.191971914211081
 20
159.52401739198419
 30
0.0
 11
77.660125810183672
 21
159.52401739198439
 31
0.0
  0
POLYLINE
  5
12158
  8
0
 66
     1
 10
0.0
 20
0.0
 30
0.0
  0
VERTEX
  5
14467
  8
0
 10
85.551048862197604
 20
154.52272068512929
 30
0.0
  0
VERTEX
  5
14468
  8
0
 10
85.541096606674259
 20
153.71968251499189
 30
0.0
  0
VERTEX
  5
14469
  8
0
 10
85.462511813273963
 20
152.10739677770059
 30
0.0
  0
VERTEX
  5
1446A
  8
0
 10
85.303873401644069
 20
150.41994478932949
 30
0.0
  0
VERTEX
  5
1446B
  8
0
 10
85.191971914211535
 20
149.52142397827421
 30
0.0
  0
SEQEND
  5
1446C
  8
0
  0
LINE
  5
12159
  8
0
 10
85.191971914211535
 20
149.52142397827421
 30
0.0
 11
77.660125810183672
 21
149.52142397827421
 31
0.0
  0
POLYLINE
  5
1215A
  8
0
 66
     1
 10
0.0
 20
0.0
 30
0.0
  0
VERTEX
  5
1446D
  8
0
 10
77.660125810183672
 20
149.52142397827421
 30
0.0
  0
VERTEX
  5
1446E
  8
0
 10
77.548224322751139
 20
150.41994478932949
 30
0.0
  0
VERTEX
  5
1446F
  8
0
 10
77.38958591112123
 20
152.10739677770059
 30
0.0
  0
VERTEX
  5
14470
  8
0
 10
77.311001117720934
 20
153.71968251499189
 30
0.0
  0
VERTEX
  5
14471
  8
0
 10
77.301048862197604
 20
154.52272068512929
 30
0.0
  0
SEQEND
  5
14472
  8
0
  0
LINE
  5
1215B
  8
3
 10
70.551048862197604
 20
159.4492206851294
 30
0.0
 11
73.551048862197604
 21
159.4492206851294
 31
0.0
  0
LINE
  5
1215C
  8
3
 10
70.551048862197604
 20
149.59622068512931
 30
0.0
 11
73.551048862197604
 21
149.59622068512931
 31
0.0
  0
LINE
  5
1215D
  8
0
 10
154.69197191421111
 20
164.52531409883881
 30
0.0
 11
148.5101258101831
 21
164.52531409883861
 31
0.0
  0
LINE
  5
1215E
  8
0
 10
148.1510488621966
 20
163.18522068512829
 30
0.0
 11
148.51012581018219
 21
164.52531409883861
 31
0.0
  0
POLYLINE
  5
1215F
  8
0
 66
     1
 10
0.0
 20
0.0
 30
0.0
  0
VERTEX
  5
14473
  8
0
 10
148.51012581018361
 20
164.52531409883949
 30
0.0
  0
VERTEX
  5
14474
  8
0
 10
148.39822432275099
 20
164.07605369331191
 30
0.0
  0
VERTEX
  5
14475
  8
0
 10
148.23958591112159
 20
163.2323276991265
 30
0.0
  0
VERTEX
  5
14476
  8
0
 10
148.16100111772079
 20
162.42618483048071
 30
0.0
  0
VERTEX
  5
14477
  8
0
 10
148.15104886219751
 20
162.02466574541199
 30
0.0
  0
SEQEND
  5
14478
  8
0
  0
POLYLINE
  5
12160
  8
0
 66
     1
 10
0.0
 20
0.0
 30
0.0
  0
VERTEX
  5
14479
  8
0
 10
148.15104886219751
 20
162.02466574541199
 30
0.0
  0
VERTEX
  5
1447A
  8
0
 10
148.16100111772079
 20
161.62314666034331
 30
0.0
  0
VERTEX
  5
1447B
  8
0
 10
148.23958591112159
 20
160.81700379169769
 30
0.0
  0
VERTEX
  5
1447C
  8
0
 10
148.39822432275099
 20
159.97327779751211
 30
0.0
  0
VERTEX
  5
1447D
  8
0
 10
148.51012581018361
 20
159.52401739198439
 30
0.0
  0
SEQEND
  5
1447E
  8
0
  0
POLYLINE
  5
12161
  8
0
 66
     1
 10
0.0
 20
0.0
 30
0.0
  0
VERTEX
  5
1447F
  8
0
 10
148.51012581018361
 20
159.52401739198439
 30
0.0
  0
VERTEX
  5
14480
  8
0
 10
148.39822432275099
 20
158.62549658092911
 30
0.0
  0
VERTEX
  5
14481
  8
0
 10
148.23958591112159
 20
156.93804459255799
 30
0.0
  0
VERTEX
  5
14482
  8
0
 10
148.16100111772079
 20
155.32575885526671
 30
0.0
  0
VERTEX
  5
14483
  8
0
 10
148.15104886219751
 20
154.52272068512929
 30
0.0
  0
SEQEND
  5
14484
  8
0
  0
LINE
  5
12162
  8
0
 10
147.55104886219621
 20
162.83772068512849
 30
0.0
 11
148.15104886219609
 21
162.83772068512869
 31
0.0
  0
POLYLINE
  5
12163
  8
0
 66
     1
 10
0.0
 20
0.0
 30
0.0
  0
VERTEX
  5
14485
  8
0
 10
85.551048862197604
 20
162.02466574541199
 30
0.0
  0
VERTEX
  5
14486
  8
0
 10
85.541096606674259
 20
162.42618483048071
 30
0.0
  0
VERTEX
  5
14487
  8
0
 10
85.462511813273963
 20
163.2323276991265
 30
0.0
  0
VERTEX
  5
14488
  8
0
 10
85.303873401644069
 20
164.07605369331191
 30
0.0
  0
VERTEX
  5
14489
  8
0
 10
85.191971914211535
 20
164.52531409883949
 30
0.0
  0
SEQEND
  5
1448A
  8
0
  0
LINE
  5
12164
  8
0
 10
85.191971914211535
 20
164.52531409883949
 30
0.0
 11
77.660125810183672
 21
164.52531409883949
 31
0.0
  0
LINE
  5
12165
  8
0
 10
85.191971914210171
 20
164.52531409883929
 30
0.0
 11
85.551048862196694
 21
163.1852206851292
 31
0.0
  0
POLYLINE
  5
12166
  8
0
 66
     1
 10
0.0
 20
0.0
 30
0.0
  0
VERTEX
  5
1448B
  8
0
 10
85.191971914211081
 20
159.52401739198419
 30
0.0
  0
VERTEX
  5
1448C
  8
0
 10
85.303873401643614
 20
159.9732777975118
 30
0.0
  0
VERTEX
  5
1448D
  8
0
 10
85.462511813273053
 20
160.81700379169769
 30
0.0
  0
VERTEX
  5
1448E
  8
0
 10
85.541096606673364
 20
161.62314666034331
 30
0.0
  0
VERTEX
  5
1448F
  8
0
 10
85.551048862196694
 20
162.02466574541199
 30
0.0
  0
SEQEND
  5
14490
  8
0
  0
POLYLINE
  5
12167
  8
0
 66
     1
 10
0.0
 20
0.0
 30
0.0
  0
VERTEX
  5
14491
  8
0
 10
85.551048862196694
 20
162.02466574541199
 30
0.0
  0
VERTEX
  5
14492
  8
0
 10
85.541096606673364
 20
162.42618483048071
 30
0.0
  0
VERTEX
  5
14493
  8
0
 10
85.462511813273053
 20
163.2323276991265
 30
0.0
  0
VERTEX
  5
14494
  8
0
 10
85.303873401643145
 20
164.07605369331171
 30
0.0
  0
VERTEX
  5
14495
  8
0
 10
85.191971914210171
 20
164.52531409883929
 30
0.0
  0
SEQEND
  5
14496
  8
0
  0
POLYLINE
  5
12168
  8
0
 66
     1
 10
0.0
 20
0.0
 30
0.0
  0
VERTEX
  5
14497
  8
0
 10
85.551048862197604
 20
154.52272068512929
 30
0.0
  0
VERTEX
  5
14498
  8
0
 10
85.541096606674259
 20
155.32575885526671
 30
0.0
  0
VERTEX
  5
14499
  8
0
 10
85.462511813273522
 20
156.93804459255799
 30
0.0
  0
VERTEX
  5
1449A
  8
0
 10
85.303873401643614
 20
158.62549658092891
 30
0.0
  0
VERTEX
  5
1449B
  8
0
 10
85.191971914211081
 20
159.52401739198419
 30
0.0
  0
SEQEND
  5
1449C
  8
0
  0
LINE
  5
121B8
  8
1
 10
60.642238556874872
 20
154.52272068512889
 30
0.0
 11
172.4641844042653
 21
154.52272068512909
 31
0.0
  0
LINE
  5
121B9
  8
1
 10
116.5532114805701
 20
63.799171832563609
 30
0.0
 11
116.5532114805701
 21
289.24626953769513
 31
0.0
  0
LINE
  5
12268
  8
0
 10
413.23428809197179
 20
510.30690611219092
 30
0.0
 11
413.23428809197179
 21
512.23340611219101
 31
0.0
  0
LINE
  5
12269
  8
0
 10
413.23428809197179
 20
512.23340611219101
 30
0.0
 11
412.16078809197182
 21
513.30690611219097
 31
0.0
  0
LINE
  5
1226A
  8
0
 10
415.5492880919719
 20
506.55690611219097
 30
0.0
 11
415.5492880919719
 21
510.30690611219092
 31
0.0
  0
LINE
  5
1226C
  8
0
 10
413.23428809197179
 20
512.23340611219101
 30
0.0
 11
405.42249952783447
 21
512.23340611219101
 31
0.0
  0
LINE
  5
1226D
  8
0
 10
412.16078809197182
 20
513.30690611219097
 30
0.0
 11
405.83530860638791
 21
513.30690611219097
 31
0.0
  0
LINE
  5
1226E
  8
0
 10
415.89678809197119
 20
428.80690611219092
 30
0.0
 11
405.23428809197179
 21
428.80690611219092
 31
0.0
  0
LINE
  5
1226F
  8
0
 10
413.23228729139049
 20
435.70690611219197
 30
0.0
 11
408.23628889255173
 21
435.70690611219169
 31
0.0
  0
LINE
  5
12272
  8
0
 10
415.89570678276817
 20
429.16598306017698
 30
0.0
 11
415.89570678276817
 21
432.70684218964652
 31
0.0
  0
LINE
  5
12275
  8
0
 10
415.5492880919719
 20
510.30690611219092
 30
0.0
 11
405.23428809197139
 21
510.30690611219092
 31
0.0
  0
LINE
  5
12276
  8
0
 10
415.8967880919717
 20
506.55690611219097
 30
0.0
 11
405.23428809197179
 21
506.55690611219097
 31
0.0
  0
LINE
  5
1227C
  8
3
 10
412.16078809197182
 20
513.30690611219097
 30
0.0
 11
412.16078809197182
 21
510.30690611219092
 31
0.0
  0
LINE
  5
122C1
  8
0
 10
415.89570678276817
 20
432.7068421896463
 30
0.0
 11
415.89570678276817
 21
428.80690611219092
 31
0.0
  0
LINE
  5
122C4
  8
0
 10
415.89570678276817
 20
506.55690611219097
 30
0.0
 11
415.89570678276817
 21
501.90697003480068
 31
0.0
  0
POLYLINE
  5
122C5
  8
0
 66
     1
 10
0.0
 20
0.0
 30
0.0
  0
VERTEX
  5
1449D
  8
0
 10
411.56553809197152
 20
506.55690611219097
 30
0.0
  0
VERTEX
  5
1449E
  8
0
 10
410.87008663642371
 20
506.5469538566681
 30
0.0
  0
VERTEX
  5
1449F
  8
0
 10
409.4738062297701
 20
506.46836906326729
 30
0.0
  0
VERTEX
  5
144A0
  8
0
 10
408.01242994017412
 20
506.30973065163789
 30
0.0
  0
VERTEX
  5
144A1
  8
0
 10
407.23428809197128
 20
506.1978291642049
 30
0.0
  0
SEQEND
  5
144A2
  8
0
  0
POLYLINE
  5
122C6
  8
0
 66
     1
 10
0.0
 20
0.0
 30
0.0
  0
VERTEX
  5
144A3
  8
0
 10
415.89678809197119
 20
506.1978291642049
 30
0.0
  0
VERTEX
  5
144A4
  8
0
 10
415.11864624376852
 20
506.30973065163789
 30
0.0
  0
VERTEX
  5
144A5
  8
0
 10
413.65726995417248
 20
506.46836906326729
 30
0.0
  0
VERTEX
  5
144A6
  8
0
 10
412.26098954751882
 20
506.5469538566681
 30
0.0
  0
VERTEX
  5
144A7
  8
0
 10
411.56553809197152
 20
506.55690611219097
 30
0.0
  0
SEQEND
  5
144A8
  8
0
  0
POLYLINE
  5
122C7
  8
0
 66
     1
 10
0.0
 20
0.0
 30
0.0
  0
VERTEX
  5
144A9
  8
0
 10
405.23428809197139
 20
506.44236838349201
 30
0.0
  0
VERTEX
  5
144AA
  8
0
 10
406.45614624376861
 20
506.30973065163789
 30
0.0
  0
VERTEX
  5
144AB
  8
0
 10
407.23428809197128
 20
506.1978291642049
 30
0.0
  0
SEQEND
  5
144AC
  8
0
  0
LINE
  5
122C8
  8
0
 10
407.23428809197128
 20
506.1978291642049
 30
0.0
 11
407.23428809197162
 21
499.56426542510388
 31
0.0
  0
POLYLINE
  5
122C9
  8
0
 66
     1
 10
0.0
 20
0.0
 30
0.0
  0
VERTEX
  5
144AD
  8
0
 10
407.23428809197128
 20
429.16598306020768
 30
0.0
  0
VERTEX
  5
144AE
  8
0
 10
408.01242994017412
 20
429.0540815727752
 30
0.0
  0
VERTEX
  5
144AF
  8
0
 10
409.4738062297701
 20
428.89544316114569
 30
0.0
  0
VERTEX
  5
144B0
  8
0
 10
410.87008663642371
 20
428.816858367745
 30
0.0
  0
VERTEX
  5
144B1
  8
0
 10
411.56553809197152
 20
428.80690611222161
 30
0.0
  0
SEQEND
  5
144B2
  8
0
  0
POLYLINE
  5
122CA
  8
0
 66
     1
 10
0.0
 20
0.0
 30
0.0
  0
VERTEX
  5
144B3
  8
0
 10
411.56553809197152
 20
428.80690611222161
 30
0.0
  0
VERTEX
  5
144B4
  8
0
 10
412.26098954751882
 20
428.816858367745
 30
0.0
  0
VERTEX
  5
144B5
  8
0
 10
413.65726995417248
 20
428.89544316114569
 30
0.0
  0
VERTEX
  5
144B6
  8
0
 10
415.11864624376852
 20
429.0540815727752
 30
0.0
  0
VERTEX
  5
144B7
  8
0
 10
415.89678809197119
 20
429.16598306020768
 30
0.0
  0
SEQEND
  5
144B8
  8
0
  0
POLYLINE
  5
122CB
  8
0
 66
     1
 10
0.0
 20
0.0
 30
0.0
  0
VERTEX
  5
144B9
  8
0
 10
407.23428809197128
 20
429.16598306020768
 30
0.0
  0
VERTEX
  5
144BA
  8
0
 10
406.4561462437689
 20
429.05408157277429
 30
0.0
  0
VERTEX
  5
144BB
  8
0
 10
405.23428809197139
 20
428.9214438409183
 30
0.0
  0
SEQEND
  5
144BC
  8
0
  0
LINE
  5
122CC
  8
0
 10
407.23428809197162
 20
435.04954679934298
 30
0.0
 11
407.23428809197162
 21
429.16598306020768
 31
0.0
  0
POLYLINE
  5
122CD
  8
0
 66
     1
 10
0.0
 20
0.0
 30
0.0
  0
VERTEX
  5
144BD
  8
0
 10
407.7403226938884
 20
435.42059998970188
 30
0.0
  0
VERTEX
  5
144BE
  8
0
 10
408.01242994017412
 20
435.45973065163821
 30
0.0
  0
VERTEX
  5
144BF
  8
0
 10
409.4738062297701
 20
435.61836906326761
 30
0.0
  0
VERTEX
  5
144C0
  8
0
 10
410.87008663642371
 20
435.69695385666842
 30
0.0
  0
VERTEX
  5
144C1
  8
0
 10
411.56553809197152
 20
435.70690611219169
 30
0.0
  0
SEQEND
  5
144C2
  8
0
  0
POLYLINE
  5
122CE
  8
0
 66
     1
 10
0.0
 20
0.0
 30
0.0
  0
VERTEX
  5
144C3
  8
0
 10
411.56553809197152
 20
435.70690611219169
 30
0.0
  0
VERTEX
  5
144C4
  8
0
 10
412.26098954751882
 20
435.69695385666842
 30
0.0
  0
VERTEX
  5
144C5
  8
0
 10
413.36936586765131
 20
435.63457274488542
 30
0.0
  0
SEQEND
  5
144C6
  8
0
  0
LINE
  5
12DA4
  8
0
 10
346.75094859036682
 20
486.70690611222358
 30
0.0
 11
346.75094859036682
 21
447.9069061122234
 31
0.0
  0
LINE
  5
12DA5
  8
0
 10
326.75094859036648
 20
483.32842679553892
 30
0.0
 11
326.75094859036648
 21
451.28538542890527
 31
0.0
  0
LINE
  5
12DA6
  8
0
 10
331.29510885439441
 20
486.30690611222337
 30
0.0
 11
331.29510885439441
 21
448.30690611222337
 31
0.0
  0
LINE
  5
12DA7
  8
0
 10
343.75094859036682
 20
483.30690611222349
 30
0.0
 11
343.75094859036699
 21
451.3069061122232
 31
0.0
  0
LINE
  5
12DA8
  8
0
 10
346.75094859036682
 20
486.30690611222337
 30
0.0
 11
328.3450582889825
 21
486.30690611222337
 31
0.0
  0
LINE
  5
12DA9
  8
0
 10
343.75094859036682
 20
483.30690611222349
 30
0.0
 11
346.75094859036682
 21
483.30690611222349
 31
0.0
  0
LINE
  5
12DAA
  8
0
 10
346.75094859036682
 20
448.30690611222337
 30
0.0
 11
328.34505828898227
 21
448.30690611222337
 31
0.0
  0
LINE
  5
12DAB
  8
0
 10
343.7509485903679
 20
451.3069061122232
 30
0.0
 11
346.75094859036773
 21
451.30690611222349
 31
0.0
  0
ARC
  5
12DAC
  8
0
 10
331.08738798400827
 20
482.92335508577838
 30
0.0
 40
4.3553174057440378
 50
129.02437415614659
 51
174.66342214695641
  0
ARC
  5
12DAD
  8
0
 10
331.0873879840081
 20
451.69045713866848
 30
0.0
 40
4.3553174057440378
 50
185.33657785304359
 51
230.97562584385329
  0
LINE
  5
12DBA
  8
0
 10
346.75094859036682
 20
246.52272068512929
 30
0.0
 11
350.23428809197139
 21
233.5227206851294
 31
0.0
  0
LINE
  5
12DBB
  8
0
 10
326.75094859036699
 20
247.6450735211381
 30
0.0
 11
329.96488663879973
 21
243.81485130554319
 31
0.0
  0
LINE
  5
12DBC
  8
0
 10
328.66605969816442
 20
249.2520425453547
 30
0.0
 11
326.75094859036699
 21
247.6450735211381
 31
0.0
  0
LINE
  5
12DBD
  8
0
 10
331.29510885439458
 20
246.1188637683106
 30
0.0
 11
328.66605969816442
 21
249.2520425453547
 31
0.0
  0
LINE
  5
12DBE
  8
0
 10
347.46051528999828
 20
243.8745817107463
 30
0.0
 11
331.29510885439458
 21
246.1188637683106
 31
0.0
  0
LINE
  5
12DBF
  8
0
 10
346.77708290342281
 20
246.42518610098409
 30
0.0
 11
346.47154126079681
 21
246.6045548531186
 31
0.0
  0
LINE
  5
12DC0
  8
0
 10
329.96488663879973
 20
243.81485130554319
 30
0.0
 11
348.17445333843079
 21
241.2101286405393
 31
0.0
  0
LINE
  5
12DC1
  8
0
 10
344.20532887081799
 20
250.38118162637099
 30
0.0
 11
346.74936256433381
 21
250.03085828092981
 31
0.0
  0
LINE
  5
12DC2
  8
0
 10
343.75441057871831
 20
247.27074093225909
 30
0.0
 11
344.20532887081799
 21
250.38118162637099
 31
0.0
  0
LINE
  5
12DC3
  8
0
 10
346.40579017849768
 20
246.98361012288521
 30
0.0
 11
346.74936256433381
 21
250.03085828093
 31
0.0
  0
LINE
  5
12DC4
  8
0
 10
343.75441057871831
 20
247.27074093225909
 30
0.0
 11
344.4923575712715
 21
244.28665814932521
 31
0.0
  0
LINE
  5
12DC5
  8
0
 10
346.40579017849768
 20
246.98361012288521
 30
0.0
 11
346.47154126079681
 21
246.6045548531186
 31
0.0
  0
LINE
  5
12DC6
  8
0
 10
135.5532114805701
 20
241.2101286405393
 30
0.0
 11
97.553211480570099
 21
241.2101286405393
 31
0.0
  0
LINE
  5
12DC7
  8
0
 10
135.5532114805701
 20
241.2101286405393
 30
0.0
 11
135.5532114805701
 21
249.2520425453547
 31
0.0
  0
LINE
  5
12DC8
  8
0
 10
132.5532114805703
 20
249.2520425453547
 30
0.0
 11
132.5532114805703
 21
250.38118162637099
 31
0.0
  0
LINE
  5
12DC9
  8
0
 10
135.5532114805701
 20
249.2520425453547
 30
0.0
 11
97.553211480570099
 21
249.2520425453547
 31
0.0
  0
LINE
  5
12DCA
  8
0
 10
97.553211480570099
 20
241.2101286405393
 30
0.0
 11
97.553211480570099
 21
249.2520425453547
 31
0.0
  0
LINE
  5
12DCB
  8
0
 10
132.5532114805703
 20
250.38118162637099
 30
0.0
 11
100.5532114805699
 21
250.38118162637099
 31
0.0
  0
LINE
  5
12DCC
  8
0
 10
100.5532114805699
 20
249.2520425453547
 30
0.0
 11
100.5532114805699
 21
250.38118162637099
 31
0.0
  0
LINE
  5
12DCD
  8
0
 10
97.553211480570099
 20
243.81485130554299
 30
0.0
 11
135.5532114805701
 21
243.81485130554299
 31
0.0
  0
LINE
  5
12DD2
  8
0
 10
88.553211480569871
 20
246.52272068512929
 30
0.0
 11
97.553211480570099
 21
246.52272068512929
 31
0.0
  0
LINE
  5
12DD3
  8
0
 10
135.5532114805701
 20
246.52272068512929
 30
0.0
 11
144.5532114805699
 21
246.52272068512929
 31
0.0
  0
LINE
  5
12DD4
  8
0
 10
85.552723867821442
 20
233.5227206851294
 30
0.0
 11
88.553211480569871
 21
233.5227206851294
 31
0.0
  0
LINE
  5
12DD5
  8
0
 10
144.5532114805699
 20
233.5227206851294
 30
0.0
 11
147.5532114805699
 21
233.5227206851294
 31
0.0
  0
POLYLINE
  5
12DD6
  8
0
 66
     1
 10
0.0
 20
0.0
 30
0.0
  0
VERTEX
  5
144C7
  8
0
 10
135.5532114805701
 20
243.1376189237881
 30
0.0
  0
VERTEX
  5
144C8
  8
0
 10
135.81635119529591
 20
242.84445888107871
 30
0.0
  0
VERTEX
  5
144C9
  8
0
 10
136.49596878591041
 20
242.0409583608284
 30
0.0
  0
VERTEX
  5
144CA
  8
0
 10
137.1587128128474
 20
241.2099469725697
 30
0.0
  0
VERTEX
  5
144CB
  8
0
 10
137.8040225284949
 20
240.35212783490169
 30
0.0
  0
VERTEX
  5
144CC
  8
0
 10
138.11996830675949
 20
239.9133913033825
 30
0.0
  0
VERTEX
  5
144CD
  8
0
 10
138.43135193640819
 20
239.46822674845569
 30
0.0
  0
VERTEX
  5
144CE
  8
0
 10
139.04017025327849
 20
238.55899158179571
 30
0.0
  0
VERTEX
  5
144CF
  8
0
 10
139.62996235802819
 20
237.62519163864661
 30
0.0
  0
VERTEX
  5
144D0
  8
0
 10
140.20022922765449
 20
236.6676170069868
 30
0.0
  0
VERTEX
  5
144D1
  8
0
 10
140.75048835945259
 20
235.68707789055469
 30
0.0
  0
VERTEX
  5
144D2
  8
0
 10
141.28027417926131
 20
234.68440392333579
 30
0.0
  0
VERTEX
  5
144D3
  8
0
 10
141.53734883138421
 20
234.17503077184119
 30
0.0
  0
VERTEX
  5
144D4
  8
0
 10
141.78913843538589
 20
233.6604434676087
 30
0.0
  0
VERTEX
  5
144D5
  8
0
 10
142.27665057786291
 20
232.61606289614679
 30
0.0
  0
VERTEX
  5
144D6
  8
0
 10
142.74239812274871
 20
231.55214585917949
 30
0.0
  0
VERTEX
  5
144D7
  8
0
 10
142.96698629599521
 20
231.0131418474291
 30
0.0
  0
VERTEX
  5
144D8
  8
0
 10
143.1859870011219
 20
230.46959253673731
 30
0.0
  0
VERTEX
  5
144D9
  8
0
 10
143.60704189250569
 20
229.3693188770082
 30
0.0
  0
VERTEX
  5
144DA
  8
0
 10
144.00520654242541
 20
228.25225582135471
 30
0.0
  0
VERTEX
  5
144DB
  8
0
 10
144.19559898518759
 20
227.68772309533759
 30
0.0
  0
VERTEX
  5
144DC
  8
0
 10
144.38014406383689
 20
227.119348516645
 30
0.0
  0
VERTEX
  5
144DD
  8
0
 10
144.5532114805699
 20
226.55403993013991
 30
0.0
  0
SEQEND
  5
144DE
  8
0
  0
ARC
  5
12DD9
  8
0
 10
407.2342880919864
 20
467.30690611222713
 30
0.0
 40
75.000000000015589
 50
194.67484974286199
 51
196.30926544641139
  0
ARC
  5
12DDA
  8
0
 10
337.17181596887258
 20
446.80690611222349
 30
0.0
 40
1.9999999999999989
 50
196.30926544641139
 51
270.0
  0
LINE
  5
12DDB
  8
0
 10
337.17181596887258
 20
444.80690611222337
 30
0.0
 11
346.75106001366697
 21
444.80690611222337
 31
0.0
  0
ARC
  5
12DDD
  8
0
 10
407.2342880919864
 20
467.30690611221939
 30
0.0
 40
75.000000000015589
 50
163.69073455358861
 51
165.3251502571506
  0
ARC
  5
12DDE
  8
0
 10
337.17181596887258
 20
487.80690611222298
 30
0.0
 40
1.9999999999999989
 50
90.0
 51
163.69073455358861
  0
LINE
  5
12DDF
  8
0
 10
337.17181596887258
 20
489.80690611222298
 30
0.0
 11
346.75106001366697
 21
489.80690611222298
 31
0.0
  0
LINE
  5
14089
  8
1
 10
506.8033070731758
 20
503.80690611222349
 30
0.0
 11
524.66526911076687
 21
503.80690611222349
 31
0.0
  0
LINE
  5
1408A
  8
1
 10
515.73428809197128
 20
494.8759250934279
 30
0.0
 11
515.73428809197128
 21
519.73788713101897
 31
0.0
  0
LINE
  5
1408B
  8
1
 10
506.8033070731758
 20
510.80690611222337
 30
0.0
 11
524.66526911076687
 21
510.80690611222337
 31
0.0
  0
LINE
  5
1408C
  8
1
 10
506.8033070731758
 20
430.80690611222337
 30
0.0
 11
524.66526911076687
 21
430.80690611222337
 31
0.0
  0
LINE
  5
1408D
  8
1
 10
515.73428809197128
 20
439.73788713101902
 30
0.0
 11
515.73428809197128
 21
414.87592509342778
 31
0.0
  0
LINE
  5
1408E
  8
1
 10
506.8033070731758
 20
423.80690611222337
 30
0.0
 11
524.66526911076687
 21
423.80690611222337
 31
0.0
  0
LINE
  5
1408F
  8
1
 10
419.66526911076699
 20
503.80690611222349
 30
0.0
 11
401.8033070731758
 21
503.80690611222349
 31
0.0
  0
LINE
  5
14090
  8
1
 10
410.73428809197139
 20
494.8759250934279
 30
0.0
 11
410.73428809197139
 21
519.73788713101897
 31
0.0
  0
LINE
  5
14091
  8
1
 10
419.66526911076699
 20
510.80690611222337
 30
0.0
 11
401.8033070731758
 21
510.80690611222337
 31
0.0
  0
LINE
  5
14092
  8
1
 10
419.66526911076699
 20
430.80690611222337
 30
0.0
 11
401.8033070731758
 21
430.80690611222337
 31
0.0
  0
LINE
  5
14093
  8
1
 10
410.73428809197139
 20
439.73788713101902
 30
0.0
 11
410.73428809197139
 21
414.87592509342778
 31
0.0
  0
LINE
  5
14094
  8
1
 10
419.66526911076699
 20
423.80690611222337
 30
0.0
 11
401.8033070731758
 21
423.80690611222337
 31
0.0
  0
LINE
  5
140D7
  8
0
 10
716.91536470337257
 20
241.2101286405393
 30
0.0
 11
678.91536470337257
 21
241.2101286405393
 31
0.0
  0
LINE
  5
140D8
  8
0
 10
716.91536470337257
 20
241.2101286405393
 30
0.0
 11
716.91536470337257
 21
243.13761892378841
 31
0.0
  0
LINE
  5
140D9
  8
0
 10
678.91536470337257
 20
241.2101286405393
 30
0.0
 11
678.91536470337257
 21
243.13761892378841
 31
0.0
  0
TEXT
  5
14136
  8
0
 62
     3
 10
0.0
 20
0.0
 30
0.0
 40
10.0
  1
CAG1-150SBF
  7
STANDARD1
  0
ENDSEC
  0
EOF
