  0
SECTION
  2
HEADER
  9
$ACADVER
  1
AC1009
  9
$INSBASE
 10
0.0
 20
0.0
 30
0.0
  9
$EXTMIN
 10
0.0
 20
-2.960436562073669
 30
0.0
  9
$EXTMAX
 10
576.72542945528812
 20
478.63813956089461
 30
0.0
  9
$LIMMIN
 10
0.0
 20
0.0
  9
$LIMMAX
 10
375.0
 20
270.0
  9
$ORTHOMODE
 70
     1
  9
$REGENMODE
 70
     1
  9
$FILLMODE
 70
     1
  9
$QTEXTMODE
 70
     0
  9
$MIRRTEXT
 70
     1
  9
$DRAGMODE
 70
     2
  9
$LTSCALE
 40
10.0
  9
$OSMODE
 70
  3071
  9
$ATTMODE
 70
     1
  9
$TEXTSIZE
 40
5.0
  9
$TRACEWID
 40
0.05
  9
$TEXTSTYLE
  7
STANDARD
  9
$CLAYER
  8
0
  9
$CELTYPE
  6
BYLAYER
  9
$CECOLOR
 62
   256
  9
$DIMSCALE
 40
1.0
  9
$DIMASZ
 40
3.0
  9
$DIMEXO
 40
2.0
  9
$DIMDLI
 40
0.38
  9
$DIMRND
 40
0.0
  9
$DIMDLE
 40
0.0
  9
$DIMEXE
 40
2.0
  9
$DIMTP
 40
0.0
  9
$DIMTM
 40
0.0
  9
$DIMTXT
 40
3.2000000000000002
  9
$DIMCEN
 40
0.0
  9
$DIMTSZ
 40
0.0
  9
$DIMTOL
 70
     0
  9
$DIMLIM
 70
     0
  9
$DIMTIH
 70
     0
  9
$DIMTOH
 70
     0
  9
$DIMSE1
 70
     0
  9
$DIMSE2
 70
     0
  9
$DIMTAD
 70
     1
  9
$DIMZIN
 70
     8
  9
$DIMBLK
  1

  9
$DIMASO
 70
     0
  9
$DIMSHO
 70
     0
  9
$DIMPOST
  1

  9
$DIMAPOST
  1

  9
$DIMALT
 70
     0
  9
$DIMALTD
 70
     2
  9
$DIMALTF
 40
25.399999999999999
  9
$DIMLFAC
 40
1.0
  9
$DIMTOFL
 70
     0
  9
$DIMTVP
 40
1.6000000000000001
  9
$DIMTIX
 70
     1
  9
$DIMSOXD
 70
     0
  9
$DIMSAH
 70
     0
  9
$DIMBLK1
  1

  9
$DIMBLK2
  1

  9
$DIMSTYLE
  2
STANDARD
  9
$DIMCLRD
 70
     0
  9
$DIMCLRE
 70
     0
  9
$DIMCLRT
 70
     0
  9
$DIMTFAC
 40
1.0
  9
$DIMGAP
 40
1.1999999999999991
  9
$LUNITS
 70
     2
  9
$LUPREC
 70
     4
  9
$SKETCHINC
 40
0.1
  9
$FILLETRAD
 40
0.0
  9
$AUNITS
 70
     0
  9
$AUPREC
 70
     4
  9
$MENU
  1
ACAD
  9
$ELEVATION
 40
0.0
  9
$PELEVATION
 40
0.0
  9
$THICKNESS
 40
0.0
  9
$LIMCHECK
 70
     0
  9
$BLIPMODE
 70
     0
  9
$CHAMFERA
 40
0.0
  9
$CHAMFERB
 40
0.0
  9
$SKPOLY
 70
     0
  9
$TDCREATE
 40
2448055.7149187499
  9
$TDUPDATE
 40
2456598.5769323609
  9
$TDINDWG
 40
2.0626100115999999
  9
$TDUSRTIMER
 40
2.0626100115999999
  9
$USRTIMER
 70
     1
  9
$ANGBASE
 50
0.0
  9
$ANGDIR
 70
     0
  9
$PDMODE
 70
     0
  9
$PDSIZE
 40
0.0
  9
$PLINEWID
 40
0.0
  9
$COORDS
 70
     1
  9
$SPLFRAME
 70
     0
  9
$SPLINETYPE
 70
     6
  9
$SPLINESEGS
 70
     8
  9
$ATTDIA
 70
     0
  9
$ATTREQ
 70
     1
  9
$HANDLING
 70
     1
  9
$HANDSEED
  5
145B4
  9
$SURFTAB1
 70
     6
  9
$SURFTAB2
 70
     6
  9
$SURFTYPE
 70
     6
  9
$SURFU
 70
     6
  9
$SURFV
 70
     6
  9
$UCSNAME
  2

  9
$UCSORG
 10
0.0
 20
0.0
 30
0.0
  9
$UCSXDIR
 10
1.0
 20
0.0
 30
0.0
  9
$UCSYDIR
 10
0.0
 20
1.0
 30
0.0
  9
$PUCSNAME
  2

  9
$PUCSORG
 10
0.0
 20
0.0
 30
0.0
  9
$PUCSXDIR
 10
1.0
 20
0.0
 30
0.0
  9
$PUCSYDIR
 10
0.0
 20
1.0
 30
0.0
  9
$USERI1
 70
     0
  9
$USERI2
 70
     0
  9
$USERI3
 70
     0
  9
$USERI4
 70
     0
  9
$USERI5
 70
     0
  9
$USERR1
 40
0.0
  9
$USERR2
 40
0.0
  9
$USERR3
 40
0.0
  9
$USERR4
 40
0.0
  9
$USERR5
 40
0.0
  9
$WORLDVIEW
 70
     1
  9
$SHADEDGE
 70
     3
  9
$SHADEDIF
 70
    70
  9
$TILEMODE
 70
     1
  9
$MAXACTVP
 70
    16
  9
$PLIMCHECK
 70
     0
  9
$PEXTMIN
 10
1.0000000000000000E+020
 20
1.0000000000000000E+020
 30
1.0000000000000000E+020
  9
$PEXTMAX
 10
-1.0000000000000000E+020
 20
-1.0000000000000000E+020
 30
-1.0000000000000000E+020
  9
$PLIMMIN
 10
0.0
 20
0.0
  9
$PLIMMAX
 10
12.0
 20
9.0
  9
$UNITMODE
 70
     0
  9
$VISRETAIN
 70
     0
  9
$PLINEGEN
 70
     1
  9
$PSLTSCALE
 70
     0
  0
ENDSEC
  0
SECTION
  2
TABLES
  0
TABLE
  2
VPORT
 70
     1
  0
VPORT
  2
*ACTIVE
 70
     0
 10
0.0
 20
0.0
 11
1.0
 21
1.0
 12
301.70803154320998
 22
237.8401246153542
 13
0.0
 23
0.0
 14
5.0
 24
5.0
 15
10.0
 25
10.0
 16
0.0
 26
0.0
 36
1.0
 17
0.0
 27
0.0
 37
0.0
 40
485.94475480518378
 41
1.831871345029239
 42
50.0
 43
0.0
 44
0.0
 50
0.0
 51
0.0
 71
     0
 72
   500
 73
     1
 74
     1
 75
     0
 76
     0
 77
     0
 78
     2
  0
ENDTAB
  0
TABLE
  2
LTYPE
 70
     3
  0
LTYPE
  2
CONTINUOUS
 70
     0
  3
実線
 72
    65
 73
     0
 40
0.0
  0
LTYPE
  2
CENTER
 70
     0
  3
____ _ ____ _ ____ _ ____ _ ____ _ ____ _ ____
 72
    65
 73
     4
 40
2.0
 49
1.25
 49
-0.25
 49
0.25
 49
-0.25
  0
LTYPE
  2
PHANTOM2
 70
     0
  3
___ _ _ ___ _ _ ___ _ _ ___ _ _
 72
    65
 73
     6
 40
1.25
 49
0.625
 49
-0.125
 49
0.125
 49
-0.125
 49
0.125
 49
-0.125
  0
ENDTAB
  0
TABLE
  2
LAYER
 70
     5
  0
LAYER
  2
0
 70
     0
 62
     7
  6
CONTINUOUS
  0
LAYER
  2
1
 70
     0
 62
     1
  6
CENTER
  0
LAYER
  2
4
 70
     0
 62
     4
  6
CONTINUOUS
  0
LAYER
  2
DEFPOINTS
 70
     0
 62
     7
  6
CONTINUOUS
  0
LAYER
  2
3
 70
     0
 62
     3
  6
CONTINUOUS
  0
ENDTAB
  0
TABLE
  2
STYLE
 70
     3
  0
STYLE
  2
STANDARD
 70
     0
 40
0.0
 41
1.0
 50
0.0
 71
     0
 42
5.0
  3
simplex.shx
  4
bigfont.shx
  0
STYLE
  2
07500
 70
     0
 40
0.0
 41
0.75
 50
0.0
 71
     0
 42
0.2
  3
simplex.shx
  4
bigfont.shx
  0
STYLE
  2
STANDARD1
 70
     0
 40
0.0
 41
1.0
 50
0.0
 71
     0
 42
3.0
  3
txt
  4

  0
ENDTAB
  0
TABLE
  2
VIEW
 70
     2
  0
VIEW
  2
ALL
 70
     0
 40
270.0
 10
220.99159663865549
 20
135.0
 41
0.0
 11
0.0
 21
0.0
 31
1.0
 12
0.0
 22
0.0
 32
0.0
 42
0.0
 43
0.0
 44
0.0
 50
0.0
 71
     0
  0
VIEW
  2
OLE1
 70
     0
 40
168.2487151179721
 10
2892.3009567448912
 20
702.51600084347126
 41
162.5749581879237
 11
0.0
 21
0.0
 31
1.0
 12
0.0
 22
0.0
 32
0.0
 42
50.0
 43
0.0
 44
0.0
 50
0.0
 71
     0
  0
ENDTAB
  0
TABLE
  2
UCS
 70
     0
  0
ENDTAB
  0
TABLE
  2
APPID
 70
    48
  0
APPID
  2
ACAD
 70
     0
  0
APPID
  2
DCO15
 70
     0
  0
APPID
  2
GENIUS_GENOREF_13
 70
     0
  0
APPID
  2
GENIUS_GENOENT_13
 70
     0
  0
APPID
  2
GENIUS_GENBH_13
 70
     0
  0
APPID
  2
GENIUS_GENOBJ_13
 70
     0
  0
APPID
  2
GENIUS_GENODEF_13
 70
     0
  0
APPID
  2
GENIUS_GENOLIS_13
 70
     0
  0
APPID
  2
GENIUS_GENOBJ-NBEHI-BHF_13
 70
     0
  0
APPID
  2
GENIUS_GENOBJ-NBEHI-BHB_13
 70
     0
  0
APPID
  2
GENIUS_GENOBJ-F-PART_13
 70
     0
  0
APPID
  2
GENIUS_GEFSTDP_13
 70
     0
  0
APPID
  2
GENIUS_GENOBJ-N-RSSYM_13
 70
     0
  0
APPID
  2
GENIUS_GENSYMENT_13
 70
     0
  0
APPID
  2
GENIUS_GENOBJ-N-TIT_13
 70
     0
  0
APPID
  2
GENIUS_GENTITLE_13
 70
     0
  0
APPID
  2
GENIUS_GENZVEED_13
 70
     0
  0
APPID
  2
GENIUS_GENOBJ-N-LEADER_13
 70
     0
  0
APPID
  2
GENIUS_GENOBJ-N-FIL_13
 70
     0
  0
APPID
  2
GENIUS_GENOBJ-N-SEC_13
 70
     0
  0
APPID
  2
GENIUS_GENOBJ-N-CRS_13
 70
     0
  0
APPID
  2
GENIUS_GENOBJ-N-ZOO_13
 70
     0
  0
APPID
  2
GENIUS_GENZOO_13
 70
     0
  0
APPID
  2
GENIUS_GENOBJ-F-TOL_13
 70
     0
  0
APPID
  2
GENIUS_GENFIL_13
 70
     0
  0
APPID
  2
GENIUS_GENOBJ-N-CHA_13
 70
     0
  0
APPID
  2
_CALL_MAC$
 70
     0
  0
APPID
  2
ASM_BASE
 70
     0
  0
APPID
  2
ASM_EXPLO_VER_2_00
 70
     0
  0
APPID
  2
ASM_CADM_VER_12_00
 70
     0
  0
APPID
  2
ASM_BASEFORO
 70
     0
  0
APPID
  2
ASM_BASETRAVI
 70
     0
  0
APPID
  2
ASM_BASETRAVI1
 70
     0
  0
APPID
  2
ASM_GRUPPI
 70
     0
  0
APPID
  2
ASM_CADM_ALBERO
 70
     0
  0
APPID
  2
ASM_GOLE
 70
     0
  0
APPID
  2
ACAD_MLEADERVER
 70
     0
  0
APPID
  2
ACAD_DSTYLE_DIMJAG
 70
     0
  0
APPID
  2
ACAD_DSTYLE_DIMTALN
 70
     0
  0
APPID
  2
ACAD_EXEMPT_FROM_CAD_STANDARDS
 70
     0
  0
APPID
  2
ACAD_DSTYLE_DIMRADIAL_EXTENSION
 70
     0
  0
APPID
  2
ACAD_PSEXT
 70
     0
  0
APPID
  2
ACAD_DSTYLE_DIMBREAK
 70
     0
  0
APPID
  2
ACAECLAYERSTANDARD
 70
     0
  0
APPID
  2
ACCMTRANSPARENCY
 70
     0
  0
APPID
  2
GRADIENTCOLOR1ACI
 70
     0
  0
APPID
  2
GRADIENTCOLOR2ACI
 70
     0
  0
APPID
  2
ACAD_NAV_VCDISPLAY
 70
     0
  0
ENDTAB
  0
TABLE
  2
DIMSTYLE
 70
     1
  0
DIMSTYLE
  2
STANDARD
 70
     0
  3

  4

  5

  6

  7

 40
1.0
 41
0.18
 42
0.0625
 43
0.38
 44
0.18
 45
0.0
 46
0.0
 47
0.0
 48
0.0
140
0.18
141
0.09
142
0.0
143
25.399999999999999
144
1.0
145
0.0
146
1.0
147
0.09
 71
     0
 72
     0
 73
     1
 74
     1
 75
     0
 76
     0
 77
     0
 78
     0
170
     0
171
     2
172
     0
173
     0
174
     0
175
     0
176
     0
177
     0
178
     0
  0
ENDTAB
  0
ENDSEC
  0
SECTION
  2
BLOCKS
  0
BLOCK
  8
0
  2
$MODEL_SPACE
 70
     0
 10
0.0
 20
0.0
 30
0.0
  3
$MODEL_SPACE
  1

  0
ENDBLK
  5
36
  8
0
  0
BLOCK
 67
     1
  8
0
  2
$PAPER_SPACE
 70
     0
 10
0.0
 20
0.0
 30
0.0
  3
$PAPER_SPACE
  1

  0
ENDBLK
  5
34
 67
     1
  8
0
  0
ENDSEC
  0
SECTION
  2
ENTITIES
  0
LINE
  5
7B24
  8
0
 10
268.90231598404722
 20
295.7436887314197
 30
0.0
 11
268.90231598404722
 21
293.7436887314197
 31
0.0
  0
LINE
  5
7B25
  8
0
 10
368.90231598404722
 20
295.7436887314197
 30
0.0
 11
368.90231598404722
 21
293.7436887314197
 31
0.0
  0
LINE
  5
7B26
  8
0
 10
364.21320511650248
 20
295.7436887314197
 30
0.0
 11
364.21320511650248
 21
293.52782015665792
 31
0.0
  0
LINE
  5
7B27
  8
0
 10
341.65786948351229
 20
295.7436887314197
 30
0.0
 11
341.65786948351229
 21
205.8485255471837
 31
0.0
  0
LINE
  5
7B28
  8
0
 10
299.17785139782751
 20
295.7436887314197
 30
0.0
 11
299.17785139782751
 21
200.658752240881
 31
0.0
  0
LINE
  5
7B29
  8
0
 10
296.14676248458198
 20
295.7436887314197
 30
0.0
 11
296.14676248458198
 21
205.8485255471837
 31
0.0
  0
LINE
  5
7B2A
  8
0
 10
268.90231598404722
 20
293.7436887314197
 30
0.0
 11
273.59142685159179
 21
293.7436887314197
 31
0.0
  0
LINE
  5
7B2B
  8
0
 10
364.21320511650248
 20
293.7436887314197
 30
0.0
 11
368.90231598404722
 21
293.7436887314197
 31
0.0
  0
LINE
  5
7B2C
  8
0
 10
273.59142685159179
 20
295.7436887314197
 30
0.0
 11
273.59142685159179
 21
293.52782015665792
 31
0.0
  0
LINE
  5
7B31
  8
0
 10
286.40231598404711
 20
266.63014673973242
 30
0.0
 11
286.40231598404711
 21
219.9742816232708
 31
0.0
  0
ARC
  5
7B32
  8
0
 10
296.40231598404728
 20
219.9742816232708
 30
0.0
 40
10.000000000000149
 50
180.0
 51
206.92743928226
  0
POLYLINE
  5
7B33
  8
0
 66
     1
 10
0.0
 20
0.0
 30
0.0
  0
VERTEX
  5
13E9C
  8
0
 10
287.48650844673762
 20
215.4456641788783
 30
0.0
  0
VERTEX
  5
13E9D
  8
0
 10
287.52739990207277
 20
215.3660428558116
 30
0.0
  0
VERTEX
  5
13E9E
  8
0
 10
287.61124496206082
 20
215.20803883818411
 30
0.0
  0
VERTEX
  5
13E9F
  8
0
 10
287.69779258561232
 20
215.051754588698
 30
0.0
  0
VERTEX
  5
13EA0
  8
0
 10
287.74206134711619
 20
214.97428266091941
 30
0.0
  0
VERTEX
  5
13EA1
  8
0
 10
287.78698306657122
 20
214.89727081758451
 30
0.0
  0
VERTEX
  5
13EA2
  8
0
 10
287.87875298760952
 20
214.74466654701919
 30
0.0
  0
VERTEX
  5
13EA3
  8
0
 10
287.9730353689398
 20
214.59401877543741
 30
0.0
  0
VERTEX
  5
13EA4
  8
0
 10
288.06975984772328
 20
214.44540214954279
 30
0.0
  0
VERTEX
  5
13EA5
  8
0
 10
288.1688529003593
 20
214.2988886281077
 30
0.0
  0
VERTEX
  5
13EA6
  8
0
 10
288.27023978923751
 20
214.15454479401379
 30
0.0
  0
VERTEX
  5
13EA7
  8
0
 10
288.32176932663123
 20
214.08320653316011
 30
0.0
  0
VERTEX
  5
13EA8
  8
0
 10
288.37384271253131
 20
214.01243485162729
 30
0.0
  0
VERTEX
  5
13EA9
  8
0
 10
288.47957885284109
 20
213.8726231315319
 30
0.0
  0
VERTEX
  5
13EAA
  8
0
 10
288.58736137193648
 20
213.73517235906911
 30
0.0
  0
VERTEX
  5
13EAB
  8
0
 10
288.69709958997049
 20
213.60014322498881
 30
0.0
  0
VERTEX
  5
13EAC
  8
0
 10
288.80869921027079
 20
213.46759396417559
 30
0.0
  0
VERTEX
  5
13EAD
  8
0
 10
288.92206259257802
 20
213.33757994250979
 30
0.0
  0
VERTEX
  5
13EAE
  8
0
 10
288.97937434645411
 20
213.2735400639441
 30
0.0
  0
VERTEX
  5
13EAF
  8
0
 10
289.03708907780282
 20
213.21015325225829
 30
0.0
  0
VERTEX
  5
13EB0
  8
0
 10
289.15367536748192
 20
213.0853623167408
 30
0.0
  0
VERTEX
  5
13EB1
  8
0
 10
289.2717159611048
 20
212.96325150546261
 30
0.0
  0
VERTEX
  5
13EB2
  8
0
 10
289.33124817218169
 20
212.90321381140521
 30
0.0
  0
SEQEND
  5
13EB3
  8
0
  0
ARC
  5
7B34
  8
0
 10
266.40231598404722
 20
266.63014673973242
 30
0.0
 40
20.000000000000028
 50
0.0
 51
30.0
  0
POLYLINE
  5
7B35
  8
0
 66
     1
 10
0.0
 20
0.0
 30
0.0
  0
VERTEX
  5
13EB4
  8
0
 10
289.33124817218169
 20
212.90321381140521
 30
0.0
  0
VERTEX
  5
13EB5
  8
0
 10
289.51118104158792
 20
212.72328094199929
 30
0.0
  0
VERTEX
  5
13EB6
  8
0
 10
289.86894349763429
 20
212.36551848595261
 30
0.0
  0
VERTEX
  5
13EB7
  8
0
 10
290.22350090192242
 20
212.0109610816645
 30
0.0
  0
VERTEX
  5
13EB8
  8
0
 10
290.39942846726569
 20
211.83503351632129
 30
0.0
  0
VERTEX
  5
13EB9
  8
0
 10
290.57437627404852
 20
211.66008570953861
 30
0.0
  0
VERTEX
  5
13EBA
  8
0
 10
290.92109758698803
 20
211.31336439659881
 30
0.0
  0
VERTEX
  5
13EBB
  8
0
 10
291.26319840210567
 20
210.9712635814812
 30
0.0
  0
VERTEX
  5
13EBC
  8
0
 10
291.60021849664798
 20
210.634243486939
 30
0.0
  0
VERTEX
  5
13EBD
  8
0
 10
291.93170448287361
 20
210.30275750071331
 30
0.0
  0
VERTEX
  5
13EBE
  8
0
 10
292.25721041798857
 20
209.97725156559829
 30
0.0
  0
VERTEX
  5
13EBF
  8
0
 10
292.41758369283929
 20
209.81687829074781
 30
0.0
  0
VERTEX
  5
13EC0
  8
0
 10
292.57629840406622
 20
209.6581635795209
 30
0.0
  0
VERTEX
  5
13EC1
  8
0
 10
292.88853917714351
 20
209.34592280644341
 30
0.0
  0
VERTEX
  5
13EC2
  8
0
 10
293.19351268470388
 20
209.04094929888299
 30
0.0
  0
VERTEX
  5
13EC3
  8
0
 10
293.49080865076689
 20
208.74365333282
 30
0.0
  0
VERTEX
  5
13EC4
  8
0
 10
293.78002712782569
 20
208.45443485576141
 30
0.0
  0
VERTEX
  5
13EC5
  8
0
 10
294.06077903489
 20
208.17368294869689
 30
0.0
  0
VERTEX
  5
13EC6
  8
0
 10
294.19786153730092
 20
208.0366004462862
 30
0.0
  0
VERTEX
  5
13EC7
  8
0
 10
294.33268668091119
 20
207.9017753026757
 30
0.0
  0
VERTEX
  5
13EC8
  8
0
 10
294.595384272883
 20
207.6390777107039
 30
0.0
  0
VERTEX
  5
13EC9
  8
0
 10
294.8485184079376
 20
207.38594357564941
 30
0.0
  0
VERTEX
  5
13ECA
  8
0
 10
294.97139224600522
 20
207.26306973758159
 30
0.0
  0
SEQEND
  5
13ECB
  8
0
  0
LINE
  5
7B36
  8
0
 10
274.41966625323681
 20
292.7436887314197
 30
0.0
 11
283.7228240597359
 21
276.63014673973242
 31
0.0
  0
POLYLINE
  5
7B37
  8
0
 66
     1
 10
0.0
 20
0.0
 30
0.0
  0
VERTEX
  5
13ECC
  8
0
 10
294.97139224600522
 20
207.26306973758159
 30
0.0
  0
VERTEX
  5
13ECD
  8
0
 10
295.19444528589031
 20
207.0327475722126
 30
0.0
  0
VERTEX
  5
13ECE
  8
0
 10
295.60832758977051
 20
206.56277011744839
 30
0.0
  0
VERTEX
  5
13ECF
  8
0
 10
295.97834939803693
 20
206.08653436541451
 30
0.0
  0
VERTEX
  5
13ED0
  8
0
 10
296.14676248458198
 20
205.8485255471837
 30
0.0
  0
SEQEND
  5
13ED1
  8
0
  0
POLYLINE
  5
7B38
  8
0
 66
     1
 10
0.0
 20
0.0
 30
0.0
  0
VERTEX
  5
13ED2
  8
0
 10
296.14676248458198
 20
205.8485255471837
 30
0.0
  0
VERTEX
  5
13ED3
  8
0
 10
296.21925190821298
 20
205.7413663651011
 30
0.0
  0
VERTEX
  5
13ED4
  8
0
 10
296.3600416373576
 20
205.5242795667981
 30
0.0
  0
VERTEX
  5
13ED5
  8
0
 10
296.49516771900488
 20
205.30362289255339
 30
0.0
  0
VERTEX
  5
13ED6
  8
0
 10
296.56057847198417
 20
205.19200192571631
 30
0.0
  0
SEQEND
  5
13ED7
  8
0
  0
ARC
  5
7B39
  8
0
 10
272.68761544566792
 20
291.7436887314197
 30
0.0
 40
2.0000000000000031
 50
30.0
 51
63.133982235388402
  0
LINE
  5
7B3A
  8
0
 10
296.56057847198417
 20
205.19200192571631
 30
0.0
 11
299.17785139782751
 21
200.658752240881
 31
0.0
  0
POLYLINE
  5
7B3B
  8
0
 66
     1
 10
0.0
 20
0.0
 30
0.0
  0
VERTEX
  5
13ED8
  8
0
 10
299.17785139782751
 20
200.658752240881
 30
0.0
  0
VERTEX
  5
13ED9
  8
0
 10
299.24189736984709
 20
200.54782136332321
 30
0.0
  0
VERTEX
  5
13EDA
  8
0
 10
299.37268357057621
 20
200.32129301873141
 30
0.0
  0
VERTEX
  5
13EDB
  8
0
 10
299.5070326587101
 20
200.08859357213299
 30
0.0
  0
VERTEX
  5
13EDC
  8
0
 10
299.57553201507511
 20
199.9699492066228
 30
0.0
  0
VERTEX
  5
13EDD
  8
0
 10
299.64490844961358
 20
199.84978569715429
 30
0.0
  0
VERTEX
  5
13EDE
  8
0
 10
299.78627380879448
 20
199.6049337126228
 30
0.0
  0
VERTEX
  5
13EDF
  8
0
 10
299.93109066190459
 20
199.35410356524369
 30
0.0
  0
VERTEX
  5
13EE0
  8
0
 10
300.079320004995
 20
199.09736281183851
 30
0.0
  0
VERTEX
  5
13EE1
  8
0
 10
300.23092191502059
 20
198.8347806011497
 30
0.0
  0
VERTEX
  5
13EE2
  8
0
 10
300.3858555605932
 20
198.5664276552165
 30
0.0
  0
VERTEX
  5
13EE3
  8
0
 10
300.46455877872688
 20
198.4301096826895
 30
0.0
  0
VERTEX
  5
13EE4
  8
0
 10
300.54407921297798
 20
198.29237625032661
 30
0.0
  0
VERTEX
  5
13EE5
  8
0
 10
300.70555025733353
 20
198.01270019755171
 30
0.0
  0
VERTEX
  5
13EE6
  8
0
 10
300.87022520418827
 20
197.7274748228655
 30
0.0
  0
VERTEX
  5
13EE7
  8
0
 10
301.03805970115462
 20
197.43677694685709
 30
0.0
  0
VERTEX
  5
13EE8
  8
0
 10
301.20900854487348
 20
197.14068486404079
 30
0.0
  0
VERTEX
  5
13EE9
  8
0
 10
301.38302569319012
 20
196.83927832176821
 30
0.0
  0
VERTEX
  5
13EEA
  8
0
 10
301.47117026708798
 20
196.68660744136551
 30
0.0
  0
VERTEX
  5
13EEB
  8
0
 10
301.56006427755409
 20
196.53263849874969
 30
0.0
  0
VERTEX
  5
13EEC
  8
0
 10
301.74007661564269
 20
196.22084798319099
 30
0.0
  0
VERTEX
  5
13EED
  8
0
 10
301.92301422420331
 20
195.90399075054879
 30
0.0
  0
VERTEX
  5
13EEE
  8
0
 10
302.01556463809902
 20
195.74368873141989
 30
0.0
  0
SEQEND
  5
13EEF
  8
0
  0
POLYLINE
  5
7B3C
  8
0
 66
     1
 10
0.0
 20
0.0
 30
0.0
  0
VERTEX
  5
13EF0
  8
0
 10
302.01556463809902
 20
195.74368873141989
 30
0.0
  0
VERTEX
  5
13EF1
  8
0
 10
302.1626608617712
 20
195.49715234719491
 30
0.0
  0
VERTEX
  5
13EF2
  8
0
 10
302.47531037957719
 20
195.02078180563231
 30
0.0
  0
VERTEX
  5
13EF3
  8
0
 10
302.81057179647729
 20
194.5681003768542
 30
0.0
  0
VERTEX
  5
13EF4
  8
0
 10
302.98585295406178
 20
194.35115971730619
 30
0.0
  0
VERTEX
  5
13EF5
  8
0
 10
303.16574261047799
 20
194.1407532106895
 30
0.0
  0
VERTEX
  5
13EF6
  8
0
 10
303.53771798024047
 20
193.74029537833709
 30
0.0
  0
VERTEX
  5
13EF7
  8
0
 10
303.9292764537675
 20
193.36234955452269
 30
0.0
  0
VERTEX
  5
13EF8
  8
0
 10
304.35013346703431
 20
192.9986447265232
 30
0.0
  0
VERTEX
  5
13EF9
  8
0
 10
304.79930437873821
 20
192.6525466788575
 30
0.0
  0
VERTEX
  5
13EFA
  8
0
 10
305.27524210022091
 20
192.3274085168741
 30
0.0
  0
VERTEX
  5
13EFB
  8
0
 10
305.52269633903302
 20
192.17366363339161
 30
0.0
  0
VERTEX
  5
13EFC
  8
0
 10
305.77613941218277
 20
192.02628412269169
 30
0.0
  0
VERTEX
  5
13EFD
  8
0
 10
306.2998554554058
 20
191.75197332820011
 30
0.0
  0
VERTEX
  5
13EFE
  8
0
 10
306.843944548237
 20
191.5069825723275
 30
0.0
  0
VERTEX
  5
13EFF
  8
0
 10
307.40607579252321
 20
191.2933563840196
 30
0.0
  0
VERTEX
  5
13F00
  8
0
 10
307.98344001802042
 20
191.11295162762769
 30
0.0
  0
VERTEX
  5
13F01
  8
0
 10
308.5726930356916
 20
190.9673467498136
 30
0.0
  0
VERTEX
  5
13F02
  8
0
 10
308.87067876073871
 20
190.90796456456101
 30
0.0
  0
VERTEX
  5
13F03
  8
0
 10
308.92051499639842
 20
190.89894856254921
 30
0.0
  0
VERTEX
  5
13F04
  8
0
 10
309.02031574014347
 20
190.88167524382229
 30
0.0
  0
VERTEX
  5
13F05
  8
0
 10
309.12027296008978
 20
190.86541572821301
 30
0.0
  0
VERTEX
  5
13F06
  8
0
 10
309.17030471632881
 20
190.85766689665721
 30
0.0
  0
VERTEX
  5
13F07
  8
0
 10
309.22036891539187
 20
190.85017236995819
 30
0.0
  0
VERTEX
  5
13F08
  8
0
 10
309.32058557392202
 20
190.83594715025299
 30
0.0
  0
VERTEX
  5
13F09
  8
0
 10
309.42090464053109
 20
190.82274166152149
 30
0.0
  0
VERTEX
  5
13F0A
  8
0
 10
309.52130758629221
 20
190.81055709311599
 30
0.0
  0
VERTEX
  5
13F0B
  8
0
 10
309.62177567869873
 20
190.79939421848641
 30
0.0
  0
VERTEX
  5
13F0C
  8
0
 10
309.72229001279618
 20
190.78925338386981
 30
0.0
  0
VERTEX
  5
13F0D
  8
0
 10
309.7725585733931
 20
190.78456622051851
 30
0.0
  0
VERTEX
  5
13F0E
  8
0
 10
309.82283154321942
 20
190.7801344985466
 30
0.0
  0
VERTEX
  5
13F0F
  8
0
 10
309.9233811171062
 20
190.77203702670971
 30
0.0
  0
VERTEX
  5
13F10
  8
0
 10
310.02391950785812
 20
190.76495998099031
 30
0.0
  0
VERTEX
  5
13F11
  8
0
 10
310.12442744971599
 20
190.7589019176898
 30
0.0
  0
VERTEX
  5
13F12
  8
0
 10
310.22488567311649
 20
190.75386093375681
 30
0.0
  0
VERTEX
  5
13F13
  8
0
 10
310.32527494079278
 20
190.7498346655579
 30
0.0
  0
VERTEX
  5
13F14
  8
0
 10
310.3754377224638
 20
190.74820118539259
 30
0.0
  0
VERTEX
  5
13F15
  8
0
 10
310.42557608458219
 20
190.74682028947919
 30
0.0
  0
VERTEX
  5
13F16
  8
0
 10
310.52577004289969
 20
190.74481452440421
 30
0.0
  0
VERTEX
  5
13F17
  8
0
 10
310.62583789883593
 20
190.74381363610399
 30
0.0
  0
VERTEX
  5
13F18
  8
0
 10
310.6758186759435
 20
190.74368873141989
 30
0.0
  0
SEQEND
  5
13F19
  8
0
  0
LINE
  5
7B3D
  8
0
 10
338.62678057026682
 20
200.658752240881
 30
0.0
 11
341.24405349611021
 21
205.19200192571631
 31
0.0
  0
POLYLINE
  5
7B3E
  8
0
 66
     1
 10
0.0
 20
0.0
 30
0.0
  0
VERTEX
  5
13F1A
  8
0
 10
341.24405349611021
 20
205.19200192571631
 30
0.0
  0
VERTEX
  5
13F1B
  8
0
 10
341.30946424908939
 20
205.30362289255339
 30
0.0
  0
VERTEX
  5
13F1C
  8
0
 10
341.44459033073667
 20
205.5242795667981
 30
0.0
  0
VERTEX
  5
13F1D
  8
0
 10
341.58538005988117
 20
205.7413663651011
 30
0.0
  0
VERTEX
  5
13F1E
  8
0
 10
341.65786948351229
 20
205.8485255471837
 30
0.0
  0
SEQEND
  5
13F1F
  8
0
  0
POLYLINE
  5
7B3F
  8
0
 66
     1
 10
0.0
 20
0.0
 30
0.0
  0
VERTEX
  5
13F20
  8
0
 10
341.65786948351229
 20
205.8485255471837
 30
0.0
  0
VERTEX
  5
13F21
  8
0
 10
341.82628257005842
 20
206.0865343654159
 30
0.0
  0
VERTEX
  5
13F22
  8
0
 10
342.19630437832541
 20
206.5627701174503
 30
0.0
  0
VERTEX
  5
13F23
  8
0
 10
342.61018668220379
 20
207.0327475722124
 30
0.0
  0
VERTEX
  5
13F24
  8
0
 10
342.8332397220891
 20
207.26306973758179
 30
0.0
  0
SEQEND
  5
13F25
  8
0
  0
POLYLINE
  5
7B40
  8
0
 66
     1
 10
0.0
 20
0.0
 30
0.0
  0
VERTEX
  5
13F26
  8
0
 10
342.8332397220891
 20
207.26306973758179
 30
0.0
  0
VERTEX
  5
13F27
  8
0
 10
342.95611356015672
 20
207.38594357564941
 30
0.0
  0
VERTEX
  5
13F28
  8
0
 10
343.20924769521139
 20
207.6390777107039
 30
0.0
  0
VERTEX
  5
13F29
  8
0
 10
343.47194528718308
 20
207.9017753026759
 30
0.0
  0
VERTEX
  5
13F2A
  8
0
 10
343.60677043079352
 20
208.0366004462862
 30
0.0
  0
VERTEX
  5
13F2B
  8
0
 10
343.74385293320432
 20
208.17368294869689
 30
0.0
  0
VERTEX
  5
13F2C
  8
0
 10
344.02460484026858
 20
208.45443485576141
 30
0.0
  0
VERTEX
  5
13F2D
  8
0
 10
344.31382331732738
 20
208.74365333282
 30
0.0
  0
VERTEX
  5
13F2E
  8
0
 10
344.61111928339039
 20
209.04094929888299
 30
0.0
  0
VERTEX
  5
13F2F
  8
0
 10
344.91609279095093
 20
209.34592280644341
 30
0.0
  0
VERTEX
  5
13F30
  8
0
 10
345.22833356402822
 20
209.6581635795209
 30
0.0
  0
VERTEX
  5
13F31
  8
0
 10
345.3870482752551
 20
209.81687829074781
 30
0.0
  0
VERTEX
  5
13F32
  8
0
 10
345.5474215501057
 20
209.97725156559829
 30
0.0
  0
VERTEX
  5
13F33
  8
0
 10
345.87292748522071
 20
210.30275750071331
 30
0.0
  0
VERTEX
  5
13F34
  8
0
 10
346.2044134714464
 20
210.634243486939
 30
0.0
  0
VERTEX
  5
13F35
  8
0
 10
346.5414335659886
 20
210.9712635814812
 30
0.0
  0
VERTEX
  5
13F36
  8
0
 10
346.8835343811063
 20
211.31336439659881
 30
0.0
  0
VERTEX
  5
13F37
  8
0
 10
347.23025569404581
 20
211.66008570953861
 30
0.0
  0
VERTEX
  5
13F38
  8
0
 10
347.40520350082852
 20
211.83503351632129
 30
0.0
  0
VERTEX
  5
13F39
  8
0
 10
347.58113106617191
 20
212.0109610816645
 30
0.0
  0
VERTEX
  5
13F3A
  8
0
 10
347.93568847045992
 20
212.36551848595261
 30
0.0
  0
VERTEX
  5
13F3B
  8
0
 10
348.29345092650641
 20
212.72328094199929
 30
0.0
  0
VERTEX
  5
13F3C
  8
0
 10
348.47338379591258
 20
212.90321381140521
 30
0.0
  0
SEQEND
  5
13F3D
  8
0
  0
POLYLINE
  5
7B41
  8
0
 66
     1
 10
0.0
 20
0.0
 30
0.0
  0
VERTEX
  5
13F3E
  8
0
 10
348.47338379591258
 20
212.90321381140521
 30
0.0
  0
VERTEX
  5
13F3F
  8
0
 10
348.53291600698958
 20
212.96325150546261
 30
0.0
  0
VERTEX
  5
13F40
  8
0
 10
348.6509566006124
 20
213.0853623167408
 30
0.0
  0
VERTEX
  5
13F41
  8
0
 10
348.76754289029139
 20
213.21015325225829
 30
0.0
  0
VERTEX
  5
13F42
  8
0
 10
348.82525762164028
 20
213.2735400639441
 30
0.0
  0
VERTEX
  5
13F43
  8
0
 10
348.88256937551631
 20
213.33757994250979
 30
0.0
  0
VERTEX
  5
13F44
  8
0
 10
348.99593275782343
 20
213.46759396417559
 30
0.0
  0
VERTEX
  5
13F45
  8
0
 10
349.10753237812378
 20
213.60014322498881
 30
0.0
  0
VERTEX
  5
13F46
  8
0
 10
349.2172705961579
 20
213.73517235906911
 30
0.0
  0
VERTEX
  5
13F47
  8
0
 10
349.32505311525318
 20
213.8726231315319
 30
0.0
  0
VERTEX
  5
13F48
  8
0
 10
349.43078925556313
 20
214.01243485162729
 30
0.0
  0
VERTEX
  5
13F49
  8
0
 10
349.4828626414631
 20
214.08320653316011
 30
0.0
  0
VERTEX
  5
13F4A
  8
0
 10
349.53439217885682
 20
214.15454479401379
 30
0.0
  0
VERTEX
  5
13F4B
  8
0
 10
349.63577906773509
 20
214.2988886281077
 30
0.0
  0
VERTEX
  5
13F4C
  8
0
 10
349.73487212037111
 20
214.44540214954279
 30
0.0
  0
VERTEX
  5
13F4D
  8
0
 10
349.83159659915452
 20
214.59401877543741
 30
0.0
  0
VERTEX
  5
13F4E
  8
0
 10
349.92587898048481
 20
214.74466654701919
 30
0.0
  0
VERTEX
  5
13F4F
  8
0
 10
350.0176489015231
 20
214.89727081758451
 30
0.0
  0
VERTEX
  5
13F50
  8
0
 10
350.06257062097819
 20
214.97428266091941
 30
0.0
  0
VERTEX
  5
13F51
  8
0
 10
350.10683938248201
 20
215.051754588698
 30
0.0
  0
VERTEX
  5
13F52
  8
0
 10
350.1933870060335
 20
215.20803883818411
 30
0.0
  0
VERTEX
  5
13F53
  8
0
 10
350.2772320660215
 20
215.3660428558116
 30
0.0
  0
VERTEX
  5
13F54
  8
0
 10
350.31812352135671
 20
215.4456641788783
 30
0.0
  0
SEQEND
  5
13F55
  8
0
  0
ARC
  5
7B42
  8
0
 10
341.40231598404711
 20
219.9742816232708
 30
0.0
 40
10.00000000000005
 50
333.07256071773998
 51
0.0
  0
LINE
  5
7B43
  8
0
 10
351.40231598404722
 20
219.9742816232708
 30
0.0
 11
351.40231598404722
 21
266.63014673973242
 31
0.0
  0
ARC
  5
7B44
  8
0
 10
371.40231598404722
 20
266.63014673973242
 30
0.0
 40
20.00000000000006
 50
150.0
 51
180.0
  0
LINE
  5
7B45
  8
0
 10
354.08180790835843
 20
276.63014673973242
 30
0.0
 11
363.38496571485751
 21
292.7436887314197
 31
0.0
  0
ARC
  5
7B46
  8
0
 10
365.11701652242658
 20
291.7436887314197
 30
0.0
 40
2.0000000000002771
 50
116.8660177646192
 51
150.0
  0
POLYLINE
  5
7B47
  8
0
 66
     1
 10
0.0
 20
0.0
 30
0.0
  0
VERTEX
  5
13F56
  8
0
 10
335.78906732999531
 20
195.74368873141989
 30
0.0
  0
VERTEX
  5
13F57
  8
0
 10
335.88161774389113
 20
195.90399075054879
 30
0.0
  0
VERTEX
  5
13F58
  8
0
 10
336.06455535245169
 20
196.22084798319099
 30
0.0
  0
VERTEX
  5
13F59
  8
0
 10
336.24456769054018
 20
196.53263849874969
 30
0.0
  0
VERTEX
  5
13F5A
  8
0
 10
336.33346170100629
 20
196.68660744136551
 30
0.0
  0
VERTEX
  5
13F5B
  8
0
 10
336.42160627490421
 20
196.83927832176821
 30
0.0
  0
VERTEX
  5
13F5C
  8
0
 10
336.59562342322079
 20
197.14068486404079
 30
0.0
  0
VERTEX
  5
13F5D
  8
0
 10
336.76657226693982
 20
197.43677694685709
 30
0.0
  0
VERTEX
  5
13F5E
  8
0
 10
336.934406763906
 20
197.7274748228655
 30
0.0
  0
VERTEX
  5
13F5F
  8
0
 10
337.0990817107608
 20
198.01270019755171
 30
0.0
  0
VERTEX
  5
13F60
  8
0
 10
337.26055275511629
 20
198.29237625032661
 30
0.0
  0
VERTEX
  5
13F61
  8
0
 10
337.3400731893675
 20
198.4301096826897
 30
0.0
  0
VERTEX
  5
13F62
  8
0
 10
337.41877640750118
 20
198.5664276552165
 30
0.0
  0
VERTEX
  5
13F63
  8
0
 10
337.57371005307368
 20
198.8347806011497
 30
0.0
  0
VERTEX
  5
13F64
  8
0
 10
337.72531196309927
 20
199.09736281183871
 30
0.0
  0
VERTEX
  5
13F65
  8
0
 10
337.87354130618968
 20
199.35410356524369
 30
0.0
  0
VERTEX
  5
13F66
  8
0
 10
338.01835815929979
 20
199.6049337126228
 30
0.0
  0
VERTEX
  5
13F67
  8
0
 10
338.15972351848069
 20
199.84978569715429
 30
0.0
  0
VERTEX
  5
13F68
  8
0
 10
338.22909995301922
 20
199.9699492066228
 30
0.0
  0
VERTEX
  5
13F69
  8
0
 10
338.29759930938422
 20
200.08859357213299
 30
0.0
  0
VERTEX
  5
13F6A
  8
0
 10
338.43194839751811
 20
200.32129301873141
 30
0.0
  0
VERTEX
  5
13F6B
  8
0
 10
338.56273459824718
 20
200.54782136332321
 30
0.0
  0
VERTEX
  5
13F6C
  8
0
 10
338.62678057026682
 20
200.658752240881
 30
0.0
  0
SEQEND
  5
13F6D
  8
0
  0
POLYLINE
  5
7B48
  8
0
 66
     1
 10
0.0
 20
0.0
 30
0.0
  0
VERTEX
  5
13F6E
  8
0
 10
327.12881329215088
 20
190.74368873141989
 30
0.0
  0
VERTEX
  5
13F6F
  8
0
 10
327.17881481651762
 20
190.7438137398232
 30
0.0
  0
VERTEX
  5
13F70
  8
0
 10
327.27891549370759
 20
190.74481532842671
 30
0.0
  0
VERTEX
  5
13F71
  8
0
 10
327.37913114515072
 20
190.74682217371941
 30
0.0
  0
VERTEX
  5
13F72
  8
0
 10
327.4292763451495
 20
190.7482036529567
 30
0.0
  0
VERTEX
  5
13F73
  8
0
 10
327.47944338019653
 20
190.74983769483961
 30
0.0
  0
VERTEX
  5
13F74
  8
0
 10
327.57983366539531
 20
190.75386487797181
 30
0.0
  0
VERTEX
  5
13F75
  8
0
 10
327.68028336117322
 20
190.7589062719484
 30
0.0
  0
VERTEX
  5
13F76
  8
0
 10
327.78077375791872
 20
190.7649639856883
 30
0.0
  0
VERTEX
  5
13F77
  8
0
 10
327.8812861114356
 20
190.77203968744331
 30
0.0
  0
VERTEX
  5
13F78
  8
0
 10
327.98180167772131
 20
190.78013460580371
 30
0.0
  0
VERTEX
  5
13F79
  8
0
 10
328.03205481660189
 20
190.78456453556271
 30
0.0
  0
VERTEX
  5
13F7A
  8
0
 10
328.08230174702771
 20
190.7892495324285
 30
0.0
  0
VERTEX
  5
13F7B
  8
0
 10
328.18276767717128
 20
190.7993848264552
 30
0.0
  0
VERTEX
  5
13F7C
  8
0
 10
328.28318092605178
 20
190.8105404205468
 30
0.0
  0
VERTEX
  5
13F7D
  8
0
 10
328.38352308335033
 20
190.82271582853031
 30
0.0
  0
VERTEX
  5
13F7E
  8
0
 10
328.4837759013738
 20
190.83591015458401
 30
0.0
  0
VERTEX
  5
13F7F
  8
0
 10
328.58392132501717
 20
190.85012210392449
 30
0.0
  0
VERTEX
  5
13F80
  8
0
 10
328.63394818155552
 20
190.8576091765762
 30
0.0
  0
VERTEX
  5
13F81
  8
0
 10
328.68394152081601
 20
190.8653499949518
 30
0.0
  0
VERTEX
  5
13F82
  8
0
 10
328.783818905065
 20
190.88159177279991
 30
0.0
  0
VERTEX
  5
13F83
  8
0
 10
328.88353617097818
 20
190.89884502425431
 30
0.0
  0
VERTEX
  5
13F84
  8
0
 10
328.93332943337163
 20
190.90785010443591
 30
0.0
  0
VERTEX
  5
13F85
  8
0
 10
329.23104319587537
 20
190.96715409833621
 30
0.0
  0
VERTEX
  5
13F86
  8
0
 10
329.81971841208161
 20
191.1125398053816
 30
0.0
  0
VERTEX
  5
13F87
  8
0
 10
330.39654078061841
 20
191.29265931335561
 30
0.0
  0
VERTEX
  5
13F88
  8
0
 10
330.95824771155731
 20
191.50597082993221
 30
0.0
  0
VERTEX
  5
13F89
  8
0
 10
331.50204746176593
 20
191.75064570373951
 30
0.0
  0
VERTEX
  5
13F8A
  8
0
 10
332.02570293837169
 20
192.02471678555739
 30
0.0
  0
VERTEX
  5
13F8B
  8
0
 10
332.27922364748179
 20
192.17203351368619
 30
0.0
  0
VERTEX
  5
13F8C
  8
0
 10
332.52683422291187
 20
192.32576915286219
 30
0.0
  0
VERTEX
  5
13F8D
  8
0
 10
333.00333347790291
 20
192.65109875124719
 30
0.0
  0
VERTEX
  5
13F8E
  8
0
 10
333.45342145155212
 20
192.99776518222089
 30
0.0
  0
VERTEX
  5
13F8F
  8
0
 10
333.87557589440843
 20
193.36255098790249
 30
0.0
  0
VERTEX
  5
13F90
  8
0
 10
334.26854497517002
 20
193.74195812431341
 30
0.0
  0
VERTEX
  5
13F91
  8
0
 10
334.63928730736228
 20
194.14120586004231
 30
0.0
  0
VERTEX
  5
13F92
  8
0
 10
334.81880945430453
 20
194.35119633595599
 30
0.0
  0
VERTEX
  5
13F93
  8
0
 10
334.99386040114427
 20
194.56784595708419
 30
0.0
  0
VERTEX
  5
13F94
  8
0
 10
335.32898813517249
 20
195.02030402096429
 30
0.0
  0
VERTEX
  5
13F95
  8
0
 10
335.64181077511671
 20
195.49689219877101
 30
0.0
  0
VERTEX
  5
13F96
  8
0
 10
335.78906732999531
 20
195.74368873141989
 30
0.0
  0
SEQEND
  5
13F97
  8
0
  0
LINE
  5
7B49
  8
0
 10
310.6758186759435
 20
190.74368873141989
 30
0.0
 11
327.12881329215088
 21
190.74368873141989
 31
0.0
  0
LINE
  5
7B4A
  8
0
 10
268.90231598404722
 20
295.7436887314197
 30
0.0
 11
368.90231598404722
 21
295.7436887314197
 31
0.0
  0
ARC
  5
7B4B
  8
0
 10
318.90231598404722
 20
202.24368873142021
 30
0.0
 40
62.499999999999758
 50
121.33225149760089
 51
58.66774850239905
  0
ARC
  5
7B4C
  8
0
 10
318.90231598404722
 20
202.24368873141989
 30
0.0
 40
51.897929133429713
 50
128.77246636472429
 51
51.227533635275677
  0
ARC
  5
7B4D
  8
0
 10
318.90231598404722
 20
202.24368873141989
 30
0.0
 40
20.033056072867549
 50
183.15647884126901
 51
356.84352115873099
  0
ARC
  5
7B4E
  8
0
 10
318.90231598404722
 20
202.24368873141989
 30
0.0
 40
58.480766068853768
 50
123.7615803292087
 51
56.238419670791259
  0
LINE
  5
7B4F
  8
1
 10
240.44286060987449
 20
202.24368873142021
 30
0.0
 11
397.36177135822072
 21
202.24368873142021
 31
0.0
  0
LINE
  5
7B50
  8
1
 10
318.90231598404762
 20
123.78423335724671
 30
0.0
 11
318.90231598404762
 21
311.7031441055932
 31
0.0
  0
LINE
  5
7B54
  8
0
 10
313.08731598404768
 20
410.2725174844594
 30
0.0
 11
313.08731598404768
 21
409.67251748445949
 31
0.0
  0
LINE
  5
7B55
  8
0
 10
324.71731598404767
 20
409.67251748445949
 30
0.0
 11
324.71731598404767
 21
410.2725174844594
 31
0.0
  0
LINE
  5
7B56
  8
0
 10
314.90231598404762
 20
469.50551748445957
 30
0.0
 11
314.90231598404762
 21
467.2725174844594
 31
0.0
  0
LINE
  5
7B57
  8
0
 10
322.90231598404762
 20
467.2725174844594
 30
0.0
 11
322.90231598404762
 21
469.50551748445957
 31
0.0
  0
LINE
  5
7B58
  8
0
 10
315.66931598404773
 20
470.2725174844594
 30
0.0
 11
314.90231598404762
 21
469.50551748445957
 31
0.0
  0
LINE
  5
7B59
  8
0
 10
322.90231598404762
 20
469.50551748445957
 30
0.0
 11
322.13531598404768
 21
470.2725174844594
 31
0.0
  0
LINE
  5
7B5A
  8
0
 10
313.08731598404768
 20
467.2725174844594
 30
0.0
 11
313.08731598404768
 21
464.7725174844594
 31
0.0
  0
LINE
  5
7B5B
  8
0
 10
324.71731598404767
 20
464.7725174844594
 30
0.0
 11
324.71731598404767
 21
467.2725174844594
 31
0.0
  0
LINE
  5
7B5C
  8
0
 10
322.90231598404762
 20
469.50551748445957
 30
0.0
 11
314.90231598404762
 21
469.50551748445957
 31
0.0
  0
LINE
  5
7B5D
  8
0
 10
322.13531598404768
 20
470.2725174844594
 30
0.0
 11
315.66931598404773
 21
470.2725174844594
 31
0.0
  0
LINE
  5
7B5E
  8
0
 10
325.160649317381
 20
404.97251748445967
 30
0.0
 11
312.64398265071429
 21
404.97251748445967
 31
0.0
  0
LINE
  5
7B5F
  8
0
 10
325.160649317381
 20
409.67251748445949
 30
0.0
 11
312.64398265071429
 21
409.67251748445949
 31
0.0
  0
POLYLINE
  5
7B62
  8
0
 66
     1
 10
0.0
 20
0.0
 30
0.0
  0
VERTEX
  5
13F98
  8
0
 10
315.77314931738101
 20
409.67251748445949
 30
0.0
  0
VERTEX
  5
13F99
  8
0
 10
316.27558706929648
 20
409.6653273508399
 30
0.0
  0
VERTEX
  5
13F9A
  8
0
 10
317.28434761320892
 20
409.60855276705519
 30
0.0
  0
VERTEX
  5
13F9B
  8
0
 10
318.34013750593277
 20
409.49394242830238
 30
0.0
  0
VERTEX
  5
13F9C
  8
0
 10
318.90231598404762
 20
409.41309777504409
 30
0.0
  0
SEQEND
  5
13F9D
  8
0
  0
POLYLINE
  5
7B63
  8
0
 66
     1
 10
0.0
 20
0.0
 30
0.0
  0
VERTEX
  5
13F9E
  8
0
 10
318.90231598404762
 20
405.23193719387513
 30
0.0
  0
VERTEX
  5
13F9F
  8
0
 10
318.34013750593277
 20
405.15109254061679
 30
0.0
  0
VERTEX
  5
13FA0
  8
0
 10
317.28434761320892
 20
405.03648220186398
 30
0.0
  0
VERTEX
  5
13FA1
  8
0
 10
316.27558706929648
 20
404.97970761807971
 30
0.0
  0
VERTEX
  5
13FA2
  8
0
 10
315.77314931738101
 20
404.97251748445967
 30
0.0
  0
SEQEND
  5
13FA3
  8
0
  0
POLYLINE
  5
7B64
  8
0
 66
     1
 10
0.0
 20
0.0
 30
0.0
  0
VERTEX
  5
13FA4
  8
0
 10
315.77314931738101
 20
404.97251748445967
 30
0.0
  0
VERTEX
  5
13FA5
  8
0
 10
315.27071156546549
 20
404.97970761807971
 30
0.0
  0
VERTEX
  5
13FA6
  8
0
 10
314.26195102155322
 20
405.03648220186398
 30
0.0
  0
VERTEX
  5
13FA7
  8
0
 10
313.20616112882919
 20
405.15109254061679
 30
0.0
  0
VERTEX
  5
13FA8
  8
0
 10
312.64398265071429
 20
405.23193719387513
 30
0.0
  0
SEQEND
  5
13FA9
  8
0
  0
POLYLINE
  5
7B65
  8
0
 66
     1
 10
0.0
 20
0.0
 30
0.0
  0
VERTEX
  5
13FAA
  8
0
 10
312.64398265071429
 20
409.41309777504409
 30
0.0
  0
VERTEX
  5
13FAB
  8
0
 10
313.20616112882919
 20
409.49394242830238
 30
0.0
  0
VERTEX
  5
13FAC
  8
0
 10
314.26195102155322
 20
409.60855276705519
 30
0.0
  0
VERTEX
  5
13FAD
  8
0
 10
315.27071156546549
 20
409.6653273508399
 30
0.0
  0
VERTEX
  5
13FAE
  8
0
 10
315.77314931738101
 20
409.67251748445949
 30
0.0
  0
SEQEND
  5
13FAF
  8
0
  0
POLYLINE
  5
7B66
  8
0
 66
     1
 10
0.0
 20
0.0
 30
0.0
  0
VERTEX
  5
13FB0
  8
0
 10
322.03148265071428
 20
409.67251748445949
 30
0.0
  0
VERTEX
  5
13FB1
  8
0
 10
322.5339204026298
 20
409.6653273508399
 30
0.0
  0
VERTEX
  5
13FB2
  8
0
 10
323.54268094654219
 20
409.60855276705519
 30
0.0
  0
VERTEX
  5
13FB3
  8
0
 10
324.59847083926621
 20
409.49394242830238
 30
0.0
  0
VERTEX
  5
13FB4
  8
0
 10
325.160649317381
 20
409.41309777504409
 30
0.0
  0
SEQEND
  5
13FB5
  8
0
  0
POLYLINE
  5
7B68
  8
0
 66
     1
 10
0.0
 20
0.0
 30
0.0
  0
VERTEX
  5
13FB6
  8
0
 10
325.160649317381
 20
405.23193719387513
 30
0.0
  0
VERTEX
  5
13FB7
  8
0
 10
324.59847083926621
 20
405.15109254061679
 30
0.0
  0
VERTEX
  5
13FB8
  8
0
 10
323.54268094654219
 20
405.03648220186398
 30
0.0
  0
VERTEX
  5
13FB9
  8
0
 10
322.5339204026298
 20
404.97970761807971
 30
0.0
  0
VERTEX
  5
13FBA
  8
0
 10
322.03148265071428
 20
404.97251748445967
 30
0.0
  0
SEQEND
  5
13FBB
  8
0
  0
POLYLINE
  5
7B69
  8
0
 66
     1
 10
0.0
 20
0.0
 30
0.0
  0
VERTEX
  5
13FBC
  8
0
 10
322.03148265071428
 20
404.97251748445967
 30
0.0
  0
VERTEX
  5
13FBD
  8
0
 10
321.52904489879882
 20
404.97970761807971
 30
0.0
  0
VERTEX
  5
13FBE
  8
0
 10
320.52028435488648
 20
405.03648220186398
 30
0.0
  0
VERTEX
  5
13FBF
  8
0
 10
319.46449446216252
 20
405.15109254061679
 30
0.0
  0
VERTEX
  5
13FC0
  8
0
 10
318.90231598404762
 20
405.23193719387513
 30
0.0
  0
SEQEND
  5
13FC1
  8
0
  0
LINE
  5
7B6A
  8
0
 10
318.90231598404762
 20
405.23193719387513
 30
0.0
 11
318.90231598404762
 21
409.41309777504409
 31
0.0
  0
POLYLINE
  5
7B6B
  8
0
 66
     1
 10
0.0
 20
0.0
 30
0.0
  0
VERTEX
  5
13FC2
  8
0
 10
318.90231598404762
 20
409.41309777504409
 30
0.0
  0
VERTEX
  5
13FC3
  8
0
 10
319.46449446216252
 20
409.49394242830238
 30
0.0
  0
VERTEX
  5
13FC4
  8
0
 10
320.52028435488648
 20
409.60855276705519
 30
0.0
  0
VERTEX
  5
13FC5
  8
0
 10
321.52904489879882
 20
409.6653273508399
 30
0.0
  0
VERTEX
  5
13FC6
  8
0
 10
322.03148265071428
 20
409.67251748445949
 30
0.0
  0
SEQEND
  5
13FC7
  8
0
  0
LINE
  5
7B6F
  8
0
 10
324.71731598404767
 20
467.2725174844594
 30
0.0
 11
313.08731598404768
 21
467.2725174844594
 31
0.0
  0
LINE
  5
7B70
  8
0
 10
325.160649317381
 20
464.7725174844594
 30
0.0
 11
312.64398265071429
 21
464.7725174844594
 31
0.0
  0
POLYLINE
  5
7B73
  8
0
 66
     1
 10
0.0
 20
0.0
 30
0.0
  0
VERTEX
  5
13FC8
  8
0
 10
315.77314931738101
 20
464.7725174844594
 30
0.0
  0
VERTEX
  5
13FC9
  8
0
 10
316.27558706929648
 20
464.76532735083993
 30
0.0
  0
VERTEX
  5
13FCA
  8
0
 10
317.28434761320892
 20
464.7085527670551
 30
0.0
  0
VERTEX
  5
13FCB
  8
0
 10
318.34013750593277
 20
464.59394242830228
 30
0.0
  0
VERTEX
  5
13FCC
  8
0
 10
318.90231598404762
 20
464.513097775044
 30
0.0
  0
SEQEND
  5
13FCD
  8
0
  0
POLYLINE
  5
7B74
  8
0
 66
     1
 10
0.0
 20
0.0
 30
0.0
  0
VERTEX
  5
13FCE
  8
0
 10
318.90231598404762
 20
459.53193719387531
 30
0.0
  0
VERTEX
  5
13FCF
  8
0
 10
318.34013750594198
 20
459.45109254061839
 30
0.0
  0
VERTEX
  5
13FD0
  8
0
 10
317.28434761323462
 20
459.33648220186609
 30
0.0
  0
VERTEX
  5
13FD1
  8
0
 10
316.27558706933848
 20
459.27970761808081
 30
0.0
  0
VERTEX
  5
13FD2
  8
0
 10
315.77314931743172
 20
459.2725174844594
 30
0.0
  0
SEQEND
  5
13FD3
  8
0
  0
POLYLINE
  5
7B75
  8
0
 66
     1
 10
0.0
 20
0.0
 30
0.0
  0
VERTEX
  5
13FD4
  8
0
 10
315.77314931738101
 20
459.2725174844594
 30
0.0
  0
VERTEX
  5
13FD5
  8
0
 10
315.27071156546549
 20
459.2797076180795
 30
0.0
  0
VERTEX
  5
13FD6
  8
0
 10
314.26195102155322
 20
459.33648220186382
 30
0.0
  0
VERTEX
  5
13FD7
  8
0
 10
313.20616112882919
 20
459.45109254061703
 30
0.0
  0
VERTEX
  5
13FD8
  8
0
 10
312.64398265071429
 20
459.53193719387531
 30
0.0
  0
SEQEND
  5
13FD9
  8
0
  0
POLYLINE
  5
7B76
  8
0
 66
     1
 10
0.0
 20
0.0
 30
0.0
  0
VERTEX
  5
13FDA
  8
0
 10
312.64398265071429
 20
464.513097775044
 30
0.0
  0
VERTEX
  5
13FDB
  8
0
 10
313.20616112882919
 20
464.59394242830228
 30
0.0
  0
VERTEX
  5
13FDC
  8
0
 10
314.26195102155322
 20
464.7085527670551
 30
0.0
  0
VERTEX
  5
13FDD
  8
0
 10
315.27071156546549
 20
464.76532735083993
 30
0.0
  0
VERTEX
  5
13FDE
  8
0
 10
315.77314931738101
 20
464.7725174844594
 30
0.0
  0
SEQEND
  5
13FDF
  8
0
  0
POLYLINE
  5
7B77
  8
0
 66
     1
 10
0.0
 20
0.0
 30
0.0
  0
VERTEX
  5
13FE0
  8
0
 10
322.03148265071428
 20
464.7725174844594
 30
0.0
  0
VERTEX
  5
13FE1
  8
0
 10
322.5339204026298
 20
464.76532735083993
 30
0.0
  0
VERTEX
  5
13FE2
  8
0
 10
323.54268094654219
 20
464.7085527670551
 30
0.0
  0
VERTEX
  5
13FE3
  8
0
 10
324.59847083926621
 20
464.59394242830228
 30
0.0
  0
VERTEX
  5
13FE4
  8
0
 10
325.160649317381
 20
464.513097775044
 30
0.0
  0
SEQEND
  5
13FE5
  8
0
  0
POLYLINE
  5
7B79
  8
0
 66
     1
 10
0.0
 20
0.0
 30
0.0
  0
VERTEX
  5
13FE6
  8
0
 10
325.160649317381
 20
459.53193719387531
 30
0.0
  0
VERTEX
  5
13FE7
  8
0
 10
324.59847083926621
 20
459.45109254061703
 30
0.0
  0
VERTEX
  5
13FE8
  8
0
 10
323.54268094654219
 20
459.33648220186382
 30
0.0
  0
VERTEX
  5
13FE9
  8
0
 10
322.5339204026298
 20
459.2797076180795
 30
0.0
  0
VERTEX
  5
13FEA
  8
0
 10
322.03148265071428
 20
459.2725174844594
 30
0.0
  0
SEQEND
  5
13FEB
  8
0
  0
POLYLINE
  5
7B7A
  8
0
 66
     1
 10
0.0
 20
0.0
 30
0.0
  0
VERTEX
  5
13FEC
  8
0
 10
322.03148265071428
 20
459.2725174844594
 30
0.0
  0
VERTEX
  5
13FED
  8
0
 10
321.52904489879882
 20
459.2797076180795
 30
0.0
  0
VERTEX
  5
13FEE
  8
0
 10
320.52028435488648
 20
459.33648220186382
 30
0.0
  0
VERTEX
  5
13FEF
  8
0
 10
319.46449446216252
 20
459.45109254061703
 30
0.0
  0
VERTEX
  5
13FF0
  8
0
 10
318.90231598404762
 20
459.53193719387531
 30
0.0
  0
SEQEND
  5
13FF1
  8
0
  0
LINE
  5
7B7B
  8
0
 10
318.90231598404762
 20
459.53193719387531
 30
0.0
 11
318.90231598404762
 21
464.513097775044
 31
0.0
  0
POLYLINE
  5
7B7C
  8
0
 66
     1
 10
0.0
 20
0.0
 30
0.0
  0
VERTEX
  5
13FF2
  8
0
 10
318.90231598404762
 20
464.513097775044
 30
0.0
  0
VERTEX
  5
13FF3
  8
0
 10
319.46449446216252
 20
464.59394242830228
 30
0.0
  0
VERTEX
  5
13FF4
  8
0
 10
320.52028435488648
 20
464.7085527670551
 30
0.0
  0
VERTEX
  5
13FF5
  8
0
 10
321.52904489879882
 20
464.76532735083993
 30
0.0
  0
VERTEX
  5
13FF6
  8
0
 10
322.03148265071428
 20
464.7725174844594
 30
0.0
  0
SEQEND
  5
13FF7
  8
0
  0
LINE
  5
7B80
  8
3
 10
315.66931598404773
 20
470.2725174844594
 30
0.0
 11
315.66931598404773
 21
467.2725174844594
 31
0.0
  0
LINE
  5
7B81
  8
3
 10
322.13531598404768
 20
470.2725174844594
 30
0.0
 11
322.13531598404768
 21
467.2725174844594
 31
0.0
  0
LINE
  5
7B82
  8
0
 10
293.90231598404762
 20
426.13281480220058
 30
0.0
 11
343.90231598404762
 21
426.13281480220058
 31
0.0
  0
LINE
  5
7B83
  8
0
 10
293.90231598404762
 20
443.4122201667181
 30
0.0
 11
343.90231598404762
 21
443.4122201667181
 31
0.0
  0
LINE
  5
7B84
  8
0
 10
292.26261330178897
 20
441.7725174844594
 30
0.0
 11
292.26261330178897
 21
427.77251748445951
 31
0.0
  0
LINE
  5
7B85
  8
0
 10
345.54201866630638
 20
441.7725174844594
 30
0.0
 11
345.54201866630638
 21
427.77251748445951
 31
0.0
  0
ARC
  5
7B86
  8
0
 10
343.90231598404762
 20
427.77251748445951
 30
0.0
 40
1.6397026822587399
 50
270.0
 51
0.0
  0
LINE
  5
7B87
  8
0
 10
287.48650844673818
 20
477.2725174844594
 30
0.0
 11
273.5914268515923
 21
477.2725174844594
 31
0.0
  0
ARC
  5
7B88
  8
0
 10
287.48650844673818
 20
467.2725174844594
 30
0.0
 40
10.00000000000003
 50
30.0
 51
90.0
  0
LINE
  5
7B89
  8
0
 10
299.17785139782802
 20
467.02251748445951
 30
0.0
 11
296.1467624845825
 21
472.2725174844594
 31
0.0
  0
ARC
  5
7B8A
  8
0
 10
312.60124515648693
 20
474.7725174844594
 30
0.0
 40
15.5
 50
210.0
 51
270.0
  0
LINE
  5
7B8B
  8
0
 10
325.20338681160842
 20
459.2725174844594
 30
0.0
 11
312.60124515648693
 21
459.2725174844594
 31
0.0
  0
ARC
  5
7B8C
  8
0
 10
325.2033868116086
 20
474.7725174844594
 30
0.0
 40
15.49999999999998
 50
270.0
 51
330.0
  0
LINE
  5
7B8D
  8
0
 10
341.6578694835128
 20
472.2725174844594
 30
0.0
 11
338.62678057026727
 21
467.02251748445951
 31
0.0
  0
ARC
  5
7B8E
  8
0
 10
350.31812352135722
 20
467.2725174844594
 30
0.0
 40
10.00000000000003
 50
90.0
 51
150.0
  0
LINE
  5
7B8F
  8
0
 10
364.21320511650299
 20
477.2725174844594
 30
0.0
 11
350.31812352135722
 21
477.2725174844594
 31
0.0
  0
LINE
  5
7B90
  8
0
 10
368.90231598404762
 20
459.7725174844594
 30
0.0
 11
364.21320511650299
 21
477.2725174844594
 31
0.0
  0
LINE
  5
7B91
  8
0
 10
368.90231598404762
 20
409.7725174844594
 30
0.0
 11
368.90231598404762
 21
459.7725174844594
 31
0.0
  0
LINE
  5
7B92
  8
0
 10
364.21320511650299
 20
392.27251748445951
 30
0.0
 11
368.90231598404762
 21
409.7725174844594
 31
0.0
  0
LINE
  5
7B93
  8
0
 10
350.31812352135722
 20
392.27251748445951
 30
0.0
 11
364.21320511650299
 21
392.27251748445951
 31
0.0
  0
ARC
  5
7B94
  8
0
 10
350.31812352135728
 20
402.27251748445991
 30
0.0
 40
10.00000000000005
 50
210.0
 51
270.0
  0
LINE
  5
7B95
  8
0
 10
338.62678057026721
 20
402.5225174844594
 30
0.0
 11
341.6578694835128
 21
397.27251748445951
 31
0.0
  0
ARC
  5
7B96
  8
0
 10
325.20338681160842
 20
394.77251748445991
 30
0.0
 40
15.49999999999997
 50
30.0
 51
90.0
  0
LINE
  5
7B97
  8
0
 10
312.60124515648681
 20
410.2725174844594
 30
0.0
 11
325.20338681160842
 21
410.2725174844594
 31
0.0
  0
ARC
  5
7B98
  8
0
 10
312.60124515648681
 20
394.7725174844594
 30
0.0
 40
15.49999999999998
 50
90.0
 51
150.0
  0
LINE
  5
7B99
  8
0
 10
296.1467624845825
 20
397.27251748445951
 30
0.0
 11
299.17785139782802
 21
402.5225174844594
 31
0.0
  0
ARC
  5
7B9A
  8
0
 10
287.48650844673818
 20
402.27251748445991
 30
0.0
 40
10.00000000000003
 50
270.0
 51
330.0
  0
LINE
  5
7B9B
  8
0
 10
273.5914268515923
 20
392.27251748445951
 30
0.0
 11
287.48650844673813
 21
392.27251748445951
 31
0.0
  0
LINE
  5
7B9C
  8
0
 10
268.90231598404762
 20
409.7725174844594
 30
0.0
 11
273.5914268515923
 21
392.27251748445951
 31
0.0
  0
LINE
  5
7B9D
  8
0
 10
268.90231598404762
 20
459.7725174844594
 30
0.0
 11
268.90231598404762
 21
409.7725174844594
 31
0.0
  0
LINE
  5
7B9E
  8
0
 10
273.5914268515923
 20
477.2725174844594
 30
0.0
 11
268.90231598404762
 21
459.7725174844594
 31
0.0
  0
ARC
  5
7B9F
  8
0
 10
358.90231598404762
 20
404.7725174844594
 30
0.0
 40
4.4999999999999876
 50
198.43494882291421
 51
18.43494882291423
  0
LINE
  5
7BA0
  8
0
 10
363.17139082527501
 20
406.1955424315355
 30
0.0
 11
360.67139082527501
 21
413.6955424315355
 31
0.0
  0
ARC
  5
7BA1
  8
0
 10
356.40231598404762
 20
412.2725174844594
 30
0.0
 40
4.4999999999999938
 50
18.43494882291423
 51
198.43494882291421
  0
LINE
  5
7BA2
  8
0
 10
352.1332411428204
 20
410.84949253738381
 30
0.0
 11
354.63324114282028
 21
403.34949253738381
 31
0.0
  0
ARC
  5
7BA3
  8
0
 10
358.90231598404768
 20
464.7725174844594
 30
0.0
 40
4.5000000000000018
 50
341.56505117708571
 51
161.56505117708571
  0
LINE
  5
7BA4
  8
0
 10
354.63324114282028
 20
466.19554243153561
 30
0.0
 11
352.1332411428204
 21
458.6955424315355
 31
0.0
  0
ARC
  5
7BA5
  8
0
 10
356.40231598404768
 20
457.2725174844594
 30
0.0
 40
4.5000000000000018
 50
161.56505117708571
 51
341.56505117708571
  0
LINE
  5
7BA6
  8
0
 10
360.67139082527501
 20
455.84949253738381
 30
0.0
 11
363.17139082527501
 21
463.3494925373837
 31
0.0
  0
ARC
  5
7BA7
  8
0
 10
281.40231598404762
 20
412.2725174844594
 30
0.0
 40
4.4999999999999973
 50
341.56505117708571
 51
161.56505117708571
  0
LINE
  5
7BA8
  8
0
 10
277.1332411428204
 20
413.6955424315355
 30
0.0
 11
274.63324114282028
 21
406.1955424315355
 31
0.0
  0
ARC
  5
7BA9
  8
0
 10
278.90231598404768
 20
404.7725174844594
 30
0.0
 40
4.5000000000000009
 50
161.56505117708571
 51
341.56505117708571
  0
LINE
  5
7BAA
  8
0
 10
283.17139082527501
 20
403.34949253738381
 30
0.0
 11
285.67139082527501
 21
410.84949253738381
 31
0.0
  0
ARC
  5
7BAB
  8
0
 10
281.40231598404762
 20
457.2725174844594
 30
0.0
 40
4.5000000000000027
 50
198.43494882291421
 51
18.43494882291423
  0
LINE
  5
7BAC
  8
0
 10
285.67139082527501
 20
458.6955424315355
 30
0.0
 11
283.17139082527501
 21
466.19554243153561
 31
0.0
  0
ARC
  5
7BAD
  8
0
 10
278.90231598404762
 20
464.7725174844594
 30
0.0
 40
4.5000000000000027
 50
18.43494882291423
 51
198.43494882291421
  0
LINE
  5
7BAE
  8
0
 10
274.63324114282028
 20
463.3494925373837
 30
0.0
 11
277.1332411428204
 21
455.84949253738381
 31
0.0
  0
LINE
  5
7BAF
  8
0
 10
287.17257007122151
 20
427.77251748445951
 30
0.0
 11
287.17257007122151
 21
441.7725174844594
 31
0.0
  0
LINE
  5
7BB0
  8
0
 10
343.90231598404762
 20
421.04277157163358
 30
0.0
 11
293.90231598404762
 21
421.04277157163358
 31
0.0
  0
ARC
  5
7BB1
  8
0
 10
343.90231598404762
 20
427.77251748445951
 30
0.0
 40
6.7297459128262069
 50
270.0
 51
0.0
  0
LINE
  5
7BB2
  8
0
 10
350.63206189687389
 20
427.77251748445951
 30
0.0
 11
350.63206189687389
 21
441.7725174844594
 31
0.0
  0
LINE
  5
7BB3
  8
0
 10
343.90231598404762
 20
448.50226339728567
 30
0.0
 11
293.90231598404762
 21
448.50226339728567
 31
0.0
  0
ARC
  5
7BB4
  8
0
 10
343.90231598404762
 20
441.7725174844594
 30
0.0
 40
1.6397026822587499
 50
0.0
 51
90.0
  0
ARC
  5
7BB5
  8
0
 10
343.90231598404762
 20
441.7725174844594
 30
0.0
 40
6.7297459128262238
 50
0.0
 51
90.0
  0
ARC
  5
7BB6
  8
0
 10
293.90231598404768
 20
427.77251748445951
 30
0.0
 40
6.729745912826214
 50
180.0
 51
270.0
  0
ARC
  5
7BB7
  8
0
 10
293.90231598404768
 20
427.77251748445951
 30
0.0
 40
1.6397026822587391
 50
180.0
 51
270.0
  0
ARC
  5
7BB8
  8
0
 10
293.90231598404762
 20
441.7725174844594
 30
0.0
 40
1.639702682258747
 50
90.0
 51
180.0
  0
ARC
  5
7BB9
  8
0
 10
293.90231598404762
 20
441.7725174844594
 30
0.0
 40
6.7297459128262203
 50
90.0
 51
180.0000008537736
  0
LINE
  5
7BBA
  8
1
 10
318.90231598404762
 20
390.90689540802481
 30
0.0
 11
318.90231598404762
 21
478.63813956089461
 31
0.0
  0
LINE
  5
7BBB
  8
1
 10
365.76081126706191
 20
404.7725174844594
 30
0.0
 11
352.0438207010335
 21
404.7725174844594
 31
0.0
  0
LINE
  5
7BBC
  8
1
 10
358.90231598404768
 20
411.63101276747358
 30
0.0
 11
358.90231598404768
 21
397.91402220144568
 31
0.0
  0
LINE
  5
7BBD
  8
1
 10
363.2608112670618
 20
412.2725174844594
 30
0.0
 11
349.5438207010335
 21
412.2725174844594
 31
0.0
  0
LINE
  5
7BBE
  8
1
 10
356.40231598404762
 20
419.13101276747369
 30
0.0
 11
356.40231598404762
 21
405.41402220144562
 31
0.0
  0
LINE
  5
7BBF
  8
1
 10
365.76081126706191
 20
464.7725174844594
 30
0.0
 11
352.0438207010335
 21
464.7725174844594
 31
0.0
  0
LINE
  5
7BC0
  8
1
 10
358.90231598404768
 20
471.63101276747369
 30
0.0
 11
358.90231598404768
 21
457.91402220144511
 31
0.0
  0
LINE
  5
7BC1
  8
1
 10
363.2608112670618
 20
457.2725174844594
 30
0.0
 11
349.5438207010335
 21
457.2725174844594
 31
0.0
  0
LINE
  5
7BC2
  8
1
 10
356.40231598404762
 20
464.13101276747369
 30
0.0
 11
356.40231598404762
 21
450.41402220144568
 31
0.0
  0
LINE
  5
7BC3
  8
1
 10
288.2608112670618
 20
412.2725174844594
 30
0.0
 11
274.5438207010335
 21
412.2725174844594
 31
0.0
  0
LINE
  5
7BC4
  8
1
 10
281.40231598404768
 20
419.13101276747369
 30
0.0
 11
281.40231598404768
 21
405.41402220144562
 31
0.0
  0
LINE
  5
7BC5
  8
1
 10
285.7608112670618
 20
404.7725174844594
 30
0.0
 11
272.0438207010335
 21
404.7725174844594
 31
0.0
  0
LINE
  5
7BC6
  8
1
 10
278.90231598404762
 20
411.63101276747358
 30
0.0
 11
278.90231598404762
 21
397.91402220144568
 31
0.0
  0
LINE
  5
7BC7
  8
1
 10
288.2608112670618
 20
457.2725174844594
 30
0.0
 11
274.5438207010335
 21
457.2725174844594
 31
0.0
  0
LINE
  5
7BC8
  8
1
 10
281.40231598404762
 20
464.13101276747369
 30
0.0
 11
281.40231598404762
 21
450.41402220144568
 31
0.0
  0
LINE
  5
7BC9
  8
1
 10
285.7608112670618
 20
464.7725174844594
 30
0.0
 11
272.0438207010335
 21
464.7725174844594
 31
0.0
  0
LINE
  5
7BCA
  8
1
 10
278.90231598404762
 20
471.63101276747369
 30
0.0
 11
278.90231598404762
 21
457.91402220144568
 31
0.0
  0
ARC
  5
7BCB
  8
0
 10
377.3830820529015
 20
419.27251748445951
 30
0.0
 40
2.0000000000000031
 50
270.0
 51
345.1553955529107
  0
ARC
  5
7BCC
  8
0
 10
260.42154991519379
 20
419.27251748445951
 30
0.0
 40
2.0000000000000129
 50
194.84460444708921
 51
270.0
  0
ARC
  5
7BCD
  8
0
 10
318.90231598404762
 20
434.7725174844594
 30
0.0
 40
62.50000000000005
 50
345.1553955529107
 51
14.84460444708923
  0
ARC
  5
7BCE
  8
0
 10
318.90231598404768
 20
434.7725174844594
 30
0.0
 40
62.500000000000028
 50
165.1553955529107
 51
194.84460444708921
  0
ARC
  5
7BCF
  8
0
 10
377.3830820529015
 20
450.2725174844594
 30
0.0
 40
1.9999999999999889
 50
14.84460444708923
 51
90.0
  0
ARC
  5
7BD0
  8
0
 10
260.42154991519379
 20
450.2725174844594
 30
0.0
 40
2.0000000000000102
 50
90.0
 51
165.1553955529107
  0
LINE
  5
7BD1
  8
0
 10
377.3830820529015
 20
417.2725174844594
 30
0.0
 11
368.96241775792362
 21
417.2725174844594
 31
0.0
  0
LINE
  5
7BD2
  8
0
 10
268.84221421017179
 20
417.2725174844594
 30
0.0
 11
260.42154991519379
 21
417.2725174844594
 31
0.0
  0
LINE
  5
7BD3
  8
0
 10
377.3830820529015
 20
452.2725174844594
 30
0.0
 11
368.96241775792362
 21
452.2725174844594
 31
0.0
  0
LINE
  5
7BD4
  8
0
 10
268.84221421017179
 20
452.2725174844594
 30
0.0
 11
260.42154991519379
 21
452.2725174844594
 31
0.0
  0
LINE
  5
7BD5
  8
0
 10
325.16064931738049
 20
205.8569391660985
 30
0.0
 11
325.16064931738049
 21
198.6304382967414
 31
0.0
  0
LINE
  5
7BD6
  8
0
 10
312.64398265071378
 20
205.8569391660985
 30
0.0
 11
312.64398265071378
 21
198.6304382967414
 31
0.0
  0
LINE
  5
7BD7
  8
0
 10
325.16064931738049
 20
198.6304382967414
 30
0.0
 11
318.90231598404722
 21
195.017187862063
 31
0.0
  0
LINE
  5
7BD8
  8
0
 10
312.64398265071378
 20
198.6304382967414
 30
0.0
 11
318.90231598404722
 21
195.017187862063
 31
0.0
  0
LINE
  5
7BD9
  8
0
 10
325.16064931738049
 20
205.8569391660989
 30
0.0
 11
318.90231598404722
 21
209.4701896007773
 31
0.0
  0
LINE
  5
7BDA
  8
0
 10
312.64398265071378
 20
205.8569391660989
 30
0.0
 11
318.90231598404722
 21
209.4701896007773
 31
0.0
  0
LINE
  5
7BDD
  8
0
 10
567.24266464464097
 20
198.24368873142009
 30
0.0
 11
565.00966464464102
 21
198.24368873142009
 31
0.0
  0
LINE
  5
7BDF
  8
0
 10
568.00966464464091
 20
199.01068873142
 30
0.0
 11
567.24266464464097
 21
198.24368873142009
 31
0.0
  0
LINE
  5
7BE2
  8
0
 10
502.96908435405652
 20
195.01718786206331
 30
0.0
 11
502.70966464464101
 21
195.98535539808671
 31
0.0
  0
LINE
  5
7BE7
  8
0
 10
565.00966464464102
 20
196.4286887314201
 30
0.0
 11
562.50966464464102
 21
196.4286887314201
 31
0.0
  0
LINE
  5
7BEC
  8
0
 10
562.50966464464102
 20
195.98535539808671
 30
0.0
 11
562.2502449352254
 21
195.01718786206331
 31
0.0
  0
LINE
  5
7BEF
  8
0
 10
555.00966464464102
 20
194.74368873142009
 30
0.0
 11
550.00966464464102
 21
194.74368873142009
 31
0.0
  0
LINE
  5
7BF1
  8
0
 10
515.00966464464113
 20
194.74368873142009
 30
0.0
 11
510.00966464464091
 21
194.74368873142009
 31
0.0
  0
LINE
  5
7BF2
  8
0
 10
510.00966464464091
 20
209.74368873142021
 30
0.0
 11
515.00966464464113
 21
209.74368873142021
 31
0.0
  0
LINE
  5
7BF4
  8
0
 10
550.00966464464102
 20
209.74368873142021
 30
0.0
 11
555.00966464464102
 21
209.74368873142021
 31
0.0
  0
LINE
  5
7BF7
  8
0
 10
567.24266464464097
 20
203.14272735118851
 30
0.0
 11
567.24266464464097
 21
198.24368873142009
 31
0.0
  0
LINE
  5
7BF9
  8
0
 10
568.00966464464091
 20
203.9107536273531
 30
0.0
 11
568.00966464464091
 21
199.01068873142
 31
0.0
  0
LINE
  5
7BFA
  8
0
 10
502.70966464464101
 20
197.61941662084831
 30
0.0
 11
502.70966464464101
 21
195.98535539808671
 31
0.0
  0
POLYLINE
  5
7BFE
  8
0
 66
     1
 10
0.0
 20
0.0
 30
0.0
  0
VERTEX
  5
13FF8
  8
0
 10
502.75462619129109
 20
197.55327140270259
 30
0.0
  0
VERTEX
  5
13FF9
  8
0
 10
502.7409471159728
 20
197.43104511773751
 30
0.0
  0
VERTEX
  5
13FFA
  8
0
 10
502.72099403518831
 20
197.18816720581381
 30
0.0
  0
VERTEX
  5
13FFB
  8
0
 10
502.7109348247559
 20
196.94562870493351
 30
0.0
  0
VERTEX
  5
13FFC
  8
0
 10
502.70966464464101
 20
196.82381307940241
 30
0.0
  0
SEQEND
  5
13FFD
  8
0
  0
POLYLINE
  5
7BFF
  8
0
 66
     1
 10
0.0
 20
0.0
 30
0.0
  0
VERTEX
  5
13FFE
  8
0
 10
502.70966464464101
 20
196.82381307940241
 30
0.0
  0
VERTEX
  5
13FFF
  8
0
 10
502.71685477826099
 20
196.5337305080829
 30
0.0
  0
VERTEX
  5
14000
  8
0
 10
502.77362936204531
 20
195.95132233650739
 30
0.0
  0
VERTEX
  5
14001
  8
0
 10
502.88823970079841
 20
195.34176175773561
 30
0.0
  0
VERTEX
  5
14002
  8
0
 10
502.96908435405652
 20
195.01718786206331
 30
0.0
  0
SEQEND
  5
14003
  8
0
  0
LINE
  5
7C02
  8
0
 10
502.96908435405652
 20
195.01718786206331
 30
0.0
 11
504.2470577551851
 21
195.01718786206331
 31
0.0
  0
LINE
  5
7C1C
  8
0
 10
565.00966464464102
 20
200.90720795705661
 30
0.0
 11
565.00966464464102
 21
196.4286887314201
 31
0.0
  0
LINE
  5
7C1F
  8
0
 10
562.50966464464102
 20
197.92122067781099
 30
0.0
 11
562.50966464464102
 21
195.98535539808671
 31
0.0
  0
POLYLINE
  5
7C22
  8
0
 66
     1
 10
0.0
 20
0.0
 30
0.0
  0
VERTEX
  5
14004
  8
0
 10
562.2502449352254
 20
195.01718786206331
 30
0.0
  0
VERTEX
  5
14005
  8
0
 10
562.33108958848356
 20
195.34176175773561
 30
0.0
  0
VERTEX
  5
14006
  8
0
 10
562.44569992723666
 20
195.95132233650739
 30
0.0
  0
VERTEX
  5
14007
  8
0
 10
562.50247451102098
 20
196.5337305080829
 30
0.0
  0
VERTEX
  5
14008
  8
0
 10
562.50966464464102
 20
196.82381307940241
 30
0.0
  0
SEQEND
  5
14009
  8
0
  0
POLYLINE
  5
7C23
  8
0
 66
     1
 10
0.0
 20
0.0
 30
0.0
  0
VERTEX
  5
1400A
  8
0
 10
562.50966464464102
 20
196.82381307940241
 30
0.0
  0
VERTEX
  5
1400B
  8
0
 10
562.50740915723031
 20
196.98616383338
 30
0.0
  0
VERTEX
  5
1400C
  8
0
 10
562.48958016196036
 20
197.3095654836192
 30
0.0
  0
VERTEX
  5
1400D
  8
0
 10
562.4541735347342
 20
197.6354527343637
 30
0.0
  0
VERTEX
  5
1400E
  8
0
 10
562.42981674007774
 20
197.80089085809001
 30
0.0
  0
SEQEND
  5
1400F
  8
0
  0
LINE
  5
7C26
  8
0
 10
560.77227835520318
 20
195.01718786206331
 30
0.0
 11
562.2502449352254
 21
195.01718786206331
 31
0.0
  0
LINE
  5
7C47
  8
1
 10
488.29389983399409
 20
202.24368873141989
 30
0.0
 11
576.72542945528812
 21
202.24368873142021
 31
0.0
  0
LINE
  5
7C5F
  8
0
 10
573.00966464464102
 20
293.74368873142021
 30
0.0
 11
573.00966464464102
 21
215.4456641788785
 31
0.0
  0
LINE
  5
7C60
  8
0
 10
573.00966464464102
 20
293.74368873142021
 30
0.0
 11
492.00966464464102
 21
293.74368873142021
 31
0.0
  0
LINE
  5
7C61
  8
0
 10
555.00966464464102
 20
293.74368873142021
 30
0.0
 11
555.00966464464102
 21
190.74368873142009
 31
0.0
  0
LINE
  5
7C64
  8
0
 10
492.00966464464102
 20
293.74368873142021
 30
0.0
 11
492.00966464464102
 21
215.4456641788785
 31
0.0
  0
POLYLINE
  5
7C67
  8
0
 66
     1
 10
0.0
 20
0.0
 30
0.0
  0
VERTEX
  5
14010
  8
0
 10
490.18129065168722
 20
212.90321381140549
 30
0.0
  0
VERTEX
  5
14011
  8
0
 10
490.17030317498018
 20
212.96325150546261
 30
0.0
  0
VERTEX
  5
14012
  8
0
 10
490.14961624423358
 20
213.08536231674111
 30
0.0
  0
VERTEX
  5
14013
  8
0
 10
490.13061106109552
 20
213.21015325225849
 30
0.0
  0
VERTEX
  5
14014
  8
0
 10
490.12172494996929
 20
213.27354006394441
 30
0.0
  0
VERTEX
  5
14015
  8
0
 10
490.11324184171059
 20
213.33757994250999
 30
0.0
  0
VERTEX
  5
14016
  8
0
 10
490.09745946189651
 20
213.46759396417559
 30
0.0
  0
VERTEX
  5
14017
  8
0
 10
490.0832116485339
 20
213.60014322498901
 30
0.0
  0
VERTEX
  5
14018
  8
0
 10
490.07044320445351
 20
213.73517235906911
 30
0.0
  0
VERTEX
  5
14019
  8
0
 10
490.05909626044712
 20
213.87262313153221
 30
0.0
  0
VERTEX
  5
1401A
  8
0
 10
490.04911054857052
 20
214.0124348516276
 30
0.0
  0
VERTEX
  5
1401B
  8
0
 10
490.04460873599101
 20
214.08320653316011
 30
0.0
  0
VERTEX
  5
1401C
  8
0
 10
490.0404236914498
 20
214.15454479401379
 30
0.0
  0
VERTEX
  5
1401D
  8
0
 10
490.03297150279229
 20
214.2988886281077
 30
0.0
  0
VERTEX
  5
1401E
  8
0
 10
490.02668824462643
 20
214.44540214954301
 30
0.0
  0
VERTEX
  5
1401F
  8
0
 10
490.02150707910511
 20
214.5940187754376
 30
0.0
  0
VERTEX
  5
14020
  8
0
 10
490.01736039486178
 20
214.74466654701919
 30
0.0
  0
VERTEX
  5
14021
  8
0
 10
490.01417991388212
 20
214.89727081758471
 30
0.0
  0
VERTEX
  5
14022
  8
0
 10
490.01293054218991
 20
214.97428266091941
 30
0.0
  0
VERTEX
  5
14023
  8
0
 10
490.01189694316582
 20
215.0517545886982
 30
0.0
  0
VERTEX
  5
14024
  8
0
 10
490.01044263481708
 20
215.20803883818411
 30
0.0
  0
VERTEX
  5
14025
  8
0
 10
490.00974825054652
 20
215.3660428558118
 30
0.0
  0
VERTEX
  5
14026
  8
0
 10
490.00966464464102
 20
215.4456641788785
 30
0.0
  0
SEQEND
  5
14027
  8
0
  0
POLYLINE
  5
7C69
  8
0
 66
     1
 10
0.0
 20
0.0
 30
0.0
  0
VERTEX
  5
14028
  8
0
 10
493.37818558552749
 20
207.26306973758179
 30
0.0
  0
VERTEX
  5
14029
  8
0
 10
493.24203512381229
 20
207.38594357564941
 30
0.0
  0
VERTEX
  5
1402A
  8
0
 10
492.97660809087671
 20
207.63907771070421
 30
0.0
  0
VERTEX
  5
1402B
  8
0
 10
492.72064251640398
 20
207.9017753026759
 30
0.0
  0
VERTEX
  5
1402C
  8
0
 10
492.59631589432672
 20
208.0366004462862
 30
0.0
  0
VERTEX
  5
1402D
  8
0
 10
492.47448274678658
 20
208.17368294869709
 30
0.0
  0
VERTEX
  5
1402E
  8
0
 10
492.23845993682409
 20
208.45443485576141
 30
0.0
  0
VERTEX
  5
1402F
  8
0
 10
492.01289160422692
 20
208.7436533328202
 30
0.0
  0
VERTEX
  5
14030
  8
0
 10
491.79808120246412
 20
209.04094929888331
 30
0.0
  0
VERTEX
  5
14031
  8
0
 10
491.59431771253219
 20
209.34592280644361
 30
0.0
  0
VERTEX
  5
14032
  8
0
 10
491.40187525419492
 20
209.6581635795209
 30
0.0
  0
VERTEX
  5
14033
  8
0
 10
491.30998091951147
 20
209.81687829074781
 30
0.0
  0
VERTEX
  5
14034
  8
0
 10
491.22101271721198
 20
209.97725156559861
 30
0.0
  0
VERTEX
  5
14035
  8
0
 10
491.05197341306132
 20
210.30275750071351
 30
0.0
  0
VERTEX
  5
14036
  8
0
 10
490.8949847476141
 20
210.63424348693931
 30
0.0
  0
VERTEX
  5
14037
  8
0
 10
490.75025791521051
 20
210.9712635814814
 30
0.0
  0
VERTEX
  5
14038
  8
0
 10
490.61798761454281
 20
211.3133643965991
 30
0.0
  0
VERTEX
  5
14039
  8
0
 10
490.49835178673038
 20
211.66008570953861
 30
0.0
  0
VERTEX
  5
1403A
  8
0
 10
490.44332276521777
 20
211.83503351632129
 30
0.0
  0
VERTEX
  5
1403B
  8
0
 10
490.39151137593808
 20
212.01096108166479
 30
0.0
  0
VERTEX
  5
1403C
  8
0
 10
490.29761011286149
 20
212.3655184859528
 30
0.0
  0
VERTEX
  5
1403D
  8
0
 10
490.21677432136761
 20
212.72328094199929
 30
0.0
  0
VERTEX
  5
1403E
  8
0
 10
490.18129065168722
 20
212.90321381140549
 30
0.0
  0
SEQEND
  5
1403F
  8
0
  0
POLYLINE
  5
7C6C
  8
0
 66
     1
 10
0.0
 20
0.0
 30
0.0
  0
VERTEX
  5
14040
  8
0
 10
495.00966464464102
 20
205.8485255471837
 30
0.0
  0
VERTEX
  5
14041
  8
0
 10
494.7286952963251
 20
206.0865343654159
 30
0.0
  0
VERTEX
  5
14042
  8
0
 10
494.17562198042521
 20
206.5627701174505
 30
0.0
  0
VERTEX
  5
14043
  8
0
 10
493.63881621734112
 20
207.0327475722124
 30
0.0
  0
VERTEX
  5
14044
  8
0
 10
493.37818558552749
 20
207.26306973758179
 30
0.0
  0
SEQEND
  5
14045
  8
0
  0
LINE
  5
7C6F
  8
0
 10
510.00966464464091
 20
190.74368873142009
 30
0.0
 11
507.88961044649687
 21
190.74368873142009
 31
0.0
  0
POLYLINE
  5
7C70
  8
0
 66
     1
 10
0.0
 20
0.0
 30
0.0
  0
VERTEX
  5
14046
  8
0
 10
503.83191565593012
 20
195.74368873142009
 30
0.0
  0
VERTEX
  5
14047
  8
0
 10
503.96767310694048
 20
195.49715234719491
 30
0.0
  0
VERTEX
  5
14048
  8
0
 10
504.24488704959703
 20
195.02078180563231
 30
0.0
  0
VERTEX
  5
14049
  8
0
 10
504.52601663505828
 20
194.56810037685449
 30
0.0
  0
VERTEX
  5
1404A
  8
0
 10
504.6667297836272
 20
194.35115971730639
 30
0.0
  0
VERTEX
  5
1404B
  8
0
 10
504.80687130730507
 20
194.1407532106895
 30
0.0
  0
VERTEX
  5
1404C
  8
0
 10
505.08354531551799
 20
193.74029537833709
 30
0.0
  0
VERTEX
  5
1404D
  8
0
 10
505.3567249628253
 20
193.36234955452289
 30
0.0
  0
VERTEX
  5
1404E
  8
0
 10
505.63098911620972
 20
192.9986447265232
 30
0.0
  0
VERTEX
  5
1404F
  8
0
 10
505.9029360934137
 20
192.6525466788577
 30
0.0
  0
VERTEX
  5
14050
  8
0
 10
506.1690818803649
 20
192.3274085168741
 30
0.0
  0
VERTEX
  5
14051
  8
0
 10
506.29894115354199
 20
192.17366363339161
 30
0.0
  0
VERTEX
  5
14052
  8
0
 10
506.4261272547684
 20
192.02628412269189
 30
0.0
  0
VERTEX
  5
14053
  8
0
 10
506.67096712128898
 20
191.75197332820011
 30
0.0
  0
VERTEX
  5
14054
  8
0
 10
506.90075528108167
 20
191.50698257232779
 30
0.0
  0
VERTEX
  5
14055
  8
0
 10
507.11309627147921
 20
191.2933563840196
 30
0.0
  0
VERTEX
  5
14056
  8
0
 10
507.30580859173602
 20
191.11295162762769
 30
0.0
  0
VERTEX
  5
14057
  8
0
 10
507.47698797949408
 20
190.96734674981391
 30
0.0
  0
VERTEX
  5
14058
  8
0
 10
507.55402818607809
 20
190.90796456456101
 30
0.0
  0
VERTEX
  5
14059
  8
0
 10
507.56629858083733
 20
190.89894856254921
 30
0.0
  0
VERTEX
  5
1405A
  8
0
 10
507.59034581344662
 20
190.88167524382229
 30
0.0
  0
VERTEX
  5
1405B
  8
0
 10
507.6137314005818
 20
190.86541572821301
 30
0.0
  0
VERTEX
  5
1405C
  8
0
 10
507.6251748145325
 20
190.85766689665741
 30
0.0
  0
VERTEX
  5
1405D
  8
0
 10
507.63645134381812
 20
190.85017236995819
 30
0.0
  0
VERTEX
  5
1405E
  8
0
 10
507.65850198297579
 20
190.83594715025299
 30
0.0
  0
VERTEX
  5
1405F
  8
0
 10
507.67988000905069
 20
190.82274166152169
 30
0.0
  0
VERTEX
  5
14060
  8
0
 10
507.70058247615162
 20
190.8105570931163
 30
0.0
  0
VERTEX
  5
14061
  8
0
 10
507.72060681240077
 20
190.79939421848661
 30
0.0
  0
VERTEX
  5
14062
  8
0
 10
507.73995082975989
 20
190.78925338386981
 30
0.0
  0
VERTEX
  5
14063
  8
0
 10
507.74936714221712
 20
190.7845662205188
 30
0.0
  0
VERTEX
  5
14064
  8
0
 10
507.75861273274239
 20
190.7801344985468
 30
0.0
  0
VERTEX
  5
14065
  8
0
 10
507.77659112597951
 20
190.77203702670971
 30
0.0
  0
VERTEX
  5
14066
  8
0
 10
507.79388502060141
 20
190.76495998099051
 30
0.0
  0
VERTEX
  5
14067
  8
0
 10
507.8104938394078
 20
190.7589019176898
 30
0.0
  0
VERTEX
  5
14068
  8
0
 10
507.82641742079431
 20
190.75386093375701
 30
0.0
  0
VERTEX
  5
14069
  8
0
 10
507.8416560214086
 20
190.7498346655581
 30
0.0
  0
VERTEX
  5
1406A
  8
0
 10
507.84901864885683
 20
190.74820118539279
 30
0.0
  0
VERTEX
  5
1406B
  8
0
 10
507.85621031751339
 20
190.74682028947939
 30
0.0
  0
VERTEX
  5
1406C
  8
0
 10
507.87008140503139
 20
190.74481452440449
 30
0.0
  0
VERTEX
  5
1406D
  8
0
 10
507.8832707982545
 20
190.74381363610419
 30
0.0
  0
VERTEX
  5
1406E
  8
0
 10
507.88961044649687
 20
190.74368873142009
 30
0.0
  0
SEQEND
  5
1406F
  8
0
  0
LINE
  5
7C72
  8
0
 10
501.25966464464102
 20
203.65875224088131
 30
0.0
 11
499.72641495980571
 21
205.19200192571631
 31
0.0
  0
LINE
  5
7C73
  8
0
 10
495.72641495980571
 20
205.19200192571631
 30
0.0
 11
500.25966464464102
 21
200.65875224088131
 31
0.0
  0
POLYLINE
  5
7C74
  8
0
 66
     1
 10
0.0
 20
0.0
 30
0.0
  0
VERTEX
  5
14070
  8
0
 10
500.25966464464102
 20
200.65875224088131
 30
0.0
  0
VERTEX
  5
14071
  8
0
 10
500.36955183948152
 20
200.54782136332321
 30
0.0
  0
VERTEX
  5
14072
  8
0
 10
500.58773114398241
 20
200.32129301873141
 30
0.0
  0
VERTEX
  5
14073
  8
0
 10
500.80373475907089
 20
200.08859357213299
 30
0.0
  0
VERTEX
  5
14074
  8
0
 10
500.91090247948819
 20
199.96994920662311
 30
0.0
  0
VERTEX
  5
14075
  8
0
 10
501.01750450785789
 20
199.84978569715429
 30
0.0
  0
VERTEX
  5
14076
  8
0
 10
501.22898281510811
 20
199.60493371262299
 30
0.0
  0
VERTEX
  5
14077
  8
0
 10
501.43811272274678
 20
199.354103565244
 30
0.0
  0
VERTEX
  5
14078
  8
0
 10
501.6448379052008
 20
199.09736281183891
 30
0.0
  0
VERTEX
  5
14079
  8
0
 10
501.84910268456912
 20
198.8347806011499
 30
0.0
  0
VERTEX
  5
1407A
  8
0
 10
502.05085204561709
 20
198.5664276552165
 30
0.0
  0
VERTEX
  5
1407B
  8
0
 10
502.15076643685887
 20
198.4301096826897
 30
0.0
  0
VERTEX
  5
1407C
  8
0
 10
502.25003165059633
 20
198.29237625032681
 30
0.0
  0
VERTEX
  5
1407D
  8
0
 10
502.44658785387782
 20
198.01270019755191
 30
0.0
  0
VERTEX
  5
1407E
  8
0
 10
502.64046771640119
 20
197.7274748228655
 30
0.0
  0
VERTEX
  5
1407F
  8
0
 10
502.8316190199327
 20
197.43677694685729
 30
0.0
  0
VERTEX
  5
14080
  8
0
 10
503.01999028112959
 20
197.14068486404099
 30
0.0
  0
VERTEX
  5
14081
  8
0
 10
503.20553076540563
 20
196.83927832176821
 30
0.0
  0
VERTEX
  5
14082
  8
0
 10
503.29722381974568
 20
196.68660744136551
 30
0.0
  0
VERTEX
  5
14083
  8
0
 10
503.38819050059681
 20
196.53263849874989
 30
0.0
  0
VERTEX
  5
14084
  8
0
 10
503.56792029041929
 20
196.22084798319131
 30
0.0
  0
VERTEX
  5
14085
  8
0
 10
503.74467172771978
 20
195.9039907505491
 30
0.0
  0
VERTEX
  5
14086
  8
0
 10
503.83191565593012
 20
195.74368873142009
 30
0.0
  0
SEQEND
  5
14087
  8
0
  0
POLYLINE
  5
7C76
  8
0
 66
     1
 10
0.0
 20
0.0
 30
0.0
  0
VERTEX
  5
14088
  8
0
 10
499.72641495980571
 20
205.19200192571631
 30
0.0
  0
VERTEX
  5
14089
  8
0
 10
499.66303973480382
 20
205.254848303362
 30
0.0
  0
VERTEX
  5
1408A
  8
0
 10
499.53392291979878
 20
205.37973450732159
 30
0.0
  0
VERTEX
  5
1408B
  8
0
 10
499.40167378163102
 20
205.5035233183257
 30
0.0
  0
VERTEX
  5
1408C
  8
0
 10
499.33438330797458
 20
205.56499800918471
 30
0.0
  0
VERTEX
  5
1408D
  8
0
 10
499.26632029577382
 20
205.62618855056621
 30
0.0
  0
VERTEX
  5
1408E
  8
0
 10
499.12789109438171
 20
205.74770425591259
 30
0.0
  0
VERTEX
  5
1408F
  8
0
 10
498.98641546023458
 20
205.86804472940071
 30
0.0
  0
VERTEX
  5
14090
  8
0
 10
498.84192332054261
 20
205.98718451467099
 30
0.0
  0
VERTEX
  5
14091
  8
0
 10
498.69444524061629
 20
206.10509840935219
 30
0.0
  0
VERTEX
  5
14092
  8
0
 10
498.5440124174001
 20
206.2217614703936
 30
0.0
  0
VERTEX
  5
14093
  8
0
 10
498.46769789719468
 20
206.27961621580371
 30
0.0
  0
VERTEX
  5
14094
  8
0
 10
498.39065667287372
 20
206.33714901934121
 30
0.0
  0
VERTEX
  5
14095
  8
0
 10
498.23441044732039
 20
206.4512366475569
 30
0.0
  0
VERTEX
  5
14096
  8
0
 10
498.07530679246418
 20
206.56400022138439
 30
0.0
  0
VERTEX
  5
14097
  8
0
 10
497.9133793644794
 20
206.67541588725129
 30
0.0
  0
VERTEX
  5
14098
  8
0
 10
497.74866241686971
 20
206.78546007671719
 30
0.0
  0
VERTEX
  5
14099
  8
0
 10
497.58119079322353
 20
206.8941095114582
 30
0.0
  0
VERTEX
  5
1409A
  8
0
 10
497.49643302604778
 20
206.94790400187321
 30
0.0
  0
VERTEX
  5
1409B
  8
0
 10
497.41099991984248
 20
207.00134120819229
 30
0.0
  0
VERTEX
  5
1409C
  8
0
 10
497.23812579824829
 20
207.10713248353929
 30
0.0
  0
VERTEX
  5
1409D
  8
0
 10
497.06260499756598
 20
207.2114609588202
 30
0.0
  0
VERTEX
  5
1409E
  8
0
 10
496.97386367372172
 20
207.26306973758199
 30
0.0
  0
SEQEND
  5
1409F
  8
0
  0
POLYLINE
  5
7C78
  8
0
 66
     1
 10
0.0
 20
0.0
 30
0.0
  0
VERTEX
  5
140A0
  8
0
 10
495.00966464464102
 20
205.8485255471837
 30
0.0
  0
VERTEX
  5
140A1
  8
0
 10
495.13522000938133
 20
205.7413663651013
 30
0.0
  0
VERTEX
  5
140A2
  8
0
 10
495.37907497344361
 20
205.5242795667981
 30
0.0
  0
VERTEX
  5
140A3
  8
0
 10
495.6131202122844
 20
205.30362289255339
 30
0.0
  0
VERTEX
  5
140A4
  8
0
 10
495.72641495980571
 20
205.19200192571631
 30
0.0
  0
SEQEND
  5
140A5
  8
0
  0
LINE
  5
7C7A
  8
0
 10
496.97386367372172
 20
207.26306973758199
 30
0.0
 11
496.00966464464102
 21
207.81975030657389
 31
0.0
  0
POLYLINE
  5
7C7B
  8
0
 66
     1
 10
0.0
 20
0.0
 30
0.0
  0
VERTEX
  5
140A6
  8
0
 10
496.00966464464102
 20
207.81975030657389
 30
0.0
  0
VERTEX
  5
140A7
  8
0
 10
495.85394906108388
 20
207.912017025399
 30
0.0
  0
VERTEX
  5
140A8
  8
0
 10
495.54897822944611
 20
208.10699903427249
 30
0.0
  0
VERTEX
  5
140A9
  8
0
 10
495.25313962114751
 20
208.31557686093259
 30
0.0
  0
VERTEX
  5
140AA
  8
0
 10
495.1088349343392
 20
208.42483182754941
 30
0.0
  0
VERTEX
  5
140AB
  8
0
 10
494.96703889728872
 20
208.5373234905386
 30
0.0
  0
VERTEX
  5
140AC
  8
0
 10
494.69126178290492
 20
208.7717849481736
 30
0.0
  0
VERTEX
  5
140AD
  8
0
 10
494.4263728678294
 20
209.0184812282518
 30
0.0
  0
VERTEX
  5
140AE
  8
0
 10
494.17291445082731
 20
209.2769072772191
 30
0.0
  0
VERTEX
  5
140AF
  8
0
 10
493.93140542936283
 20
209.54653402753411
 30
0.0
  0
VERTEX
  5
140B0
  8
0
 10
493.70234023727818
 20
209.82680948081079
 30
0.0
  0
VERTEX
  5
140B1
  8
0
 10
493.59262164839049
 20
209.97076197859329
 30
0.0
  0
VERTEX
  5
140B2
  8
0
 10
493.48618783255392
 20
210.11715983790731
 30
0.0
  0
VERTEX
  5
140B3
  8
0
 10
493.28339073722623
 20
210.4169906736478
 30
0.0
  0
VERTEX
  5
140B4
  8
0
 10
493.09436413142549
 20
210.7256881537698
 30
0.0
  0
VERTEX
  5
140B5
  8
0
 10
492.91949500339081
 20
211.04262029160779
 30
0.0
  0
VERTEX
  5
140B6
  8
0
 10
492.75914135720109
 20
211.36713824194021
 30
0.0
  0
VERTEX
  5
140B7
  8
0
 10
492.61363147984542
 20
211.69857762934919
 30
0.0
  0
VERTEX
  5
140B8
  8
0
 10
492.54653725172938
 20
211.86668133221991
 30
0.0
  0
VERTEX
  5
140B9
  8
0
 10
492.48326326912968
 20
212.03625990837639
 30
0.0
  0
VERTEX
  5
140BA
  8
0
 10
492.36830362380152
 20
212.37949375268701
 30
0.0
  0
VERTEX
  5
140BB
  8
0
 10
492.26898789713579
 20
212.72757647040089
 30
0.0
  0
VERTEX
  5
140BC
  8
0
 10
492.22526130556821
 20
212.90321381140549
 30
0.0
  0
SEQEND
  5
140BD
  8
0
  0
POLYLINE
  5
7C7E
  8
0
 66
     1
 10
0.0
 20
0.0
 30
0.0
  0
VERTEX
  5
140BE
  8
0
 10
492.22526130556821
 20
212.90321381140549
 30
0.0
  0
VERTEX
  5
140BF
  8
0
 10
492.21096819387111
 20
212.96514221351839
 30
0.0
  0
VERTEX
  5
140C0
  8
0
 10
492.18447401892581
 20
213.08948893229029
 30
0.0
  0
VERTEX
  5
140C1
  8
0
 10
492.16064930016699
 20
213.21414253913369
 30
0.0
  0
VERTEX
  5
140C2
  8
0
 10
492.14964571224499
 20
213.2767153270683
 30
0.0
  0
VERTEX
  5
140C3
  8
0
 10
492.13913161559429
 20
213.33997946107911
 30
0.0
  0
VERTEX
  5
140C4
  8
0
 10
492.1195401768544
 20
213.46858852914551
 30
0.0
  0
VERTEX
  5
140C5
  8
0
 10
492.10181781950303
 20
213.59992972155621
 30
0.0
  0
VERTEX
  5
140C6
  8
0
 10
492.08590484224089
 20
213.73394798831981
 30
0.0
  0
VERTEX
  5
140C7
  8
0
 10
492.07173742983139
 20
213.87058379598349
 30
0.0
  0
VERTEX
  5
140C8
  8
0
 10
492.05924794485162
 20
214.00977363453251
 30
0.0
  0
VERTEX
  5
140C9
  8
0
 10
492.05361032485689
 20
214.08030550664171
 30
0.0
  0
VERTEX
  5
140CA
  8
0
 10
492.04836526189598
 20
214.15145052747721
 30
0.0
  0
VERTEX
  5
140CB
  8
0
 10
492.03901513463961
 20
214.2955445446805
 30
0.0
  0
VERTEX
  5
140CC
  8
0
 10
492.03112058723872
 20
214.4419833181577
 30
0.0
  0
VERTEX
  5
140CD
  8
0
 10
492.02460232254151
 20
214.59069256161999
 30
0.0
  0
VERTEX
  5
140CE
  8
0
 10
492.0193791337469
 20
214.74159681770149
 30
0.0
  0
VERTEX
  5
140CF
  8
0
 10
492.01536834918562
 20
214.89461940179689
 30
0.0
  0
VERTEX
  5
140D0
  8
0
 10
492.01379149973468
 20
214.97189947289871
 30
0.0
  0
VERTEX
  5
140D1
  8
0
 10
492.01248631431179
 20
215.04967796244929
 30
0.0
  0
VERTEX
  5
140D2
  8
0
 10
492.0106486193252
 20
215.2066869064906
 30
0.0
  0
VERTEX
  5
140D3
  8
0
 10
492.00977044261322
 20
215.36555821127331
 30
0.0
  0
VERTEX
  5
140D4
  8
0
 10
492.00966464464102
 20
215.4456641788785
 30
0.0
  0
SEQEND
  5
140D5
  8
0
  0
POLYLINE
  5
7C7F
  8
0
 66
     1
 10
0.0
 20
0.0
 30
0.0
  0
VERTEX
  5
140D6
  8
0
 10
490.00966464464102
 20
215.4456641788785
 30
0.0
  0
VERTEX
  5
140D7
  8
0
 10
490.00974825054652
 20
215.3660428558118
 30
0.0
  0
VERTEX
  5
140D8
  8
0
 10
490.01044263481731
 20
215.20803883818411
 30
0.0
  0
VERTEX
  5
140D9
  8
0
 10
490.01189694316582
 20
215.0517545886982
 30
0.0
  0
VERTEX
  5
140DA
  8
0
 10
490.01293054218991
 20
214.97428266091941
 30
0.0
  0
VERTEX
  5
140DB
  8
0
 10
490.01417991388212
 20
214.89727081758471
 30
0.0
  0
VERTEX
  5
140DC
  8
0
 10
490.01736039486178
 20
214.74466654701919
 30
0.0
  0
VERTEX
  5
140DD
  8
0
 10
490.02150707910511
 20
214.5940187754376
 30
0.0
  0
VERTEX
  5
140DE
  8
0
 10
490.02668824462643
 20
214.44540214954301
 30
0.0
  0
VERTEX
  5
140DF
  8
0
 10
490.03297150279229
 20
214.2988886281077
 30
0.0
  0
VERTEX
  5
140E0
  8
0
 10
490.0404236914498
 20
214.15454479401379
 30
0.0
  0
VERTEX
  5
140E1
  8
0
 10
490.04460873599101
 20
214.08320653316011
 30
0.0
  0
VERTEX
  5
140E2
  8
0
 10
490.04911054857052
 20
214.0124348516276
 30
0.0
  0
VERTEX
  5
140E3
  8
0
 10
490.05909626044712
 20
213.87262313153221
 30
0.0
  0
VERTEX
  5
140E4
  8
0
 10
490.07044320445351
 20
213.73517235906911
 30
0.0
  0
VERTEX
  5
140E5
  8
0
 10
490.0832116485339
 20
213.60014322498901
 30
0.0
  0
VERTEX
  5
140E6
  8
0
 10
490.09745946189651
 20
213.46759396417559
 30
0.0
  0
VERTEX
  5
140E7
  8
0
 10
490.11324184171059
 20
213.33757994250999
 30
0.0
  0
VERTEX
  5
140E8
  8
0
 10
490.12172494996929
 20
213.27354006394441
 30
0.0
  0
VERTEX
  5
140E9
  8
0
 10
490.13061106109552
 20
213.21015325225849
 30
0.0
  0
VERTEX
  5
140EA
  8
0
 10
490.14961624423358
 20
213.08536231674111
 30
0.0
  0
VERTEX
  5
140EB
  8
0
 10
490.17030317498018
 20
212.96325150546261
 30
0.0
  0
VERTEX
  5
140EC
  8
0
 10
490.18129065168728
 20
212.90321381140549
 30
0.0
  0
SEQEND
  5
140ED
  8
0
  0
LINE
  5
7C85
  8
0
 10
490.00966464464102
 20
295.74368873142021
 30
0.0
 11
490.00966464464102
 21
215.4456641788785
 31
0.0
  0
POLYLINE
  5
7C86
  8
0
 66
     1
 10
0.0
 20
0.0
 30
0.0
  0
VERTEX
  5
140EE
  8
0
 10
575.00966464464102
 20
215.4456641788785
 30
0.0
  0
VERTEX
  5
140EF
  8
0
 10
575.00958103873563
 20
215.3660428558118
 30
0.0
  0
VERTEX
  5
140F0
  8
0
 10
575.00888665446485
 20
215.20803883818411
 30
0.0
  0
VERTEX
  5
140F1
  8
0
 10
575.00743234611616
 20
215.0517545886982
 30
0.0
  0
VERTEX
  5
140F2
  8
0
 10
575.00639874709213
 20
214.97428266091941
 30
0.0
  0
VERTEX
  5
140F3
  8
0
 10
575.00514937540004
 20
214.89727081758471
 30
0.0
  0
VERTEX
  5
140F4
  8
0
 10
575.00196889442032
 20
214.74466654701919
 30
0.0
  0
VERTEX
  5
140F5
  8
0
 10
574.99782221017699
 20
214.5940187754376
 30
0.0
  0
VERTEX
  5
140F6
  8
0
 10
574.99264104465567
 20
214.44540214954301
 30
0.0
  0
VERTEX
  5
140F7
  8
0
 10
574.98635778648975
 20
214.2988886281077
 30
0.0
  0
VERTEX
  5
140F8
  8
0
 10
574.97890559783218
 20
214.15454479401379
 30
0.0
  0
VERTEX
  5
140F9
  8
0
 10
574.97472055329104
 20
214.08320653316011
 30
0.0
  0
VERTEX
  5
140FA
  8
0
 10
574.97021874071163
 20
214.0124348516276
 30
0.0
  0
VERTEX
  5
140FB
  8
0
 10
574.96023302883498
 20
213.87262313153221
 30
0.0
  0
VERTEX
  5
140FC
  8
0
 10
574.94888608482836
 20
213.73517235906911
 30
0.0
  0
VERTEX
  5
140FD
  8
0
 10
574.93611764074819
 20
213.60014322498901
 30
0.0
  0
VERTEX
  5
140FE
  8
0
 10
574.92186982738554
 20
213.46759396417559
 30
0.0
  0
VERTEX
  5
140FF
  8
0
 10
574.90608744757151
 20
213.33757994250999
 30
0.0
  0
VERTEX
  5
14100
  8
0
 10
574.89760433931269
 20
213.27354006394441
 30
0.0
  0
VERTEX
  5
14101
  8
0
 10
574.88871822818658
 20
213.21015325225849
 30
0.0
  0
VERTEX
  5
14102
  8
0
 10
574.86971304504846
 20
213.08536231674111
 30
0.0
  0
VERTEX
  5
14103
  8
0
 10
574.84902611430186
 20
212.96325150546261
 30
0.0
  0
VERTEX
  5
14104
  8
0
 10
574.83803863759476
 20
212.90321381140549
 30
0.0
  0
SEQEND
  5
14105
  8
0
  0
POLYLINE
  5
7C89
  8
0
 66
     1
 10
0.0
 20
0.0
 30
0.0
  0
VERTEX
  5
14106
  8
0
 10
574.83803863759476
 20
212.90321381140549
 30
0.0
  0
VERTEX
  5
14107
  8
0
 10
574.80255496791449
 20
212.72328094199929
 30
0.0
  0
VERTEX
  5
14108
  8
0
 10
574.72171917642049
 20
212.3655184859528
 30
0.0
  0
VERTEX
  5
14109
  8
0
 10
574.62781791334385
 20
212.01096108166479
 30
0.0
  0
VERTEX
  5
1410A
  8
0
 10
574.57600652406416
 20
211.83503351632129
 30
0.0
  0
VERTEX
  5
1410B
  8
0
 10
574.52097750255166
 20
211.66008570953861
 30
0.0
  0
VERTEX
  5
1410C
  8
0
 10
574.40134167473911
 20
211.3133643965991
 30
0.0
  0
VERTEX
  5
1410D
  8
0
 10
574.26907137407147
 20
210.9712635814814
 30
0.0
  0
VERTEX
  5
1410E
  8
0
 10
574.12434454166794
 20
210.63424348693931
 30
0.0
  0
VERTEX
  5
1410F
  8
0
 10
573.96735587622084
 20
210.30275750071351
 30
0.0
  0
VERTEX
  5
14110
  8
0
 10
573.79831657207001
 20
209.97725156559861
 30
0.0
  0
VERTEX
  5
14111
  8
0
 10
573.70934836977062
 20
209.81687829074781
 30
0.0
  0
VERTEX
  5
14112
  8
0
 10
573.61745403508723
 20
209.6581635795209
 30
0.0
  0
VERTEX
  5
14113
  8
0
 10
573.42501157674974
 20
209.34592280644361
 30
0.0
  0
VERTEX
  5
14114
  8
0
 10
573.22124808681804
 20
209.04094929888331
 30
0.0
  0
VERTEX
  5
14115
  8
0
 10
573.00643768505518
 20
208.7436533328202
 30
0.0
  0
VERTEX
  5
14116
  8
0
 10
572.78086935245801
 20
208.45443485576141
 30
0.0
  0
VERTEX
  5
14117
  8
0
 10
572.54484654249552
 20
208.17368294869709
 30
0.0
  0
VERTEX
  5
14118
  8
0
 10
572.42301339495543
 20
208.0366004462862
 30
0.0
  0
VERTEX
  5
14119
  8
0
 10
572.298686772878
 20
207.9017753026759
 30
0.0
  0
VERTEX
  5
1411A
  8
0
 10
572.04272119840539
 20
207.63907771070421
 30
0.0
  0
VERTEX
  5
1411B
  8
0
 10
571.77729416546981
 20
207.38594357564941
 30
0.0
  0
VERTEX
  5
1411C
  8
0
 10
571.64114370375455
 20
207.26306973758179
 30
0.0
  0
SEQEND
  5
1411D
  8
0
  0
LINE
  5
7C93
  8
0
 10
557.12971884278522
 20
190.74368873142009
 30
0.0
 11
555.00966464464102
 21
190.74368873142009
 31
0.0
  0
POLYLINE
  5
7C94
  8
0
 66
     1
 10
0.0
 20
0.0
 30
0.0
  0
VERTEX
  5
1411E
  8
0
 10
558.57433659099854
 20
195.74368873142009
 30
0.0
  0
VERTEX
  5
1411F
  8
0
 10
558.46232714491407
 20
195.4939098361275
 30
0.0
  0
VERTEX
  5
14120
  8
0
 10
558.23221000381204
 20
195.01157288388751
 30
0.0
  0
VERTEX
  5
14121
  8
0
 10
557.9971620298835
 20
194.55380866159351
 30
0.0
  0
VERTEX
  5
14122
  8
0
 10
557.8789569443943
 20
194.3347086813898
 30
0.0
  0
VERTEX
  5
14123
  8
0
 10
557.76090044098737
 20
194.12241473253511
 30
0.0
  0
VERTEX
  5
14124
  8
0
 10
557.52695574513166
 20
193.71901910649481
 30
0.0
  0
VERTEX
  5
14125
  8
0
 10
557.29452827789385
 20
193.3385040392908
 30
0.0
  0
VERTEX
  5
14126
  8
0
 10
557.06039562995215
 20
192.97342152683029
 30
0.0
  0
VERTEX
  5
14127
  8
0
 10
556.82763962464321
 20
192.62718260337749
 30
0.0
  0
VERTEX
  5
14128
  8
0
 10
556.5993437611138
 20
192.3030015549825
 30
0.0
  0
VERTEX
  5
14129
  8
0
 10
556.48779284570571
 20
192.15009588205331
 30
0.0
  0
VERTEX
  5
1412A
  8
0
 10
556.3784478770956
 20
192.00376599820669
 30
0.0
  0
VERTEX
  5
1412B
  8
0
 10
556.16773079784286
 20
191.73208615828241
 30
0.0
  0
VERTEX
  5
1412C
  8
0
 10
555.96974231185504
 20
191.49025481269311
 30
0.0
  0
VERTEX
  5
1412D
  8
0
 10
555.78663293012164
 20
191.28008931079799
 30
0.0
  0
VERTEX
  5
1412E
  8
0
 10
555.620355535057
 20
191.10320947355689
 30
0.0
  0
VERTEX
  5
1412F
  8
0
 10
555.47259453601123
 20
190.96093646929461
 30
0.0
  0
VERTEX
  5
14130
  8
0
 10
555.4060739073409
 20
190.90306659553281
 30
0.0
  0
VERTEX
  5
14131
  8
0
 10
555.34462796068078
 20
190.85413574496391
 30
0.0
  0
VERTEX
  5
14132
  8
0
 10
555.23731518759405
 20
190.78320308594169
 30
0.0
  0
VERTEX
  5
14133
  8
0
 10
555.1510967264968
 20
190.7480397727083
 30
0.0
  0
VERTEX
  5
14134
  8
0
 10
555.1159090735166
 20
190.74368873142009
 30
0.0
  0
SEQEND
  5
14135
  8
0
  0
POLYLINE
  5
7C95
  8
0
 66
     1
 10
0.0
 20
0.0
 30
0.0
  0
VERTEX
  5
14136
  8
0
 10
563.75966464464102
 20
203.65875224088131
 30
0.0
  0
VERTEX
  5
14137
  8
0
 10
563.59283402517985
 20
203.4897874026903
 30
0.0
  0
VERTEX
  5
14138
  8
0
 10
563.26245536528165
 20
203.1423365545983
 30
0.0
  0
VERTEX
  5
14139
  8
0
 10
562.93658755464696
 20
202.78233269550171
 30
0.0
  0
VERTEX
  5
1413A
  8
0
 10
562.77539498102669
 20
202.5976780287769
 30
0.0
  0
VERTEX
  5
1413B
  8
0
 10
562.61538955372839
 20
202.4099514376407
 30
0.0
  0
VERTEX
  5
1413C
  8
0
 10
562.29901804501515
 20
202.0253744310325
 30
0.0
  0
VERTEX
  5
1413D
  8
0
 10
561.98762735660171
 20
201.62878927486051
 30
0.0
  0
VERTEX
  5
1413E
  8
0
 10
561.68136938690532
 20
201.2203894259614
 30
0.0
  0
VERTEX
  5
1413F
  8
0
 10
561.38039353057025
 20
200.80037410445709
 30
0.0
  0
VERTEX
  5
14140
  8
0
 10
561.08484660559066
 20
200.3689481965732
 30
0.0
  0
VERTEX
  5
14141
  8
0
 10
560.93915415077856
 20
200.14902182446929
 30
0.0
  0
VERTEX
  5
14142
  8
0
 10
560.79487278169279
 20
199.9263221546932
 30
0.0
  0
VERTEX
  5
14143
  8
0
 10
560.5106135100076
 20
199.47271189470021
 30
0.0
  0
VERTEX
  5
14144
  8
0
 10
560.23220745406945
 20
199.0083386906505
 30
0.0
  0
VERTEX
  5
14145
  8
0
 10
559.95979042217675
 20
198.53342906683511
 30
0.0
  0
VERTEX
  5
14146
  8
0
 10
559.69349530114209
 20
198.04821468727951
 30
0.0
  0
VERTEX
  5
14147
  8
0
 10
559.43345199146995
 20
197.5529322427366
 30
0.0
  0
VERTEX
  5
14148
  8
0
 10
559.30581452760941
 20
197.30159080808639
 30
0.0
  0
VERTEX
  5
14149
  8
0
 10
559.17978734399026
 20
197.04782333522729
 30
0.0
  0
VERTEX
  5
1414A
  8
0
 10
558.93262509797967
 20
196.53313436018601
 30
0.0
  0
VERTEX
  5
1414B
  8
0
 10
558.69208582080114
 20
196.0091163862659
 30
0.0
  0
VERTEX
  5
1414C
  8
0
 10
558.57433659099854
 20
195.74368873142009
 30
0.0
  0
SEQEND
  5
1414D
  8
0
  0
LINE
  5
7C97
  8
0
 10
564.75966464464113
 20
200.65875224088131
 30
0.0
 11
569.29291432947628
 21
205.19200192571631
 31
0.0
  0
LINE
  5
7C98
  8
0
 10
565.29291432947628
 20
205.19200192571631
 30
0.0
 11
563.75966464464102
 21
203.65875224088131
 31
0.0
  0
POLYLINE
  5
7C9A
  8
0
 66
     1
 10
0.0
 20
0.0
 30
0.0
  0
VERTEX
  5
1414E
  8
0
 10
569.29291432947628
 20
205.19200192571631
 30
0.0
  0
VERTEX
  5
1414F
  8
0
 10
569.4062090769977
 20
205.30362289255339
 30
0.0
  0
VERTEX
  5
14150
  8
0
 10
569.64025431583855
 20
205.5242795667981
 30
0.0
  0
VERTEX
  5
14151
  8
0
 10
569.88410927990071
 20
205.7413663651013
 30
0.0
  0
VERTEX
  5
14152
  8
0
 10
570.00966464464102
 20
205.8485255471837
 30
0.0
  0
SEQEND
  5
14153
  8
0
  0
POLYLINE
  5
7C9B
  8
0
 66
     1
 10
0.0
 20
0.0
 30
0.0
  0
VERTEX
  5
14154
  8
0
 10
570.00966464464102
 20
205.8485255471837
 30
0.0
  0
VERTEX
  5
14155
  8
0
 10
570.29063399295705
 20
206.0865343654159
 30
0.0
  0
VERTEX
  5
14156
  8
0
 10
570.84370730885678
 20
206.5627701174505
 30
0.0
  0
VERTEX
  5
14157
  8
0
 10
571.38051307194075
 20
207.0327475722124
 30
0.0
  0
VERTEX
  5
14158
  8
0
 10
571.64114370375455
 20
207.26306973758199
 30
0.0
  0
SEQEND
  5
14159
  8
0
  0
POLYLINE
  5
7C9C
  8
0
 66
     1
 10
0.0
 20
0.0
 30
0.0
  0
VERTEX
  5
1415A
  8
0
 10
568.04546561556026
 20
207.26306973758199
 30
0.0
  0
VERTEX
  5
1415B
  8
0
 10
567.95672429171589
 20
207.2114609588202
 30
0.0
  0
VERTEX
  5
1415C
  8
0
 10
567.78120349103369
 20
207.10713248353929
 30
0.0
  0
VERTEX
  5
1415D
  8
0
 10
567.6083293694395
 20
207.00134120819229
 30
0.0
  0
VERTEX
  5
1415E
  8
0
 10
567.5228962632342
 20
206.94790400187321
 30
0.0
  0
VERTEX
  5
1415F
  8
0
 10
567.43813849605863
 20
206.8941095114582
 30
0.0
  0
VERTEX
  5
14160
  8
0
 10
567.27066687241233
 20
206.78546007671719
 30
0.0
  0
VERTEX
  5
14161
  8
0
 10
567.10594992480264
 20
206.67541588725129
 30
0.0
  0
VERTEX
  5
14162
  8
0
 10
566.94402249681775
 20
206.56400022138439
 30
0.0
  0
VERTEX
  5
14163
  8
0
 10
566.7849188419616
 20
206.4512366475569
 30
0.0
  0
VERTEX
  5
14164
  8
0
 10
566.62867261640827
 20
206.33714901934121
 30
0.0
  0
VERTEX
  5
14165
  8
0
 10
566.5516313920873
 20
206.27961621580371
 30
0.0
  0
VERTEX
  5
14166
  8
0
 10
566.47531687188177
 20
206.2217614703936
 30
0.0
  0
VERTEX
  5
14167
  8
0
 10
566.32488404866569
 20
206.10509840935219
 30
0.0
  0
VERTEX
  5
14168
  8
0
 10
566.17740596873932
 20
205.98718451467099
 30
0.0
  0
VERTEX
  5
14169
  8
0
 10
566.0329138290474
 20
205.86804472940071
 30
0.0
  0
VERTEX
  5
1416A
  8
0
 10
565.89143819490016
 20
205.74770425591259
 30
0.0
  0
VERTEX
  5
1416B
  8
0
 10
565.75300899350805
 20
205.62618855056621
 30
0.0
  0
VERTEX
  5
1416C
  8
0
 10
565.68494598130735
 20
205.56499800918471
 30
0.0
  0
VERTEX
  5
1416D
  8
0
 10
565.61765550765085
 20
205.5035233183257
 30
0.0
  0
VERTEX
  5
1416E
  8
0
 10
565.48540636948326
 20
205.37973450732159
 30
0.0
  0
VERTEX
  5
1416F
  8
0
 10
565.35628955447828
 20
205.254848303362
 30
0.0
  0
VERTEX
  5
14170
  8
0
 10
565.29291432947628
 20
205.19200192571631
 30
0.0
  0
SEQEND
  5
14171
  8
0
  0
LINE
  5
7C9D
  8
0
 10
569.00966464464113
 20
207.81975030657389
 30
0.0
 11
568.04546561556026
 21
207.26306973758199
 31
0.0
  0
POLYLINE
  5
7CA0
  8
0
 66
     1
 10
0.0
 20
0.0
 30
0.0
  0
VERTEX
  5
14172
  8
0
 10
572.79406798371394
 20
212.90321381140549
 30
0.0
  0
VERTEX
  5
14173
  8
0
 10
572.7503413921462
 20
212.72757647040089
 30
0.0
  0
VERTEX
  5
14174
  8
0
 10
572.65102566548057
 20
212.37949375268701
 30
0.0
  0
VERTEX
  5
14175
  8
0
 10
572.53606602015225
 20
212.03625990837639
 30
0.0
  0
VERTEX
  5
14176
  8
0
 10
572.47279203755272
 20
211.86668133221991
 30
0.0
  0
VERTEX
  5
14177
  8
0
 10
572.40569780943656
 20
211.69857762934919
 30
0.0
  0
VERTEX
  5
14178
  8
0
 10
572.26018793208095
 20
211.36713824194021
 30
0.0
  0
VERTEX
  5
14179
  8
0
 10
572.09983428589135
 20
211.04262029160779
 30
0.0
  0
VERTEX
  5
1417A
  8
0
 10
571.92496515785649
 20
210.7256881537698
 30
0.0
  0
VERTEX
  5
1417B
  8
0
 10
571.73593855205581
 20
210.4169906736478
 30
0.0
  0
VERTEX
  5
1417C
  8
0
 10
571.533141456728
 20
210.11715983790731
 30
0.0
  0
VERTEX
  5
1417D
  8
0
 10
571.42670764089144
 20
209.97076197859329
 30
0.0
  0
VERTEX
  5
1417E
  8
0
 10
571.31698905200392
 20
209.82680948081079
 30
0.0
  0
VERTEX
  5
1417F
  8
0
 10
571.08792385991933
 20
209.54653402753431
 30
0.0
  0
VERTEX
  5
14180
  8
0
 10
570.84641483845485
 20
209.2769072772191
 30
0.0
  0
VERTEX
  5
14181
  8
0
 10
570.59295642145253
 20
209.0184812282518
 30
0.0
  0
VERTEX
  5
14182
  8
0
 10
570.32806750637724
 20
208.7717849481736
 30
0.0
  0
VERTEX
  5
14183
  8
0
 10
570.05229039199344
 20
208.5373234905386
 30
0.0
  0
VERTEX
  5
14184
  8
0
 10
569.91049435494278
 20
208.42483182754941
 30
0.0
  0
VERTEX
  5
14185
  8
0
 10
569.76618966813453
 20
208.31557686093259
 30
0.0
  0
VERTEX
  5
14186
  8
0
 10
569.47035105983605
 20
208.10699903427249
 30
0.0
  0
VERTEX
  5
14187
  8
0
 10
569.16538022819816
 20
207.912017025399
 30
0.0
  0
VERTEX
  5
14188
  8
0
 10
569.00966464464102
 20
207.81975030657389
 30
0.0
  0
SEQEND
  5
14189
  8
0
  0
POLYLINE
  5
7CA1
  8
0
 66
     1
 10
0.0
 20
0.0
 30
0.0
  0
VERTEX
  5
1418A
  8
0
 10
573.00966464464102
 20
215.4456641788785
 30
0.0
  0
VERTEX
  5
1418B
  8
0
 10
573.00955884666894
 20
215.36555821127331
 30
0.0
  0
VERTEX
  5
1418C
  8
0
 10
573.0086806699569
 20
215.2066869064906
 30
0.0
  0
VERTEX
  5
1418D
  8
0
 10
573.00684297497025
 20
215.04967796244929
 30
0.0
  0
VERTEX
  5
1418E
  8
0
 10
573.00553778954725
 20
214.97189947289871
 30
0.0
  0
VERTEX
  5
1418F
  8
0
 10
573.00396094009636
 20
214.89461940179689
 30
0.0
  0
VERTEX
  5
14190
  8
0
 10
572.9999501555352
 20
214.74159681770149
 30
0.0
  0
VERTEX
  5
14191
  8
0
 10
572.99472696674036
 20
214.59069256161999
 30
0.0
  0
VERTEX
  5
14192
  8
0
 10
572.98820870204338
 20
214.4419833181577
 30
0.0
  0
VERTEX
  5
14193
  8
0
 10
572.98031415464243
 20
214.2955445446805
 30
0.0
  0
VERTEX
  5
14194
  8
0
 10
572.97096402738612
 20
214.15145052747721
 30
0.0
  0
VERTEX
  5
14195
  8
0
 10
572.96571896442515
 20
214.08030550664171
 30
0.0
  0
VERTEX
  5
14196
  8
0
 10
572.96008134443025
 20
214.00977363453279
 30
0.0
  0
VERTEX
  5
14197
  8
0
 10
572.94759185945054
 20
213.87058379598369
 30
0.0
  0
VERTEX
  5
14198
  8
0
 10
572.93342444704115
 20
213.73394798831981
 30
0.0
  0
VERTEX
  5
14199
  8
0
 10
572.91751146977913
 20
213.59992972155621
 30
0.0
  0
VERTEX
  5
1419A
  8
0
 10
572.8997891124277
 20
213.46858852914571
 30
0.0
  0
VERTEX
  5
1419B
  8
0
 10
572.88019767368758
 20
213.33997946107911
 30
0.0
  0
VERTEX
  5
1419C
  8
0
 10
572.86968357703722
 20
213.2767153270687
 30
0.0
  0
VERTEX
  5
1419D
  8
0
 10
572.85867998911488
 20
213.21414253913409
 30
0.0
  0
VERTEX
  5
1419E
  8
0
 10
572.83485527035634
 20
213.08948893229049
 30
0.0
  0
VERTEX
  5
1419F
  8
0
 10
572.80836109541099
 20
212.96514221351839
 30
0.0
  0
VERTEX
  5
141A0
  8
0
 10
572.79406798371394
 20
212.90321381140549
 30
0.0
  0
SEQEND
  5
141A1
  8
0
  0
LINE
  5
7CA8
  8
0
 10
575.00966464464102
 20
215.4456641788785
 30
0.0
 11
575.00966464464102
 21
295.74368873142021
 31
0.0
  0
POLYLINE
  5
7CB0
  8
0
 66
     1
 10
0.0
 20
0.0
 30
0.0
  0
VERTEX
  5
141A2
  8
0
 10
561.18741363335187
 20
195.74368873142009
 30
0.0
  0
VERTEX
  5
141A3
  8
0
 10
561.27465756156221
 20
195.9039907505491
 30
0.0
  0
VERTEX
  5
141A4
  8
0
 10
561.45140899886269
 20
196.22084798319131
 30
0.0
  0
VERTEX
  5
141A5
  8
0
 10
561.63113878868523
 20
196.53263849874989
 30
0.0
  0
VERTEX
  5
141A6
  8
0
 10
561.72210546953636
 20
196.68660744136571
 30
0.0
  0
VERTEX
  5
141A7
  8
0
 10
561.81379852387624
 20
196.8392783217684
 30
0.0
  0
VERTEX
  5
141A8
  8
0
 10
561.99933900815245
 20
197.14068486404099
 30
0.0
  0
VERTEX
  5
141A9
  8
0
 10
562.1877102693494
 20
197.43677694685729
 30
0.0
  0
VERTEX
  5
141AA
  8
0
 10
562.37886157288085
 20
197.7274748228655
 30
0.0
  0
VERTEX
  5
141AB
  8
0
 10
562.57274143540417
 20
198.01270019755191
 30
0.0
  0
VERTEX
  5
141AC
  8
0
 10
562.76929763868577
 20
198.29237625032681
 30
0.0
  0
VERTEX
  5
141AD
  8
0
 10
562.868562852423
 20
198.4301096826897
 30
0.0
  0
VERTEX
  5
141AE
  8
0
 10
562.96847724366489
 20
198.5664276552165
 30
0.0
  0
VERTEX
  5
141AF
  8
0
 10
563.17022660471298
 20
198.8347806011499
 30
0.0
  0
VERTEX
  5
141B0
  8
0
 10
563.37449138408124
 20
199.09736281183891
 30
0.0
  0
VERTEX
  5
141B1
  8
0
 10
563.58121656653532
 20
199.354103565244
 30
0.0
  0
VERTEX
  5
141B2
  8
0
 10
563.79034647417404
 20
199.60493371262299
 30
0.0
  0
VERTEX
  5
141B3
  8
0
 10
564.00182478142415
 20
199.84978569715429
 30
0.0
  0
VERTEX
  5
141B4
  8
0
 10
564.10842680979385
 20
199.96994920662311
 30
0.0
  0
VERTEX
  5
141B5
  8
0
 10
564.21559453021109
 20
200.08859357213299
 30
0.0
  0
VERTEX
  5
141B6
  8
0
 10
564.43159814529963
 20
200.32129301873141
 30
0.0
  0
VERTEX
  5
141B7
  8
0
 10
564.64977744980058
 20
200.54782136332321
 30
0.0
  0
VERTEX
  5
141B8
  8
0
 10
564.75966464464102
 20
200.65875224088131
 30
0.0
  0
SEQEND
  5
141B9
  8
0
  0
POLYLINE
  5
7CB1
  8
0
 66
     1
 10
0.0
 20
0.0
 30
0.0
  0
VERTEX
  5
141BA
  8
0
 10
557.12971884278522
 20
190.74368873142009
 30
0.0
  0
VERTEX
  5
141BB
  8
0
 10
557.13606115692812
 20
190.74381373982339
 30
0.0
  0
VERTEX
  5
141BC
  8
0
 10
557.14925512243815
 20
190.74481532842671
 30
0.0
  0
VERTEX
  5
141BD
  8
0
 10
557.16312964174688
 20
190.74682217371961
 30
0.0
  0
VERTEX
  5
141BE
  8
0
 10
557.17032255364927
 20
190.7482036529567
 30
0.0
  0
VERTEX
  5
141BF
  8
0
 10
557.17768608684935
 20
190.74983769483961
 30
0.0
  0
VERTEX
  5
141C0
  8
0
 10
557.19292542406515
 20
190.75386487797201
 30
0.0
  0
VERTEX
  5
141C1
  8
0
 10
557.20884821273944
 20
190.7589062719484
 30
0.0
  0
VERTEX
  5
141C2
  8
0
 10
557.22545460522485
 20
190.7649639856885
 30
0.0
  0
VERTEX
  5
141C3
  8
0
 10
557.24274434813128
 20
190.77203968744351
 30
0.0
  0
VERTEX
  5
141C4
  8
0
 10
557.26071678481264
 20
190.78013460580399
 30
0.0
  0
VERTEX
  5
141C5
  8
0
 10
557.26995869874031
 20
190.78456453556271
 30
0.0
  0
VERTEX
  5
141C6
  8
0
 10
557.27937085907615
 20
190.7892495324285
 30
0.0
  0
VERTEX
  5
141C7
  8
0
 10
557.29870512007733
 20
190.79938482645539
 30
0.0
  0
VERTEX
  5
141C8
  8
0
 10
557.31871772838065
 20
190.810540420547
 30
0.0
  0
VERTEX
  5
141C9
  8
0
 10
557.33940646314818
 20
190.82271582853051
 30
0.0
  0
VERTEX
  5
141CA
  8
0
 10
557.36076873042521
 20
190.83591015458421
 30
0.0
  0
VERTEX
  5
141CB
  8
0
 10
557.38280157248857
 20
190.8501221039248
 30
0.0
  0
VERTEX
  5
141CC
  8
0
 10
557.39406843784116
 20
190.8576091765764
 30
0.0
  0
VERTEX
  5
141CD
  8
0
 10
557.40550167821982
 20
190.8653499949518
 30
0.0
  0
VERTEX
  5
141CE
  8
0
 10
557.42886539446386
 20
190.88159177280011
 30
0.0
  0
VERTEX
  5
141CF
  8
0
 10
557.45288873833465
 20
190.89884502425451
 30
0.0
  0
VERTEX
  5
141D0
  8
0
 10
557.46514643905039
 20
190.90785010443591
 30
0.0
  0
VERTEX
  5
141D1
  8
0
 10
557.54210024523832
 20
190.96715409833621
 30
0.0
  0
VERTEX
  5
141D2
  8
0
 10
557.71306089396671
 20
191.1125398053818
 30
0.0
  0
VERTEX
  5
141D3
  8
0
 10
557.90551619791006
 20
191.29265931335581
 30
0.0
  0
VERTEX
  5
141D4
  8
0
 10
558.11759821822977
 20
191.50597082993241
 30
0.0
  0
VERTEX
  5
141D5
  8
0
 10
558.34714813047037
 20
191.75064570373971
 30
0.0
  0
VERTEX
  5
141D6
  8
0
 10
558.59183425817275
 20
192.0247167855577
 30
0.0
  0
VERTEX
  5
141D7
  8
0
 10
558.71899631159454
 20
192.17203351368639
 30
0.0
  0
VERTEX
  5
141D8
  8
0
 10
558.84887703872801
 20
192.32576915286239
 30
0.0
  0
VERTEX
  5
141D9
  8
0
 10
559.11523177113145
 20
192.65109875124739
 30
0.0
  0
VERTEX
  5
141DA
  8
0
 10
559.38766295131234
 20
192.99776518222089
 30
0.0
  0
VERTEX
  5
141DB
  8
0
 10
559.66275308924537
 20
193.36255098790249
 30
0.0
  0
VERTEX
  5
141DC
  8
0
 10
559.93695978571725
 20
193.74195812431341
 30
0.0
  0
VERTEX
  5
141DD
  8
0
 10
560.21276333438323
 20
194.14120586004259
 30
0.0
  0
VERTEX
  5
141DE
  8
0
 10
560.35262358185275
 20
194.35119633595639
 30
0.0
  0
VERTEX
  5
141DF
  8
0
 10
560.49314988816548
 20
194.56784595708439
 30
0.0
  0
VERTEX
  5
141E0
  8
0
 10
560.77415452210153
 20
195.02030402096429
 30
0.0
  0
VERTEX
  5
141E1
  8
0
 10
561.05151011792748
 20
195.49689219877101
 30
0.0
  0
VERTEX
  5
141E2
  8
0
 10
561.18741363335187
 20
195.74368873142009
 30
0.0
  0
SEQEND
  5
141E3
  8
0
  0
LINE
  5
7CB6
  8
0
 10
510.00966464464091
 20
293.74368873142021
 30
0.0
 11
510.00966464464091
 21
190.74368873142009
 31
0.0
  0
POLYLINE
  5
7CB8
  8
0
 66
     1
 10
0.0
 20
0.0
 30
0.0
  0
VERTEX
  5
141E4
  8
0
 10
506.4449926982835
 20
195.74368873142009
 30
0.0
  0
VERTEX
  5
141E5
  8
0
 10
506.3272434684809
 20
196.0091163862657
 30
0.0
  0
VERTEX
  5
141E6
  8
0
 10
506.08670419130237
 20
196.53313436018601
 30
0.0
  0
VERTEX
  5
141E7
  8
0
 10
505.83954194529173
 20
197.04782333522729
 30
0.0
  0
VERTEX
  5
141E8
  8
0
 10
505.71351476167263
 20
197.30159080808639
 30
0.0
  0
VERTEX
  5
141E9
  8
0
 10
505.58587729781209
 20
197.5529322427366
 30
0.0
  0
VERTEX
  5
141EA
  8
0
 10
505.32583398813978
 20
198.04821468727951
 30
0.0
  0
VERTEX
  5
141EB
  8
0
 10
505.05953886710518
 20
198.53342906683511
 30
0.0
  0
VERTEX
  5
141EC
  8
0
 10
504.78712183521242
 20
199.00833869065031
 30
0.0
  0
VERTEX
  5
141ED
  8
0
 10
504.5087157792745
 20
199.47271189470021
 30
0.0
  0
VERTEX
  5
141EE
  8
0
 10
504.22445650758908
 20
199.9263221546932
 30
0.0
  0
VERTEX
  5
141EF
  8
0
 10
504.08017513850331
 20
200.14902182446929
 30
0.0
  0
VERTEX
  5
141F0
  8
0
 10
503.93448268369139
 20
200.3689481965732
 30
0.0
  0
VERTEX
  5
141F1
  8
0
 10
503.63893575871168
 20
200.80037410445709
 30
0.0
  0
VERTEX
  5
141F2
  8
0
 10
503.33795990237672
 20
201.2203894259614
 30
0.0
  0
VERTEX
  5
141F3
  8
0
 10
503.03170193268039
 20
201.62878927486051
 30
0.0
  0
VERTEX
  5
141F4
  8
0
 10
502.7203112442669
 20
202.0253744310325
 30
0.0
  0
VERTEX
  5
141F5
  8
0
 10
502.40393973555348
 20
202.4099514376407
 30
0.0
  0
VERTEX
  5
141F6
  8
0
 10
502.24393430825529
 20
202.5976780287769
 30
0.0
  0
VERTEX
  5
141F7
  8
0
 10
502.08274173463502
 20
202.78233269550171
 30
0.0
  0
VERTEX
  5
141F8
  8
0
 10
501.75687392400039
 20
203.1423365545983
 30
0.0
  0
VERTEX
  5
141F9
  8
0
 10
501.42649526410207
 20
203.4897874026903
 30
0.0
  0
VERTEX
  5
141FA
  8
0
 10
501.25966464464108
 20
203.65875224088131
 30
0.0
  0
SEQEND
  5
141FB
  8
0
  0
POLYLINE
  5
7CB9
  8
0
 66
     1
 10
0.0
 20
0.0
 30
0.0
  0
VERTEX
  5
141FC
  8
0
 10
509.90342021576549
 20
190.74368873142009
 30
0.0
  0
VERTEX
  5
141FD
  8
0
 10
509.86822416715847
 20
190.7480417097253
 30
0.0
  0
VERTEX
  5
141FE
  8
0
 10
509.78201224215428
 20
190.78320410380269
 30
0.0
  0
VERTEX
  5
141FF
  8
0
 10
509.67474627312077
 20
190.85410181597319
 30
0.0
  0
VERTEX
  5
14200
  8
0
 10
509.61334016638682
 20
190.9029958474388
 30
0.0
  0
VERTEX
  5
14201
  8
0
 10
509.54687008131827
 20
190.9608142858892
 30
0.0
  0
VERTEX
  5
14202
  8
0
 10
509.3992378304311
 20
191.1029412344887
 30
0.0
  0
VERTEX
  5
14203
  8
0
 10
509.23311210538219
 20
191.27962900835459
 30
0.0
  0
VERTEX
  5
14204
  8
0
 10
509.05015516558399
 20
191.48958133469739
 30
0.0
  0
VERTEX
  5
14205
  8
0
 10
508.85230590796931
 20
191.7311979454272
 30
0.0
  0
VERTEX
  5
14206
  8
0
 10
508.64167582166868
 20
192.0027159518867
 30
0.0
  0
VERTEX
  5
14207
  8
0
 10
508.53234174287422
 20
192.1490052585095
 30
0.0
  0
VERTEX
  5
14208
  8
0
 10
508.42077375025241
 20
192.30190841930059
 30
0.0
  0
VERTEX
  5
14209
  8
0
 10
508.19234226126048
 20
192.62623435239919
 30
0.0
  0
VERTEX
  5
1420A
  8
0
 10
507.95928369901992
 20
192.97288859687239
 30
0.0
  0
VERTEX
  5
1420B
  8
0
 10
507.72464284999973
 20
193.33875664060719
 30
0.0
  0
VERTEX
  5
1420C
  8
0
 10
507.49154655548932
 20
193.7204075171307
 30
0.0
  0
VERTEX
  5
1420D
  8
0
 10
507.25815507936858
 20
194.12289991024579
 30
0.0
  0
VERTEX
  5
1420E
  8
0
 10
507.1402816977029
 20
194.3348741204062
 30
0.0
  0
VERTEX
  5
1420F
  8
0
 10
507.02220197821129
 20
194.55374328828739
 30
0.0
  0
VERTEX
  5
14210
  8
0
 10
506.78725367157517
 20
195.01130185110509
 30
0.0
  0
VERTEX
  5
14211
  8
0
 10
506.55707659760083
 20
195.49374737076289
 30
0.0
  0
VERTEX
  5
14212
  8
0
 10
506.4449926982835
 20
195.74368873142009
 30
0.0
  0
SEQEND
  5
14213
  8
0
  0
LINE
  5
7CCC
  8
0
 10
525.50356416455224
 20
286.74368873142021
 30
0.0
 11
539.5157651247298
 21
286.74368873142021
 31
0.0
  0
POLYLINE
  5
7CD2
  8
0
 66
     1
 10
0.0
 20
0.0
 30
0.0
  0
VERTEX
  5
14214
  8
0
 10
525.50356416455224
 20
286.74368873142021
 30
0.0
  0
VERTEX
  5
14215
  8
0
 10
525.39328730617774
 20
286.74542644644077
 30
0.0
  0
VERTEX
  5
14216
  8
0
 10
525.17317149155929
 20
286.75931781522422
 30
0.0
  0
VERTEX
  5
14217
  8
0
 10
524.9543676444523
 20
286.78704539108088
 30
0.0
  0
VERTEX
  5
14218
  8
0
 10
524.84572952415192
 20
286.8060654847726
 30
0.0
  0
VERTEX
  5
14219
  8
0
 10
524.73774462050062
 20
286.82849906963702
 30
0.0
  0
VERTEX
  5
1421A
  8
0
 10
524.52416261544386
 20
286.88351424106941
 30
0.0
  0
VERTEX
  5
1421B
  8
0
 10
524.31446974933579
 20
286.95187244376018
 30
0.0
  0
VERTEX
  5
1421C
  8
0
 10
524.10949869871604
 20
287.03330223179682
 30
0.0
  0
VERTEX
  5
1421D
  8
0
 10
523.91006339010653
 20
287.1274802528614
 30
0.0
  0
VERTEX
  5
1421E
  8
0
 10
523.71695576796265
 20
287.23403253224433
 30
0.0
  0
VERTEX
  5
1421F
  8
0
 10
523.62301553533825
 20
287.29181867107479
 30
0.0
  0
VERTEX
  5
14220
  8
0
 10
523.53094264991432
 20
287.35253595787287
 30
0.0
  0
VERTEX
  5
14221
  8
0
 10
523.35276268178359
 20
287.48251996046059
 30
0.0
  0
VERTEX
  5
14222
  8
0
 10
523.18312340447085
 20
287.62346838210709
 30
0.0
  0
VERTEX
  5
14223
  8
0
 10
523.02269844435671
 20
287.774821525927
 30
0.0
  0
VERTEX
  5
14224
  8
0
 10
522.87212483837584
 20
287.93597837856981
 30
0.0
  0
VERTEX
  5
14225
  8
0
 10
522.73200050438561
 20
288.10629899680362
 30
0.0
  0
VERTEX
  5
14226
  8
0
 10
522.66603237945651
 20
288.19468571322523
 30
0.0
  0
VERTEX
  5
14227
  8
0
 10
522.6028818668733
 20
288.28510704868808
 30
0.0
  0
VERTEX
  5
14228
  8
0
 10
522.53285091734995
 20
288.39305024622172
 30
0.0
  0
VERTEX
  5
14229
  8
0
 10
522.51357551272611
 20
288.42435702390998
 30
0.0
  0
VERTEX
  5
1422A
  8
0
 10
522.49463002114408
 20
288.45586454525608
 30
0.0
  0
VERTEX
  5
1422B
  8
0
 10
522.48528164743186
 20
288.471692499244
 30
0.0
  0
VERTEX
  5
1422C
  8
0
 10
522.47601653303514
 20
288.48756933374352
 30
0.0
  0
VERTEX
  5
1422D
  8
0
 10
522.45773710219669
 20
288.51946789109161
 30
0.0
  0
VERTEX
  5
1422E
  8
0
 10
522.43979374556761
 20
288.55155669763678
 30
0.0
  0
VERTEX
  5
1422F
  8
0
 10
522.42218844300339
 20
288.58383221272601
 30
0.0
  0
VERTEX
  5
14230
  8
0
 10
522.40492313706022
 20
288.6162908751034
 30
0.0
  0
VERTEX
  5
14231
  8
0
 10
522.38799973277821
 20
288.64892910330531
 30
0.0
  0
VERTEX
  5
14232
  8
0
 10
522.3796668287755
 20
288.66531442995432
 30
0.0
  0
VERTEX
  5
14233
  8
0
 10
522.37142009747276
 20
288.68174329605472
 30
0.0
  0
VERTEX
  5
14234
  8
0
 10
522.35518606052824
 20
288.71472983265852
 30
0.0
  0
VERTEX
  5
14235
  8
0
 10
522.33929941319548
 20
288.74788507340821
 30
0.0
  0
VERTEX
  5
14236
  8
0
 10
522.33148690992391
 20
288.7645248153276
 30
0.0
  0
SEQEND
  5
14237
  8
0
  0
LINE
  5
7CD3
  8
0
 10
522.33148690992391
 20
288.7645248153276
 30
0.0
 11
521.05991717633526
 21
291.49141490891901
 31
0.0
  0
POLYLINE
  5
7CD4
  8
0
 66
     1
 10
0.0
 20
0.0
 30
0.0
  0
VERTEX
  5
14238
  8
0
 10
521.05991717633526
 20
291.49141490891901
 30
0.0
  0
VERTEX
  5
14239
  8
0
 10
520.94499205138504
 20
291.73787263471559
 30
0.0
  0
VERTEX
  5
1423A
  8
0
 10
520.72359176880218
 20
292.21266707291659
 30
0.0
  0
VERTEX
  5
1423B
  8
0
 10
520.51386286990726
 20
292.66243214802802
 30
0.0
  0
VERTEX
  5
1423C
  8
0
 10
520.41352093398473
 20
292.87761612403108
 30
0.0
  0
SEQEND
  5
1423D
  8
0
  0
POLYLINE
  5
7CD5
  8
0
 66
     1
 10
0.0
 20
0.0
 30
0.0
  0
VERTEX
  5
1423E
  8
0
 10
520.41352093398473
 20
292.87761612403108
 30
0.0
  0
VERTEX
  5
1423F
  8
0
 10
520.40673461944436
 20
292.89197057921223
 30
0.0
  0
VERTEX
  5
14240
  8
0
 10
520.39274545719979
 20
292.92038604029261
 30
0.0
  0
VERTEX
  5
14241
  8
0
 10
520.37822946689755
 20
292.94836826550949
 30
0.0
  0
VERTEX
  5
14242
  8
0
 10
520.37078538397282
 20
292.96218180525278
 30
0.0
  0
VERTEX
  5
14243
  8
0
 10
520.36322372449945
 20
292.97586930183201
 30
0.0
  0
VERTEX
  5
14244
  8
0
 10
520.34776805224669
 20
293.00284454142451
 30
0.0
  0
VERTEX
  5
14245
  8
0
 10
520.33190448742505
 20
293.02925321505921
 30
0.0
  0
VERTEX
  5
14246
  8
0
 10
520.31567675242945
 20
293.05505873716208
 30
0.0
  0
VERTEX
  5
14247
  8
0
 10
520.29912973202772
 20
293.0802289296916
 30
0.0
  0
VERTEX
  5
14248
  8
0
 10
520.28230869699257
 20
293.10473652590503
 30
0.0
  0
VERTEX
  5
14249
  8
0
 10
520.27380894917064
 20
293.11673551123198
 30
0.0
  0
VERTEX
  5
1424A
  8
0
 10
520.26525716946276
 20
293.12856138225601
 30
0.0
  0
VERTEX
  5
1424B
  8
0
 10
520.24802076149308
 20
293.15168428056307
 30
0.0
  0
VERTEX
  5
1424C
  8
0
 10
520.2306465929928
 20
293.17408769551002
 30
0.0
  0
VERTEX
  5
1424D
  8
0
 10
520.21318250677666
 20
293.19575663002291
 30
0.0
  0
VERTEX
  5
1424E
  8
0
 10
520.19567669792832
 20
293.21667876755407
 30
0.0
  0
VERTEX
  5
1424F
  8
0
 10
520.17817738008011
 20
293.23684452853138
 30
0.0
  0
VERTEX
  5
14250
  8
0
 10
520.16944515335047
 20
293.24664151907149
 30
0.0
  0
VERTEX
  5
14251
  8
0
 10
520.16073248869316
 20
293.25624705090189
 30
0.0
  0
VERTEX
  5
14252
  8
0
 10
520.14338942006816
 20
293.27488211195117
 30
0.0
  0
VERTEX
  5
14253
  8
0
 10
520.12619480380988
 20
293.29274800601382
 30
0.0
  0
VERTEX
  5
14254
  8
0
 10
520.11766747834599
 20
293.3013926332236
 30
0.0
  0
VERTEX
  5
14255
  8
0
 10
520.10919430568674
 20
293.30984539040531
 30
0.0
  0
VERTEX
  5
14256
  8
0
 10
520.09241278717002
 20
293.3261959780329
 30
0.0
  0
VERTEX
  5
14257
  8
0
 10
520.07568929152364
 20
293.34199290844202
 30
0.0
  0
VERTEX
  5
14258
  8
0
 10
520.06733381133904
 20
293.34970621333139
 30
0.0
  0
VERTEX
  5
14259
  8
0
 10
520.05898351955682
 20
293.35729872569482
 30
0.0
  0
VERTEX
  5
1425A
  8
0
 10
520.04230137716002
 20
293.37212902885938
 30
0.0
  0
VERTEX
  5
1425B
  8
0
 10
520.02564839082993
 20
293.38649866666123
 30
0.0
  0
VERTEX
  5
1425C
  8
0
 10
520.00902976573389
 20
293.40042176917308
 30
0.0
  0
VERTEX
  5
1425D
  8
0
 10
519.99245043663063
 20
293.41391178165071
 30
0.0
  0
VERTEX
  5
1425E
  8
0
 10
519.97591511209225
 20
293.4269814998633
 30
0.0
  0
VERTEX
  5
1425F
  8
0
 10
519.9676653705842
 20
293.43336257861432
 30
0.0
  0
VERTEX
  5
14260
  8
0
 10
519.95942831249135
 20
293.43964310634141
 30
0.0
  0
VERTEX
  5
14261
  8
0
 10
519.94299440223449
 20
293.45190820701998
 30
0.0
  0
VERTEX
  5
14262
  8
0
 10
519.92661761672218
 20
293.46378786782168
 30
0.0
  0
VERTEX
  5
14263
  8
0
 10
519.86980756475191
 20
293.50247969602651
 30
0.0
  0
VERTEX
  5
14264
  8
0
 10
519.77464038625862
 20
293.55927332809591
 30
0.0
  0
VERTEX
  5
14265
  8
0
 10
519.6829108648891
 20
293.60550577154157
 30
0.0
  0
VERTEX
  5
14266
  8
0
 10
519.59527497394686
 20
293.64264746700331
 30
0.0
  0
VERTEX
  5
14267
  8
0
 10
519.55318527795885
 20
293.65821098703782
 30
0.0
  0
VERTEX
  5
14268
  8
0
 10
519.51233921067205
 20
293.6719672339504
 30
0.0
  0
VERTEX
  5
14269
  8
0
 10
519.43462516189891
 20
293.69460898743358
 30
0.0
  0
VERTEX
  5
1426A
  8
0
 10
519.36258724790184
 20
293.7116160036739
 30
0.0
  0
VERTEX
  5
1426B
  8
0
 10
519.29661717066597
 20
293.72394737665257
 30
0.0
  0
VERTEX
  5
1426C
  8
0
 10
519.23705400076744
 20
293.73248452750698
 30
0.0
  0
VERTEX
  5
1426D
  8
0
 10
519.18417399125656
 20
293.73803479408429
 30
0.0
  0
VERTEX
  5
1426E
  8
0
 10
519.16030659940782
 20
293.73992116706398
 30
0.0
  0
VERTEX
  5
1426F
  8
0
 10
519.13818131750031
 20
293.7413280332334
 30
0.0
  0
VERTEX
  5
14270
  8
0
 10
519.09921260746864
 20
293.74300896893408
 30
0.0
  0
VERTEX
  5
14271
  8
0
 10
519.06733575476085
 20
293.74362997510661
 30
0.0
  0
VERTEX
  5
14272
  8
0
 10
519.05405925342984
 20
293.74368873142021
 30
0.0
  0
SEQEND
  5
14273
  8
0
  0
POLYLINE
  5
7CD6
  8
0
 66
     1
 10
0.0
 20
0.0
 30
0.0
  0
VERTEX
  5
14274
  8
0
 10
542.68784237935802
 20
288.7645248153276
 30
0.0
  0
VERTEX
  5
14275
  8
0
 10
542.68002987608645
 20
288.74788507340821
 30
0.0
  0
VERTEX
  5
14276
  8
0
 10
542.6641432287538
 20
288.71472983265852
 30
0.0
  0
VERTEX
  5
14277
  8
0
 10
542.64790919180928
 20
288.68174329605472
 30
0.0
  0
VERTEX
  5
14278
  8
0
 10
542.63966246050654
 20
288.66531442995432
 30
0.0
  0
VERTEX
  5
14279
  8
0
 10
542.63132955650394
 20
288.64892910330531
 30
0.0
  0
VERTEX
  5
1427A
  8
0
 10
542.61440615222182
 20
288.6162908751034
 30
0.0
  0
VERTEX
  5
1427B
  8
0
 10
542.59714084627853
 20
288.58383221272601
 30
0.0
  0
VERTEX
  5
1427C
  8
0
 10
542.57953554371454
 20
288.55155669763678
 30
0.0
  0
VERTEX
  5
1427D
  8
0
 10
542.56159218708535
 20
288.51946789109161
 30
0.0
  0
VERTEX
  5
1427E
  8
0
 10
542.54331275624691
 20
288.48756933374392
 30
0.0
  0
VERTEX
  5
1427F
  8
0
 10
542.53404764185018
 20
288.471692499244
 30
0.0
  0
VERTEX
  5
14280
  8
0
 10
542.52469926813785
 20
288.45586454525608
 30
0.0
  0
VERTEX
  5
14281
  8
0
 10
542.50575377655605
 20
288.42435702390998
 30
0.0
  0
VERTEX
  5
14282
  8
0
 10
542.48647837193198
 20
288.39305024622172
 30
0.0
  0
VERTEX
  5
14283
  8
0
 10
542.41644742240874
 20
288.28510704868808
 30
0.0
  0
VERTEX
  5
14284
  8
0
 10
542.35329690982553
 20
288.19468571322523
 30
0.0
  0
VERTEX
  5
14285
  8
0
 10
542.28732878489654
 20
288.10629899680362
 30
0.0
  0
VERTEX
  5
14286
  8
0
 10
542.14720445090609
 20
287.93597837856981
 30
0.0
  0
VERTEX
  5
14287
  8
0
 10
541.99663084492545
 20
287.774821525927
 30
0.0
  0
VERTEX
  5
14288
  8
0
 10
541.83620588481119
 20
287.62346838210709
 30
0.0
  0
VERTEX
  5
14289
  8
0
 10
541.66656660749845
 20
287.48251996046059
 30
0.0
  0
VERTEX
  5
1428A
  8
0
 10
541.48838663936772
 20
287.35253595787287
 30
0.0
  0
VERTEX
  5
1428B
  8
0
 10
541.39631375394379
 20
287.29181867107479
 30
0.0
  0
VERTEX
  5
1428C
  8
0
 10
541.3023735213194
 20
287.23403253224433
 30
0.0
  0
VERTEX
  5
1428D
  8
0
 10
541.10926589917563
 20
287.1274802528614
 30
0.0
  0
VERTEX
  5
1428E
  8
0
 10
540.909830590566
 20
287.03330223179682
 30
0.0
  0
VERTEX
  5
1428F
  8
0
 10
540.70485953994626
 20
286.95187244376018
 30
0.0
  0
VERTEX
  5
14290
  8
0
 10
540.4951666738383
 20
286.88351424106941
 30
0.0
  0
VERTEX
  5
14291
  8
0
 10
540.28158466878153
 20
286.82849906963702
 30
0.0
  0
VERTEX
  5
14292
  8
0
 10
540.17359976513023
 20
286.8060654847726
 30
0.0
  0
VERTEX
  5
14293
  8
0
 10
540.06496164482985
 20
286.78704539108088
 30
0.0
  0
VERTEX
  5
14294
  8
0
 10
539.84615779772275
 20
286.75931781522422
 30
0.0
  0
VERTEX
  5
14295
  8
0
 10
539.6260419831043
 20
286.74542644644077
 30
0.0
  0
VERTEX
  5
14296
  8
0
 10
539.5157651247298
 20
286.74368873142021
 30
0.0
  0
SEQEND
  5
14297
  8
0
  0
LINE
  5
7CD7
  8
0
 10
543.95941211294678
 20
291.49141490891901
 30
0.0
 11
542.68784237935802
 21
288.7645248153276
 31
0.0
  0
POLYLINE
  5
7CD8
  8
0
 66
     1
 10
0.0
 20
0.0
 30
0.0
  0
VERTEX
  5
14298
  8
0
 10
544.60580835529731
 20
292.87761612403108
 30
0.0
  0
VERTEX
  5
14299
  8
0
 10
544.50546641937478
 20
292.66243214802802
 30
0.0
  0
VERTEX
  5
1429A
  8
0
 10
544.29573752047975
 20
292.21266707291659
 30
0.0
  0
VERTEX
  5
1429B
  8
0
 10
544.07433723789711
 20
291.73787263471559
 30
0.0
  0
VERTEX
  5
1429C
  8
0
 10
543.95941211294678
 20
291.49141490891901
 30
0.0
  0
SEQEND
  5
1429D
  8
0
  0
POLYLINE
  5
7CD9
  8
0
 66
     1
 10
0.0
 20
0.0
 30
0.0
  0
VERTEX
  5
1429E
  8
0
 10
545.96527003585231
 20
293.74368873142021
 30
0.0
  0
VERTEX
  5
1429F
  8
0
 10
545.95199353452108
 20
293.74362997510661
 30
0.0
  0
VERTEX
  5
142A0
  8
0
 10
545.92011668181351
 20
293.74300896893408
 30
0.0
  0
VERTEX
  5
142A1
  8
0
 10
545.88114797178184
 20
293.7413280332334
 30
0.0
  0
VERTEX
  5
142A2
  8
0
 10
545.85902268987434
 20
293.73992116706398
 30
0.0
  0
VERTEX
  5
142A3
  8
0
 10
545.83515529802537
 20
293.73803479408429
 30
0.0
  0
VERTEX
  5
142A4
  8
0
 10
545.78227528851437
 20
293.73248452750698
 30
0.0
  0
VERTEX
  5
142A5
  8
0
 10
545.72271211861607
 20
293.72394737665257
 30
0.0
  0
VERTEX
  5
142A6
  8
0
 10
545.65674204138031
 20
293.7116160036739
 30
0.0
  0
VERTEX
  5
142A7
  8
0
 10
545.58470412738313
 20
293.69460898743358
 30
0.0
  0
VERTEX
  5
142A8
  8
0
 10
545.50699007860999
 20
293.6719672339504
 30
0.0
  0
VERTEX
  5
142A9
  8
0
 10
545.46614401132331
 20
293.65821098703782
 30
0.0
  0
VERTEX
  5
142AA
  8
0
 10
545.42405431533518
 20
293.64264746700331
 30
0.0
  0
VERTEX
  5
142AB
  8
0
 10
545.33641842439295
 20
293.60550577154157
 30
0.0
  0
VERTEX
  5
142AC
  8
0
 10
545.24468890302342
 20
293.55927332809591
 30
0.0
  0
VERTEX
  5
142AD
  8
0
 10
545.14952172453013
 20
293.50247969602651
 30
0.0
  0
VERTEX
  5
142AE
  8
0
 10
545.09271167255986
 20
293.46378786782168
 30
0.0
  0
VERTEX
  5
142AF
  8
0
 10
545.07633488704755
 20
293.45190820701998
 30
0.0
  0
VERTEX
  5
142B0
  8
0
 10
545.05990097679057
 20
293.43964310634141
 30
0.0
  0
VERTEX
  5
142B1
  8
0
 10
545.05166391869784
 20
293.43336257861432
 30
0.0
  0
VERTEX
  5
142B2
  8
0
 10
545.0434141771899
 20
293.4269814998633
 30
0.0
  0
VERTEX
  5
142B3
  8
0
 10
545.02687885265152
 20
293.41391178165071
 30
0.0
  0
VERTEX
  5
142B4
  8
0
 10
545.01029952354816
 20
293.40042176917308
 30
0.0
  0
VERTEX
  5
142B5
  8
0
 10
544.99368089845211
 20
293.38649866666123
 30
0.0
  0
VERTEX
  5
142B6
  8
0
 10
544.97702791212214
 20
293.37212902885938
 30
0.0
  0
VERTEX
  5
142B7
  8
0
 10
544.96034576972534
 20
293.35729872569482
 30
0.0
  0
VERTEX
  5
142B8
  8
0
 10
544.95199547794311
 20
293.34970621333139
 30
0.0
  0
VERTEX
  5
142B9
  8
0
 10
544.94363999775828
 20
293.34199290844202
 30
0.0
  0
VERTEX
  5
142BA
  8
0
 10
544.92691650211214
 20
293.3261959780329
 30
0.0
  0
VERTEX
  5
142BB
  8
0
 10
544.91013498359541
 20
293.30984539040531
 30
0.0
  0
VERTEX
  5
142BC
  8
0
 10
544.90166181093605
 20
293.3013926332236
 30
0.0
  0
VERTEX
  5
142BD
  8
0
 10
544.89313448547216
 20
293.29274800601382
 30
0.0
  0
VERTEX
  5
142BE
  8
0
 10
544.87593986921388
 20
293.27488211195117
 30
0.0
  0
VERTEX
  5
142BF
  8
0
 10
544.858596800589
 20
293.25624705090189
 30
0.0
  0
VERTEX
  5
142C0
  8
0
 10
544.84988413593157
 20
293.24664151907149
 30
0.0
  0
VERTEX
  5
142C1
  8
0
 10
544.84115190920204
 20
293.23684452853138
 30
0.0
  0
VERTEX
  5
142C2
  8
0
 10
544.82365259135383
 20
293.21667876755458
 30
0.0
  0
VERTEX
  5
142C3
  8
0
 10
544.80614678250538
 20
293.19575663002291
 30
0.0
  0
VERTEX
  5
142C4
  8
0
 10
544.78868269628924
 20
293.17408769551002
 30
0.0
  0
VERTEX
  5
142C5
  8
0
 10
544.77130852778896
 20
293.15168428056307
 30
0.0
  0
VERTEX
  5
142C6
  8
0
 10
544.75407211981928
 20
293.12856138225601
 30
0.0
  0
VERTEX
  5
142C7
  8
0
 10
544.7455203401114
 20
293.11673551123198
 30
0.0
  0
VERTEX
  5
142C8
  8
0
 10
544.73702059228947
 20
293.10473652590503
 30
0.0
  0
VERTEX
  5
142C9
  8
0
 10
544.72019955725443
 20
293.0802289296916
 30
0.0
  0
VERTEX
  5
142CA
  8
0
 10
544.7036525368527
 20
293.05505873716208
 30
0.0
  0
VERTEX
  5
142CB
  8
0
 10
544.68742480185711
 20
293.02925321505921
 30
0.0
  0
VERTEX
  5
142CC
  8
0
 10
544.67156123703535
 20
293.00284454142451
 30
0.0
  0
VERTEX
  5
142CD
  8
0
 10
544.65610556478248
 20
292.97586930183201
 30
0.0
  0
VERTEX
  5
142CE
  8
0
 10
544.64854390530934
 20
292.96218180525278
 30
0.0
  0
VERTEX
  5
142CF
  8
0
 10
544.64109982238438
 20
292.94836826550949
 30
0.0
  0
VERTEX
  5
142D0
  8
0
 10
544.62658383208225
 20
292.92038604029261
 30
0.0
  0
VERTEX
  5
142D1
  8
0
 10
544.61259466983756
 20
292.89197057921223
 30
0.0
  0
VERTEX
  5
142D2
  8
0
 10
544.60580835529731
 20
292.87761612403108
 30
0.0
  0
SEQEND
  5
142D3
  8
0
  0
LINE
  5
7CDA
  8
0
 10
575.00966464464102
 20
295.74368873142021
 30
0.0
 11
490.00966464464102
 21
295.74368873142021
 31
0.0
  0
ARC
  5
7D05
  8
0
 10
517.00966464464113
 20
260.7244548002738
 30
0.0
 40
2.0000000000000031
 50
104.8446044470974
 51
180.0
  0
ARC
  5
7D06
  8
0
 10
517.00966464464113
 20
143.7629226625661
 30
0.0
 40
2.0000000000000129
 50
180.0
 51
255.1553955529026
  0
ARC
  5
7D07
  8
0
 10
532.50966464464102
 20
202.24368873141989
 30
0.0
 40
62.499999999999901
 50
255.1553955529026
 51
284.84460444709731
  0
ARC
  5
7D08
  8
0
 10
532.50966464464102
 20
202.24368873141989
 30
0.0
 40
62.500000000000092
 50
75.155395552902618
 51
104.8446044470974
  0
ARC
  5
7D09
  8
0
 10
548.00966464464113
 20
260.7244548002738
 30
0.0
 40
1.9999999999999969
 50
0.0
 51
75.155395552902618
  0
ARC
  5
7D0A
  8
0
 10
548.00966464464113
 20
143.7629226625661
 30
0.0
 40
1.9999999999999889
 50
284.84460444709731
 51
0.0
  0
LINE
  5
7D15
  8
0
 10
515.00966464464113
 20
260.7244548002738
 30
0.0
 11
515.00966464464113
 21
143.7629226625661
 31
0.0
  0
LINE
  5
7D17
  8
0
 10
550.00966464464102
 20
260.7244548002738
 30
0.0
 11
550.00966464464102
 21
143.7629226625661
 31
0.0
  0
LINE
  5
7D1D
  8
0
 10
338.62678057026682
 20
295.7436887314197
 30
0.0
 11
338.62678057026682
 21
200.658752240881
 31
0.0
  0
CIRCLE
  5
7D1E
  8
0
 10
318.90231598404762
 20
202.24368873141989
 30
0.0
 40
6.2583333333333311
  0
LINE
  5
82CB
  8
3
 10
568.00966464464091
 20
199.01068873142
 30
0.0
 11
565.00966464464102
 21
199.01068873142
 31
0.0
  0
LINE
  5
83DF
  8
1
 10
244.24565921511109
 20
434.77251748445968
 30
0.0
 11
393.55897275298412
 21
434.77251748445968
 31
0.0
  0
LINE
  5
83E0
  8
1
 10
532.50966464464113
 20
123.7842333572468
 30
0.0
 11
532.50966464464113
 21
311.7031441055932
 31
0.0
  0
LINE
  5
847E
  8
0
 10
70.561967323454155
 20
198.24368873142009
 30
0.0
 11
72.794967323454216
 21
198.24368873142009
 31
0.0
  0
LINE
  5
847F
  8
0
 10
69.794967323454216
 20
199.01068873142
 30
0.0
 11
70.561967323454155
 21
198.24368873142009
 31
0.0
  0
LINE
  5
8480
  8
0
 10
134.8355476140386
 20
195.01718786206331
 30
0.0
 11
135.09496732345411
 21
195.98535539808671
 31
0.0
  0
LINE
  5
8481
  8
0
 10
72.794967323454216
 20
196.4286887314201
 30
0.0
 11
75.294967323454216
 21
196.4286887314201
 31
0.0
  0
LINE
  5
8482
  8
0
 10
75.294967323454216
 20
195.98535539808671
 30
0.0
 11
75.554387032869727
 21
195.01718786206331
 31
0.0
  0
LINE
  5
8483
  8
0
 10
82.794967323454216
 20
194.74368873142009
 30
0.0
 11
87.794967323454216
 21
194.74368873142009
 31
0.0
  0
LINE
  5
8484
  8
0
 10
122.7949673234541
 20
194.74368873142009
 30
0.0
 11
127.7949673234542
 21
194.74368873142009
 31
0.0
  0
LINE
  5
8485
  8
0
 10
127.7949673234542
 20
209.74368873142021
 30
0.0
 11
122.7949673234541
 21
209.74368873142021
 31
0.0
  0
LINE
  5
8486
  8
0
 10
87.794967323454216
 20
209.74368873142021
 30
0.0
 11
82.794967323454216
 21
209.74368873142021
 31
0.0
  0
LINE
  5
8487
  8
0
 10
70.561967323454155
 20
203.14272735118851
 30
0.0
 11
70.561967323454155
 21
198.24368873142009
 31
0.0
  0
LINE
  5
8488
  8
0
 10
69.794967323454216
 20
203.9107536273531
 30
0.0
 11
69.794967323454216
 21
199.01068873142
 31
0.0
  0
LINE
  5
8489
  8
0
 10
135.09496732345411
 20
197.61941662084831
 30
0.0
 11
135.09496732345411
 21
195.98535539808671
 31
0.0
  0
POLYLINE
  5
848A
  8
0
 66
     1
 10
0.0
 20
0.0
 30
0.0
  0
VERTEX
  5
142D4
  8
0
 10
135.050005776804
 20
197.55327140270259
 30
0.0
  0
VERTEX
  5
142D5
  8
0
 10
135.06368485212241
 20
197.43104511773751
 30
0.0
  0
VERTEX
  5
142D6
  8
0
 10
135.08363793290681
 20
197.18816720581381
 30
0.0
  0
VERTEX
  5
142D7
  8
0
 10
135.09369714333931
 20
196.94562870493351
 30
0.0
  0
VERTEX
  5
142D8
  8
0
 10
135.09496732345411
 20
196.82381307940241
 30
0.0
  0
SEQEND
  5
142D9
  8
0
  0
POLYLINE
  5
848B
  8
0
 66
     1
 10
0.0
 20
0.0
 30
0.0
  0
VERTEX
  5
142DA
  8
0
 10
135.09496732345411
 20
196.82381307940241
 30
0.0
  0
VERTEX
  5
142DB
  8
0
 10
135.08777718983421
 20
196.5337305080829
 30
0.0
  0
VERTEX
  5
142DC
  8
0
 10
135.0310026060499
 20
195.95132233650739
 30
0.0
  0
VERTEX
  5
142DD
  8
0
 10
134.9163922672968
 20
195.34176175773561
 30
0.0
  0
VERTEX
  5
142DE
  8
0
 10
134.8355476140386
 20
195.01718786206331
 30
0.0
  0
SEQEND
  5
142DF
  8
0
  0
LINE
  5
848C
  8
0
 10
134.8355476140386
 20
195.01718786206331
 30
0.0
 11
133.55757421291011
 21
195.01718786206331
 31
0.0
  0
LINE
  5
848D
  8
0
 10
72.794967323454216
 20
200.90720795705661
 30
0.0
 11
72.794967323454216
 21
196.4286887314201
 31
0.0
  0
LINE
  5
848E
  8
0
 10
75.294967323454216
 20
197.92122067781099
 30
0.0
 11
75.294967323454216
 21
195.98535539808671
 31
0.0
  0
POLYLINE
  5
848F
  8
0
 66
     1
 10
0.0
 20
0.0
 30
0.0
  0
VERTEX
  5
142E0
  8
0
 10
75.554387032869727
 20
195.01718786206331
 30
0.0
  0
VERTEX
  5
142E1
  8
0
 10
75.473542379611558
 20
195.34176175773561
 30
0.0
  0
VERTEX
  5
142E2
  8
0
 10
75.358932040858463
 20
195.95132233650739
 30
0.0
  0
VERTEX
  5
142E3
  8
0
 10
75.302157457074145
 20
196.5337305080829
 30
0.0
  0
VERTEX
  5
142E4
  8
0
 10
75.294967323454216
 20
196.82381307940241
 30
0.0
  0
SEQEND
  5
142E5
  8
0
  0
POLYLINE
  5
8490
  8
0
 66
     1
 10
0.0
 20
0.0
 30
0.0
  0
VERTEX
  5
142E6
  8
0
 10
75.294967323454216
 20
196.82381307940241
 30
0.0
  0
VERTEX
  5
142E7
  8
0
 10
75.297222810864923
 20
196.98616383338
 30
0.0
  0
VERTEX
  5
142E8
  8
0
 10
75.315051806134875
 20
197.3095654836192
 30
0.0
  0
VERTEX
  5
142E9
  8
0
 10
75.350458433360913
 20
197.6354527343637
 30
0.0
  0
VERTEX
  5
142EA
  8
0
 10
75.374815228017496
 20
197.80089085809001
 30
0.0
  0
SEQEND
  5
142EB
  8
0
  0
LINE
  5
8491
  8
0
 10
77.032353612892052
 20
195.01718786206331
 30
0.0
 11
75.554387032869727
 21
195.01718786206331
 31
0.0
  0
LINE
  5
8494
  8
1
 10
149.51073213410109
 20
202.24368873141989
 30
0.0
 11
61.079202512807107
 21
202.24368873142021
 31
0.0
  0
LINE
  5
8495
  8
0
 10
64.794967323454216
 20
293.74368873142021
 30
0.0
 11
64.794967323454216
 21
215.4456641788785
 31
0.0
  0
LINE
  5
8496
  8
0
 10
62.794967323454209
 20
293.74368873142021
 30
0.0
 11
147.79496732345419
 21
293.74368873142021
 31
0.0
  0
LINE
  5
8497
  8
0
 10
82.794967323454216
 20
293.74368873142021
 30
0.0
 11
82.794967323454216
 21
190.74368873142009
 31
0.0
  0
LINE
  5
849A
  8
0
 10
145.79496732345419
 20
293.74368873142021
 30
0.0
 11
145.79496732345419
 21
215.4456641788785
 31
0.0
  0
POLYLINE
  5
849C
  8
0
 66
     1
 10
0.0
 20
0.0
 30
0.0
  0
VERTEX
  5
142EC
  8
0
 10
147.6233413164079
 20
212.90321381140549
 30
0.0
  0
VERTEX
  5
142ED
  8
0
 10
147.634328793115
 20
212.96325150546261
 30
0.0
  0
VERTEX
  5
142EE
  8
0
 10
147.65501572386151
 20
213.08536231674111
 30
0.0
  0
VERTEX
  5
142EF
  8
0
 10
147.67402090699969
 20
213.21015325225849
 30
0.0
  0
VERTEX
  5
142F0
  8
0
 10
147.68290701812589
 20
213.27354006394441
 30
0.0
  0
VERTEX
  5
142F1
  8
0
 10
147.69139012638459
 20
213.33757994250999
 30
0.0
  0
VERTEX
  5
142F2
  8
0
 10
147.7071725061987
 20
213.46759396417559
 30
0.0
  0
VERTEX
  5
142F3
  8
0
 10
147.72142031956139
 20
213.60014322498901
 30
0.0
  0
VERTEX
  5
142F4
  8
0
 10
147.73418876364161
 20
213.73517235906911
 30
0.0
  0
VERTEX
  5
142F5
  8
0
 10
147.74553570764809
 20
213.87262313153221
 30
0.0
  0
VERTEX
  5
142F6
  8
0
 10
147.75552141952471
 20
214.0124348516276
 30
0.0
  0
VERTEX
  5
142F7
  8
0
 10
147.76002323210409
 20
214.08320653316011
 30
0.0
  0
VERTEX
  5
142F8
  8
0
 10
147.76420827664541
 20
214.15454479401379
 30
0.0
  0
VERTEX
  5
142F9
  8
0
 10
147.77166046530289
 20
214.2988886281077
 30
0.0
  0
VERTEX
  5
142FA
  8
0
 10
147.7779437234687
 20
214.44540214954301
 30
0.0
  0
VERTEX
  5
142FB
  8
0
 10
147.78312488898999
 20
214.5940187754376
 30
0.0
  0
VERTEX
  5
142FC
  8
0
 10
147.7872715732334
 20
214.74466654701919
 30
0.0
  0
VERTEX
  5
142FD
  8
0
 10
147.79045205421309
 20
214.89727081758471
 30
0.0
  0
VERTEX
  5
142FE
  8
0
 10
147.79170142590519
 20
214.97428266091941
 30
0.0
  0
VERTEX
  5
142FF
  8
0
 10
147.7927350249293
 20
215.0517545886982
 30
0.0
  0
VERTEX
  5
14300
  8
0
 10
147.79418933327801
 20
215.20803883818411
 30
0.0
  0
VERTEX
  5
14301
  8
0
 10
147.79488371754869
 20
215.3660428558118
 30
0.0
  0
VERTEX
  5
14302
  8
0
 10
147.79496732345419
 20
215.4456641788785
 30
0.0
  0
SEQEND
  5
14303
  8
0
  0
POLYLINE
  5
849D
  8
0
 66
     1
 10
0.0
 20
0.0
 30
0.0
  0
VERTEX
  5
14304
  8
0
 10
144.42644638256769
 20
207.26306973758179
 30
0.0
  0
VERTEX
  5
14305
  8
0
 10
144.56259684428289
 20
207.38594357564941
 30
0.0
  0
VERTEX
  5
14306
  8
0
 10
144.82802387721841
 20
207.63907771070421
 30
0.0
  0
VERTEX
  5
14307
  8
0
 10
145.0839894516912
 20
207.9017753026759
 30
0.0
  0
VERTEX
  5
14308
  8
0
 10
145.20831607376849
 20
208.0366004462862
 30
0.0
  0
VERTEX
  5
14309
  8
0
 10
145.3301492213086
 20
208.17368294869709
 30
0.0
  0
VERTEX
  5
1430A
  8
0
 10
145.56617203127109
 20
208.45443485576141
 30
0.0
  0
VERTEX
  5
1430B
  8
0
 10
145.7917403638682
 20
208.7436533328202
 30
0.0
  0
VERTEX
  5
1430C
  8
0
 10
146.00655076563109
 20
209.04094929888331
 30
0.0
  0
VERTEX
  5
1430D
  8
0
 10
146.21031425556291
 20
209.34592280644361
 30
0.0
  0
VERTEX
  5
1430E
  8
0
 10
146.40275671390029
 20
209.6581635795209
 30
0.0
  0
VERTEX
  5
1430F
  8
0
 10
146.49465104858371
 20
209.81687829074781
 30
0.0
  0
VERTEX
  5
14310
  8
0
 10
146.5836192508832
 20
209.97725156559861
 30
0.0
  0
VERTEX
  5
14311
  8
0
 10
146.75265855503389
 20
210.30275750071351
 30
0.0
  0
VERTEX
  5
14312
  8
0
 10
146.90964722048111
 20
210.63424348693931
 30
0.0
  0
VERTEX
  5
14313
  8
0
 10
147.05437405288461
 20
210.9712635814814
 30
0.0
  0
VERTEX
  5
14314
  8
0
 10
147.18664435355231
 20
211.3133643965991
 30
0.0
  0
VERTEX
  5
14315
  8
0
 10
147.3062801813648
 20
211.66008570953861
 30
0.0
  0
VERTEX
  5
14316
  8
0
 10
147.36130920287741
 20
211.83503351632129
 30
0.0
  0
VERTEX
  5
14317
  8
0
 10
147.4131205921571
 20
212.01096108166479
 30
0.0
  0
VERTEX
  5
14318
  8
0
 10
147.50702185523369
 20
212.3655184859528
 30
0.0
  0
VERTEX
  5
14319
  8
0
 10
147.58785764672751
 20
212.72328094199929
 30
0.0
  0
VERTEX
  5
1431A
  8
0
 10
147.6233413164079
 20
212.90321381140549
 30
0.0
  0
SEQEND
  5
1431B
  8
0
  0
POLYLINE
  5
849E
  8
0
 66
     1
 10
0.0
 20
0.0
 30
0.0
  0
VERTEX
  5
1431C
  8
0
 10
142.79496732345419
 20
205.8485255471837
 30
0.0
  0
VERTEX
  5
1431D
  8
0
 10
143.07593667177011
 20
206.0865343654159
 30
0.0
  0
VERTEX
  5
1431E
  8
0
 10
143.62900998767
 20
206.5627701174505
 30
0.0
  0
VERTEX
  5
1431F
  8
0
 10
144.16581575075401
 20
207.0327475722124
 30
0.0
  0
VERTEX
  5
14320
  8
0
 10
144.42644638256769
 20
207.26306973758179
 30
0.0
  0
SEQEND
  5
14321
  8
0
  0
LINE
  5
849F
  8
0
 10
127.7949673234542
 20
190.74368873142009
 30
0.0
 11
129.91502152159831
 21
190.74368873142009
 31
0.0
  0
POLYLINE
  5
84A0
  8
0
 66
     1
 10
0.0
 20
0.0
 30
0.0
  0
VERTEX
  5
14322
  8
0
 10
133.9727163121652
 20
195.74368873142009
 30
0.0
  0
VERTEX
  5
14323
  8
0
 10
133.8369588611547
 20
195.49715234719491
 30
0.0
  0
VERTEX
  5
14324
  8
0
 10
133.5597449184981
 20
195.02078180563231
 30
0.0
  0
VERTEX
  5
14325
  8
0
 10
133.2786153330369
 20
194.56810037685449
 30
0.0
  0
VERTEX
  5
14326
  8
0
 10
133.13790218446789
 20
194.35115971730639
 30
0.0
  0
VERTEX
  5
14327
  8
0
 10
132.99776066078999
 20
194.1407532106895
 30
0.0
  0
VERTEX
  5
14328
  8
0
 10
132.72108665257721
 20
193.74029537833709
 30
0.0
  0
VERTEX
  5
14329
  8
0
 10
132.44790700526991
 20
193.36234955452289
 30
0.0
  0
VERTEX
  5
1432A
  8
0
 10
132.1736428518854
 20
192.9986447265232
 30
0.0
  0
VERTEX
  5
1432B
  8
0
 10
131.90169587468151
 20
192.6525466788577
 30
0.0
  0
VERTEX
  5
1432C
  8
0
 10
131.63555008773031
 20
192.3274085168741
 30
0.0
  0
VERTEX
  5
1432D
  8
0
 10
131.50569081455319
 20
192.17366363339161
 30
0.0
  0
VERTEX
  5
1432E
  8
0
 10
131.37850471332669
 20
192.02628412269189
 30
0.0
  0
VERTEX
  5
1432F
  8
0
 10
131.13366484680611
 20
191.75197332820011
 30
0.0
  0
VERTEX
  5
14330
  8
0
 10
130.90387668701351
 20
191.50698257232779
 30
0.0
  0
VERTEX
  5
14331
  8
0
 10
130.691535696616
 20
191.2933563840196
 30
0.0
  0
VERTEX
  5
14332
  8
0
 10
130.4988233763591
 20
191.11295162762769
 30
0.0
  0
VERTEX
  5
14333
  8
0
 10
130.32764398860101
 20
190.96734674981391
 30
0.0
  0
VERTEX
  5
14334
  8
0
 10
130.25060378201709
 20
190.90796456456101
 30
0.0
  0
VERTEX
  5
14335
  8
0
 10
130.2383333872578
 20
190.89894856254921
 30
0.0
  0
VERTEX
  5
14336
  8
0
 10
130.21428615464851
 20
190.88167524382229
 30
0.0
  0
VERTEX
  5
14337
  8
0
 10
130.19090056751341
 20
190.86541572821301
 30
0.0
  0
VERTEX
  5
14338
  8
0
 10
130.17945715356259
 20
190.85766689665741
 30
0.0
  0
VERTEX
  5
14339
  8
0
 10
130.168180624277
 20
190.85017236995819
 30
0.0
  0
VERTEX
  5
1433A
  8
0
 10
130.14612998511939
 20
190.83594715025299
 30
0.0
  0
VERTEX
  5
1433B
  8
0
 10
130.12475195904449
 20
190.82274166152169
 30
0.0
  0
VERTEX
  5
1433C
  8
0
 10
130.1040494919435
 20
190.8105570931163
 30
0.0
  0
VERTEX
  5
1433D
  8
0
 10
130.08402515569441
 20
190.79939421848661
 30
0.0
  0
VERTEX
  5
1433E
  8
0
 10
130.06468113833529
 20
190.78925338386981
 30
0.0
  0
VERTEX
  5
1433F
  8
0
 10
130.05526482587811
 20
190.7845662205188
 30
0.0
  0
VERTEX
  5
14340
  8
0
 10
130.04601923535279
 20
190.7801344985468
 30
0.0
  0
VERTEX
  5
14341
  8
0
 10
130.02804084211559
 20
190.77203702670971
 30
0.0
  0
VERTEX
  5
14342
  8
0
 10
130.01074694749369
 20
190.76495998099051
 30
0.0
  0
VERTEX
  5
14343
  8
0
 10
129.99413812868741
 20
190.7589019176898
 30
0.0
  0
VERTEX
  5
14344
  8
0
 10
129.97821454730089
 20
190.75386093375701
 30
0.0
  0
VERTEX
  5
14345
  8
0
 10
129.9629759466865
 20
190.7498346655581
 30
0.0
  0
VERTEX
  5
14346
  8
0
 10
129.95561331923841
 20
190.74820118539279
 30
0.0
  0
VERTEX
  5
14347
  8
0
 10
129.94842165058171
 20
190.74682028947939
 30
0.0
  0
VERTEX
  5
14348
  8
0
 10
129.93455056306379
 20
190.74481452440449
 30
0.0
  0
VERTEX
  5
14349
  8
0
 10
129.92136116984059
 20
190.74381363610419
 30
0.0
  0
VERTEX
  5
1434A
  8
0
 10
129.91502152159831
 20
190.74368873142009
 30
0.0
  0
SEQEND
  5
1434B
  8
0
  0
LINE
  5
84A1
  8
0
 10
136.54496732345419
 20
203.65875224088131
 30
0.0
 11
138.0782170082895
 21
205.19200192571631
 31
0.0
  0
LINE
  5
84A2
  8
0
 10
142.07821700828941
 20
205.19200192571631
 30
0.0
 11
137.54496732345419
 21
200.65875224088131
 31
0.0
  0
POLYLINE
  5
84A3
  8
0
 66
     1
 10
0.0
 20
0.0
 30
0.0
  0
VERTEX
  5
1434C
  8
0
 10
137.54496732345419
 20
200.65875224088131
 30
0.0
  0
VERTEX
  5
1434D
  8
0
 10
137.43508012861361
 20
200.54782136332321
 30
0.0
  0
VERTEX
  5
1434E
  8
0
 10
137.21690082411271
 20
200.32129301873141
 30
0.0
  0
VERTEX
  5
1434F
  8
0
 10
137.00089720902429
 20
200.08859357213299
 30
0.0
  0
VERTEX
  5
14350
  8
0
 10
136.89372948860699
 20
199.96994920662311
 30
0.0
  0
VERTEX
  5
14351
  8
0
 10
136.78712746023729
 20
199.84978569715429
 30
0.0
  0
VERTEX
  5
14352
  8
0
 10
136.5756491529871
 20
199.60493371262299
 30
0.0
  0
VERTEX
  5
14353
  8
0
 10
136.3665192453484
 20
199.354103565244
 30
0.0
  0
VERTEX
  5
14354
  8
0
 10
136.15979406289429
 20
199.09736281183891
 30
0.0
  0
VERTEX
  5
14355
  8
0
 10
135.9555292835262
 20
198.8347806011499
 30
0.0
  0
VERTEX
  5
14356
  8
0
 10
135.75377992247809
 20
198.5664276552165
 30
0.0
  0
VERTEX
  5
14357
  8
0
 10
135.65386553123631
 20
198.4301096826897
 30
0.0
  0
VERTEX
  5
14358
  8
0
 10
135.5546003174988
 20
198.29237625032681
 30
0.0
  0
VERTEX
  5
14359
  8
0
 10
135.35804411421731
 20
198.01270019755191
 30
0.0
  0
VERTEX
  5
1435A
  8
0
 10
135.16416425169399
 20
197.7274748228655
 30
0.0
  0
VERTEX
  5
1435B
  8
0
 10
134.97301294816251
 20
197.43677694685729
 30
0.0
  0
VERTEX
  5
1435C
  8
0
 10
134.78464168696561
 20
197.14068486404099
 30
0.0
  0
VERTEX
  5
1435D
  8
0
 10
134.5991012026895
 20
196.83927832176821
 30
0.0
  0
VERTEX
  5
1435E
  8
0
 10
134.5074081483495
 20
196.68660744136551
 30
0.0
  0
VERTEX
  5
1435F
  8
0
 10
134.41644146749829
 20
196.53263849874989
 30
0.0
  0
VERTEX
  5
14360
  8
0
 10
134.23671167767591
 20
196.22084798319131
 30
0.0
  0
VERTEX
  5
14361
  8
0
 10
134.0599602403754
 20
195.9039907505491
 30
0.0
  0
VERTEX
  5
14362
  8
0
 10
133.9727163121652
 20
195.74368873142009
 30
0.0
  0
SEQEND
  5
14363
  8
0
  0
POLYLINE
  5
84A4
  8
0
 66
     1
 10
0.0
 20
0.0
 30
0.0
  0
VERTEX
  5
14364
  8
0
 10
138.0782170082895
 20
205.19200192571631
 30
0.0
  0
VERTEX
  5
14365
  8
0
 10
138.14159223329131
 20
205.254848303362
 30
0.0
  0
VERTEX
  5
14366
  8
0
 10
138.2707090482964
 20
205.37973450732159
 30
0.0
  0
VERTEX
  5
14367
  8
0
 10
138.4029581864641
 20
205.5035233183257
 30
0.0
  0
VERTEX
  5
14368
  8
0
 10
138.47024866012049
 20
205.56499800918471
 30
0.0
  0
VERTEX
  5
14369
  8
0
 10
138.5383116723213
 20
205.62618855056621
 30
0.0
  0
VERTEX
  5
1436A
  8
0
 10
138.67674087371341
 20
205.74770425591259
 30
0.0
  0
VERTEX
  5
1436B
  8
0
 10
138.8182165078606
 20
205.86804472940071
 30
0.0
  0
VERTEX
  5
1436C
  8
0
 10
138.96270864755249
 20
205.98718451467099
 30
0.0
  0
VERTEX
  5
1436D
  8
0
 10
139.11018672747889
 20
206.10509840935219
 30
0.0
  0
VERTEX
  5
1436E
  8
0
 10
139.26061955069511
 20
206.2217614703936
 30
0.0
  0
VERTEX
  5
1436F
  8
0
 10
139.3369340709005
 20
206.27961621580371
 30
0.0
  0
VERTEX
  5
14370
  8
0
 10
139.41397529522141
 20
206.33714901934121
 30
0.0
  0
VERTEX
  5
14371
  8
0
 10
139.57022152077479
 20
206.4512366475569
 30
0.0
  0
VERTEX
  5
14372
  8
0
 10
139.72932517563089
 20
206.56400022138439
 30
0.0
  0
VERTEX
  5
14373
  8
0
 10
139.89125260361581
 20
206.67541588725129
 30
0.0
  0
VERTEX
  5
14374
  8
0
 10
140.0559695512255
 20
206.78546007671719
 30
0.0
  0
VERTEX
  5
14375
  8
0
 10
140.22344117487171
 20
206.8941095114582
 30
0.0
  0
VERTEX
  5
14376
  8
0
 10
140.3081989420474
 20
206.94790400187321
 30
0.0
  0
VERTEX
  5
14377
  8
0
 10
140.3936320482527
 20
207.00134120819229
 30
0.0
  0
VERTEX
  5
14378
  8
0
 10
140.56650616984689
 20
207.10713248353929
 30
0.0
  0
VERTEX
  5
14379
  8
0
 10
140.7420269705292
 20
207.2114609588202
 30
0.0
  0
VERTEX
  5
1437A
  8
0
 10
140.83076829437351
 20
207.26306973758199
 30
0.0
  0
SEQEND
  5
1437B
  8
0
  0
POLYLINE
  5
84A5
  8
0
 66
     1
 10
0.0
 20
0.0
 30
0.0
  0
VERTEX
  5
1437C
  8
0
 10
142.79496732345419
 20
205.8485255471837
 30
0.0
  0
VERTEX
  5
1437D
  8
0
 10
142.66941195871391
 20
205.7413663651013
 30
0.0
  0
VERTEX
  5
1437E
  8
0
 10
142.4255569946516
 20
205.5242795667981
 30
0.0
  0
VERTEX
  5
1437F
  8
0
 10
142.19151175581069
 20
205.30362289255339
 30
0.0
  0
VERTEX
  5
14380
  8
0
 10
142.07821700828941
 20
205.19200192571631
 30
0.0
  0
SEQEND
  5
14381
  8
0
  0
LINE
  5
84A6
  8
0
 10
140.83076829437351
 20
207.26306973758199
 30
0.0
 11
141.79496732345419
 21
207.81975030657389
 31
0.0
  0
POLYLINE
  5
84A7
  8
0
 66
     1
 10
0.0
 20
0.0
 30
0.0
  0
VERTEX
  5
14382
  8
0
 10
141.79496732345419
 20
207.81975030657389
 30
0.0
  0
VERTEX
  5
14383
  8
0
 10
141.9506829070113
 20
207.912017025399
 30
0.0
  0
VERTEX
  5
14384
  8
0
 10
142.2556537386491
 20
208.10699903427249
 30
0.0
  0
VERTEX
  5
14385
  8
0
 10
142.5514923469477
 20
208.31557686093259
 30
0.0
  0
VERTEX
  5
14386
  8
0
 10
142.69579703375601
 20
208.42483182754941
 30
0.0
  0
VERTEX
  5
14387
  8
0
 10
142.83759307080649
 20
208.5373234905386
 30
0.0
  0
VERTEX
  5
14388
  8
0
 10
143.11337018519029
 20
208.7717849481736
 30
0.0
  0
VERTEX
  5
14389
  8
0
 10
143.37825910026569
 20
209.0184812282518
 30
0.0
  0
VERTEX
  5
1438A
  8
0
 10
143.6317175172679
 20
209.2769072772191
 30
0.0
  0
VERTEX
  5
1438B
  8
0
 10
143.87322653873241
 20
209.54653402753411
 30
0.0
  0
VERTEX
  5
1438C
  8
0
 10
144.102291730817
 20
209.82680948081079
 30
0.0
  0
VERTEX
  5
1438D
  8
0
 10
144.2120103197046
 20
209.97076197859329
 30
0.0
  0
VERTEX
  5
1438E
  8
0
 10
144.31844413554131
 20
210.11715983790731
 30
0.0
  0
VERTEX
  5
1438F
  8
0
 10
144.52124123086901
 20
210.4169906736478
 30
0.0
  0
VERTEX
  5
14390
  8
0
 10
144.71026783666969
 20
210.7256881537698
 30
0.0
  0
VERTEX
  5
14391
  8
0
 10
144.8851369647044
 20
211.04262029160779
 30
0.0
  0
VERTEX
  5
14392
  8
0
 10
145.04549061089401
 20
211.36713824194021
 30
0.0
  0
VERTEX
  5
14393
  8
0
 10
145.1910004882497
 20
211.69857762934919
 30
0.0
  0
VERTEX
  5
14394
  8
0
 10
145.2580947163658
 20
211.86668133221991
 30
0.0
  0
VERTEX
  5
14395
  8
0
 10
145.32136869896539
 20
212.03625990837639
 30
0.0
  0
VERTEX
  5
14396
  8
0
 10
145.4363283442936
 20
212.37949375268701
 30
0.0
  0
VERTEX
  5
14397
  8
0
 10
145.53564407095939
 20
212.72757647040089
 30
0.0
  0
VERTEX
  5
14398
  8
0
 10
145.579370662527
 20
212.90321381140549
 30
0.0
  0
SEQEND
  5
14399
  8
0
  0
POLYLINE
  5
84A8
  8
0
 66
     1
 10
0.0
 20
0.0
 30
0.0
  0
VERTEX
  5
1439A
  8
0
 10
145.579370662527
 20
212.90321381140549
 30
0.0
  0
VERTEX
  5
1439B
  8
0
 10
145.59366377422401
 20
212.96514221351839
 30
0.0
  0
VERTEX
  5
1439C
  8
0
 10
145.6201579491694
 20
213.08948893229029
 30
0.0
  0
VERTEX
  5
1439D
  8
0
 10
145.64398266792821
 20
213.21414253913369
 30
0.0
  0
VERTEX
  5
1439E
  8
0
 10
145.65498625585019
 20
213.2767153270683
 30
0.0
  0
VERTEX
  5
1439F
  8
0
 10
145.66550035250091
 20
213.33997946107911
 30
0.0
  0
VERTEX
  5
143A0
  8
0
 10
145.68509179124081
 20
213.46858852914551
 30
0.0
  0
VERTEX
  5
143A1
  8
0
 10
145.70281414859221
 20
213.59992972155621
 30
0.0
  0
VERTEX
  5
143A2
  8
0
 10
145.71872712585429
 20
213.73394798831981
 30
0.0
  0
VERTEX
  5
143A3
  8
0
 10
145.73289453826371
 20
213.87058379598349
 30
0.0
  0
VERTEX
  5
143A4
  8
0
 10
145.7453840232435
 20
214.00977363453251
 30
0.0
  0
VERTEX
  5
143A5
  8
0
 10
145.75102164323829
 20
214.08030550664171
 30
0.0
  0
VERTEX
  5
143A6
  8
0
 10
145.7562667061992
 20
214.15145052747721
 30
0.0
  0
VERTEX
  5
143A7
  8
0
 10
145.7656168334556
 20
214.2955445446805
 30
0.0
  0
VERTEX
  5
143A8
  8
0
 10
145.77351138085641
 20
214.4419833181577
 30
0.0
  0
VERTEX
  5
143A9
  8
0
 10
145.7800296455537
 20
214.59069256161999
 30
0.0
  0
VERTEX
  5
143AA
  8
0
 10
145.78525283434831
 20
214.74159681770149
 30
0.0
  0
VERTEX
  5
143AB
  8
0
 10
145.78926361890959
 20
214.89461940179689
 30
0.0
  0
VERTEX
  5
143AC
  8
0
 10
145.79084046836039
 20
214.97189947289871
 30
0.0
  0
VERTEX
  5
143AD
  8
0
 10
145.79214565378339
 20
215.04967796244929
 30
0.0
  0
VERTEX
  5
143AE
  8
0
 10
145.79398334877001
 20
215.2066869064906
 30
0.0
  0
VERTEX
  5
143AF
  8
0
 10
145.79486152548199
 20
215.36555821127331
 30
0.0
  0
VERTEX
  5
143B0
  8
0
 10
145.79496732345419
 20
215.4456641788785
 30
0.0
  0
SEQEND
  5
143B1
  8
0
  0
POLYLINE
  5
84A9
  8
0
 66
     1
 10
0.0
 20
0.0
 30
0.0
  0
VERTEX
  5
143B2
  8
0
 10
147.79496732345419
 20
215.4456641788785
 30
0.0
  0
VERTEX
  5
143B3
  8
0
 10
147.79488371754869
 20
215.3660428558118
 30
0.0
  0
VERTEX
  5
143B4
  8
0
 10
147.7941893332779
 20
215.20803883818411
 30
0.0
  0
VERTEX
  5
143B5
  8
0
 10
147.7927350249293
 20
215.0517545886982
 30
0.0
  0
VERTEX
  5
143B6
  8
0
 10
147.79170142590519
 20
214.97428266091941
 30
0.0
  0
VERTEX
  5
143B7
  8
0
 10
147.79045205421309
 20
214.89727081758471
 30
0.0
  0
VERTEX
  5
143B8
  8
0
 10
147.7872715732334
 20
214.74466654701919
 30
0.0
  0
VERTEX
  5
143B9
  8
0
 10
147.78312488898999
 20
214.5940187754376
 30
0.0
  0
VERTEX
  5
143BA
  8
0
 10
147.7779437234687
 20
214.44540214954301
 30
0.0
  0
VERTEX
  5
143BB
  8
0
 10
147.77166046530289
 20
214.2988886281077
 30
0.0
  0
VERTEX
  5
143BC
  8
0
 10
147.76420827664541
 20
214.15454479401379
 30
0.0
  0
VERTEX
  5
143BD
  8
0
 10
147.76002323210409
 20
214.08320653316011
 30
0.0
  0
VERTEX
  5
143BE
  8
0
 10
147.75552141952471
 20
214.0124348516276
 30
0.0
  0
VERTEX
  5
143BF
  8
0
 10
147.74553570764809
 20
213.87262313153221
 30
0.0
  0
VERTEX
  5
143C0
  8
0
 10
147.73418876364161
 20
213.73517235906911
 30
0.0
  0
VERTEX
  5
143C1
  8
0
 10
147.72142031956139
 20
213.60014322498901
 30
0.0
  0
VERTEX
  5
143C2
  8
0
 10
147.7071725061987
 20
213.46759396417559
 30
0.0
  0
VERTEX
  5
143C3
  8
0
 10
147.69139012638459
 20
213.33757994250999
 30
0.0
  0
VERTEX
  5
143C4
  8
0
 10
147.68290701812589
 20
213.27354006394441
 30
0.0
  0
VERTEX
  5
143C5
  8
0
 10
147.67402090699969
 20
213.21015325225849
 30
0.0
  0
VERTEX
  5
143C6
  8
0
 10
147.65501572386151
 20
213.08536231674111
 30
0.0
  0
VERTEX
  5
143C7
  8
0
 10
147.634328793115
 20
212.96325150546261
 30
0.0
  0
VERTEX
  5
143C8
  8
0
 10
147.62334131640779
 20
212.90321381140549
 30
0.0
  0
SEQEND
  5
143C9
  8
0
  0
LINE
  5
84AA
  8
0
 10
147.79496732345419
 20
295.74368873142021
 30
0.0
 11
147.79496732345419
 21
215.4456641788785
 31
0.0
  0
POLYLINE
  5
84AB
  8
0
 66
     1
 10
0.0
 20
0.0
 30
0.0
  0
VERTEX
  5
143CA
  8
0
 10
62.794967323454209
 20
215.4456641788785
 30
0.0
  0
VERTEX
  5
143CB
  8
0
 10
62.795050929359597
 20
215.3660428558118
 30
0.0
  0
VERTEX
  5
143CC
  8
0
 10
62.795745313630391
 20
215.20803883818411
 30
0.0
  0
VERTEX
  5
143CD
  8
0
 10
62.797199621978962
 20
215.0517545886982
 30
0.0
  0
VERTEX
  5
143CE
  8
0
 10
62.798233221003102
 20
214.97428266091941
 30
0.0
  0
VERTEX
  5
143CF
  8
0
 10
62.799482592695199
 20
214.89727081758471
 30
0.0
  0
VERTEX
  5
143D0
  8
0
 10
62.802663073674921
 20
214.74466654701919
 30
0.0
  0
VERTEX
  5
143D1
  8
0
 10
62.806809757918238
 20
214.5940187754376
 30
0.0
  0
VERTEX
  5
143D2
  8
0
 10
62.811990923439573
 20
214.44540214954301
 30
0.0
  0
VERTEX
  5
143D3
  8
0
 10
62.818274181605382
 20
214.2988886281077
 30
0.0
  0
VERTEX
  5
143D4
  8
0
 10
62.825726370263048
 20
214.15454479401379
 30
0.0
  0
VERTEX
  5
143D5
  8
0
 10
62.829911414804201
 20
214.08320653316011
 30
0.0
  0
VERTEX
  5
143D6
  8
0
 10
62.834413227383607
 20
214.0124348516276
 30
0.0
  0
VERTEX
  5
143D7
  8
0
 10
62.844398939260138
 20
213.87262313153221
 30
0.0
  0
VERTEX
  5
143D8
  8
0
 10
62.855745883266763
 20
213.73517235906911
 30
0.0
  0
VERTEX
  5
143D9
  8
0
 10
62.868514327346922
 20
213.60014322498901
 30
0.0
  0
VERTEX
  5
143DA
  8
0
 10
62.882762140709701
 20
213.46759396417559
 30
0.0
  0
VERTEX
  5
143DB
  8
0
 10
62.898544520523728
 20
213.33757994250999
 30
0.0
  0
VERTEX
  5
143DC
  8
0
 10
62.907027628782537
 20
213.27354006394441
 30
0.0
  0
VERTEX
  5
143DD
  8
0
 10
62.91591373990854
 20
213.21015325225849
 30
0.0
  0
VERTEX
  5
143DE
  8
0
 10
62.93491892304678
 20
213.08536231674111
 30
0.0
  0
VERTEX
  5
143DF
  8
0
 10
62.955605853793259
 20
212.96325150546261
 30
0.0
  0
VERTEX
  5
143E0
  8
0
 10
62.966593330500473
 20
212.90321381140549
 30
0.0
  0
SEQEND
  5
143E1
  8
0
  0
POLYLINE
  5
84AC
  8
0
 66
     1
 10
0.0
 20
0.0
 30
0.0
  0
VERTEX
  5
143E2
  8
0
 10
62.966593330500473
 20
212.90321381140549
 30
0.0
  0
VERTEX
  5
143E3
  8
0
 10
63.002077000180741
 20
212.72328094199929
 30
0.0
  0
VERTEX
  5
143E4
  8
0
 10
63.082912791674737
 20
212.3655184859528
 30
0.0
  0
VERTEX
  5
143E5
  8
0
 10
63.176814054751269
 20
212.01096108166479
 30
0.0
  0
VERTEX
  5
143E6
  8
0
 10
63.228625444030968
 20
211.83503351632129
 30
0.0
  0
VERTEX
  5
143E7
  8
0
 10
63.283654465543471
 20
211.66008570953861
 30
0.0
  0
VERTEX
  5
143E8
  8
0
 10
63.403290293356008
 20
211.3133643965991
 30
0.0
  0
VERTEX
  5
143E9
  8
0
 10
63.535560594023757
 20
210.9712635814814
 30
0.0
  0
VERTEX
  5
143EA
  8
0
 10
63.680287426427299
 20
210.63424348693931
 30
0.0
  0
VERTEX
  5
143EB
  8
0
 10
63.837276091874401
 20
210.30275750071351
 30
0.0
  0
VERTEX
  5
143EC
  8
0
 10
64.006315396025229
 20
209.97725156559861
 30
0.0
  0
VERTEX
  5
143ED
  8
0
 10
64.095283598324613
 20
209.81687829074781
 30
0.0
  0
VERTEX
  5
143EE
  8
0
 10
64.187177933008002
 20
209.6581635795209
 30
0.0
  0
VERTEX
  5
143EF
  8
0
 10
64.379620391345497
 20
209.34592280644361
 30
0.0
  0
VERTEX
  5
143F0
  8
0
 10
64.5833838812772
 20
209.04094929888331
 30
0.0
  0
VERTEX
  5
143F1
  8
0
 10
64.798194283040061
 20
208.7436533328202
 30
0.0
  0
VERTEX
  5
143F2
  8
0
 10
65.023762615637224
 20
208.45443485576141
 30
0.0
  0
VERTEX
  5
143F3
  8
0
 10
65.259785425599716
 20
208.17368294869709
 30
0.0
  0
VERTEX
  5
143F4
  8
0
 10
65.381618573139804
 20
208.0366004462862
 30
0.0
  0
VERTEX
  5
143F5
  8
0
 10
65.505945195217237
 20
207.9017753026759
 30
0.0
  0
VERTEX
  5
143F6
  8
0
 10
65.761910769689848
 20
207.63907771070421
 30
0.0
  0
VERTEX
  5
143F7
  8
0
 10
66.027337802625425
 20
207.38594357564941
 30
0.0
  0
VERTEX
  5
143F8
  8
0
 10
66.163488264340685
 20
207.26306973758179
 30
0.0
  0
SEQEND
  5
143F9
  8
0
  0
LINE
  5
84AD
  8
0
 10
80.674913125310013
 20
190.74368873142009
 30
0.0
 11
82.794967323454216
 21
190.74368873142009
 31
0.0
  0
POLYLINE
  5
84AE
  8
0
 66
     1
 10
0.0
 20
0.0
 30
0.0
  0
VERTEX
  5
143FA
  8
0
 10
79.230295377096695
 20
195.74368873142009
 30
0.0
  0
VERTEX
  5
143FB
  8
0
 10
79.342304823181166
 20
195.4939098361275
 30
0.0
  0
VERTEX
  5
143FC
  8
0
 10
79.572421964283194
 20
195.01157288388751
 30
0.0
  0
VERTEX
  5
143FD
  8
0
 10
79.807469938211625
 20
194.55380866159351
 30
0.0
  0
VERTEX
  5
143FE
  8
0
 10
79.925675023700819
 20
194.3347086813898
 30
0.0
  0
VERTEX
  5
143FF
  8
0
 10
80.043731527107866
 20
194.12241473253511
 30
0.0
  0
VERTEX
  5
14400
  8
0
 10
80.277676222963464
 20
193.71901910649481
 30
0.0
  0
VERTEX
  5
14401
  8
0
 10
80.510103690201376
 20
193.3385040392908
 30
0.0
  0
VERTEX
  5
14402
  8
0
 10
80.744236338143082
 20
192.97342152683029
 30
0.0
  0
VERTEX
  5
14403
  8
0
 10
80.976992343452025
 20
192.62718260337749
 30
0.0
  0
VERTEX
  5
14404
  8
0
 10
81.205288206981436
 20
192.3030015549825
 30
0.0
  0
VERTEX
  5
14405
  8
0
 10
81.31683912238941
 20
192.15009588205331
 30
0.0
  0
VERTEX
  5
14406
  8
0
 10
81.426184090999655
 20
192.00376599820669
 30
0.0
  0
VERTEX
  5
14407
  8
0
 10
81.636901170252244
 20
191.73208615828241
 30
0.0
  0
VERTEX
  5
14408
  8
0
 10
81.834889656240193
 20
191.49025481269311
 30
0.0
  0
VERTEX
  5
14409
  8
0
 10
82.017999037973595
 20
191.28008931079799
 30
0.0
  0
VERTEX
  5
1440A
  8
0
 10
82.184276433038121
 20
191.10320947355689
 30
0.0
  0
VERTEX
  5
1440B
  8
0
 10
82.332037432084007
 20
190.96093646929461
 30
0.0
  0
VERTEX
  5
1440C
  8
0
 10
82.39855806075434
 20
190.90306659553281
 30
0.0
  0
VERTEX
  5
1440D
  8
0
 10
82.460004007414454
 20
190.85413574496391
 30
0.0
  0
VERTEX
  5
1440E
  8
0
 10
82.567316780501187
 20
190.78320308594169
 30
0.0
  0
VERTEX
  5
1440F
  8
0
 10
82.653535241598433
 20
190.7480397727083
 30
0.0
  0
VERTEX
  5
14410
  8
0
 10
82.688722894578632
 20
190.74368873142009
 30
0.0
  0
SEQEND
  5
14411
  8
0
  0
POLYLINE
  5
84AF
  8
0
 66
     1
 10
0.0
 20
0.0
 30
0.0
  0
VERTEX
  5
14412
  8
0
 10
74.044967323454216
 20
203.65875224088131
 30
0.0
  0
VERTEX
  5
14413
  8
0
 10
74.211797942915382
 20
203.4897874026903
 30
0.0
  0
VERTEX
  5
14414
  8
0
 10
74.54217660281347
 20
203.1423365545983
 30
0.0
  0
VERTEX
  5
14415
  8
0
 10
74.86804441344816
 20
202.78233269550171
 30
0.0
  0
VERTEX
  5
14416
  8
0
 10
75.029236987068543
 20
202.5976780287769
 30
0.0
  0
VERTEX
  5
14417
  8
0
 10
75.189242414366731
 20
202.4099514376407
 30
0.0
  0
VERTEX
  5
14418
  8
0
 10
75.505613923079963
 20
202.0253744310325
 30
0.0
  0
VERTEX
  5
14419
  8
0
 10
75.81700461149353
 20
201.62878927486051
 30
0.0
  0
VERTEX
  5
1441A
  8
0
 10
76.12326258118992
 20
201.2203894259614
 30
0.0
  0
VERTEX
  5
1441B
  8
0
 10
76.424238437524991
 20
200.80037410445709
 30
0.0
  0
VERTEX
  5
1441C
  8
0
 10
76.719785362504453
 20
200.3689481965732
 30
0.0
  0
VERTEX
  5
1441D
  8
0
 10
76.86547781731656
 20
200.14902182446929
 30
0.0
  0
VERTEX
  5
1441E
  8
0
 10
77.009759186402334
 20
199.9263221546932
 30
0.0
  0
VERTEX
  5
1441F
  8
0
 10
77.294018458087635
 20
199.47271189470021
 30
0.0
  0
VERTEX
  5
14420
  8
0
 10
77.57242451402567
 20
199.0083386906505
 30
0.0
  0
VERTEX
  5
14421
  8
0
 10
77.844841545918371
 20
198.53342906683511
 30
0.0
  0
VERTEX
  5
14422
  8
0
 10
78.11113666695303
 20
198.04821468727951
 30
0.0
  0
VERTEX
  5
14423
  8
0
 10
78.371179976625172
 20
197.5529322427366
 30
0.0
  0
VERTEX
  5
14424
  8
0
 10
78.498817440485823
 20
197.30159080808639
 30
0.0
  0
VERTEX
  5
14425
  8
0
 10
78.624844624104981
 20
197.04782333522729
 30
0.0
  0
VERTEX
  5
14426
  8
0
 10
78.872006870115456
 20
196.53313436018601
 30
0.0
  0
VERTEX
  5
14427
  8
0
 10
79.112546147294097
 20
196.0091163862659
 30
0.0
  0
VERTEX
  5
14428
  8
0
 10
79.230295377096695
 20
195.74368873142009
 30
0.0
  0
SEQEND
  5
14429
  8
0
  0
LINE
  5
84B0
  8
0
 10
73.044967323454102
 20
200.65875224088131
 30
0.0
 11
68.511717638618961
 21
205.19200192571631
 31
0.0
  0
LINE
  5
84B1
  8
0
 10
72.511717638618961
 20
205.19200192571631
 30
0.0
 11
74.044967323454216
 21
203.65875224088131
 31
0.0
  0
POLYLINE
  5
84B2
  8
0
 66
     1
 10
0.0
 20
0.0
 30
0.0
  0
VERTEX
  5
1442A
  8
0
 10
68.511717638618961
 20
205.19200192571631
 30
0.0
  0
VERTEX
  5
1442B
  8
0
 10
68.398422891097525
 20
205.30362289255339
 30
0.0
  0
VERTEX
  5
1442C
  8
0
 10
68.16437765225669
 20
205.5242795667981
 30
0.0
  0
VERTEX
  5
1442D
  8
0
 10
67.920522688194524
 20
205.7413663651013
 30
0.0
  0
VERTEX
  5
1442E
  8
0
 10
67.794967323454216
 20
205.8485255471837
 30
0.0
  0
SEQEND
  5
1442F
  8
0
  0
POLYLINE
  5
84B3
  8
0
 66
     1
 10
0.0
 20
0.0
 30
0.0
  0
VERTEX
  5
14430
  8
0
 10
67.794967323454216
 20
205.8485255471837
 30
0.0
  0
VERTEX
  5
14431
  8
0
 10
67.513997975138182
 20
206.0865343654159
 30
0.0
  0
VERTEX
  5
14432
  8
0
 10
66.960924659238344
 20
206.5627701174505
 30
0.0
  0
VERTEX
  5
14433
  8
0
 10
66.424118896154368
 20
207.0327475722124
 30
0.0
  0
VERTEX
  5
14434
  8
0
 10
66.163488264340685
 20
207.26306973758199
 30
0.0
  0
SEQEND
  5
14435
  8
0
  0
POLYLINE
  5
84B4
  8
0
 66
     1
 10
0.0
 20
0.0
 30
0.0
  0
VERTEX
  5
14436
  8
0
 10
69.759166352534862
 20
207.26306973758199
 30
0.0
  0
VERTEX
  5
14437
  8
0
 10
69.847907676379236
 20
207.2114609588202
 30
0.0
  0
VERTEX
  5
14438
  8
0
 10
70.023428477061543
 20
207.10713248353929
 30
0.0
  0
VERTEX
  5
14439
  8
0
 10
70.196302598655734
 20
207.00134120819229
 30
0.0
  0
VERTEX
  5
1443A
  8
0
 10
70.281735704861035
 20
206.94790400187321
 30
0.0
  0
VERTEX
  5
1443B
  8
0
 10
70.366493472036609
 20
206.8941095114582
 30
0.0
  0
VERTEX
  5
1443C
  8
0
 10
70.533965095682902
 20
206.78546007671719
 30
0.0
  0
VERTEX
  5
1443D
  8
0
 10
70.698682043292592
 20
206.67541588725129
 30
0.0
  0
VERTEX
  5
1443E
  8
0
 10
70.860609471277485
 20
206.56400022138439
 30
0.0
  0
VERTEX
  5
1443F
  8
0
 10
71.019713126133638
 20
206.4512366475569
 30
0.0
  0
VERTEX
  5
14440
  8
0
 10
71.17595935168697
 20
206.33714901934121
 30
0.0
  0
VERTEX
  5
14441
  8
0
 10
71.253000576007935
 20
206.27961621580371
 30
0.0
  0
VERTEX
  5
14442
  8
0
 10
71.32931509621335
 20
206.2217614703936
 30
0.0
  0
VERTEX
  5
14443
  8
0
 10
71.479747919429542
 20
206.10509840935219
 30
0.0
  0
VERTEX
  5
14444
  8
0
 10
71.627225999355915
 20
205.98718451467099
 30
0.0
  0
VERTEX
  5
14445
  8
0
 10
71.771718139047834
 20
205.86804472940071
 30
0.0
  0
VERTEX
  5
14446
  8
0
 10
71.913193773194962
 20
205.74770425591259
 30
0.0
  0
VERTEX
  5
14447
  8
0
 10
72.051622974587076
 20
205.62618855056621
 30
0.0
  0
VERTEX
  5
14448
  8
0
 10
72.119685986787886
 20
205.56499800918471
 30
0.0
  0
VERTEX
  5
14449
  8
0
 10
72.186976460444271
 20
205.5035233183257
 30
0.0
  0
VERTEX
  5
1444A
  8
0
 10
72.319225598611865
 20
205.37973450732159
 30
0.0
  0
VERTEX
  5
1444B
  8
0
 10
72.448342413616956
 20
205.254848303362
 30
0.0
  0
VERTEX
  5
1444C
  8
0
 10
72.511717638618961
 20
205.19200192571631
 30
0.0
  0
SEQEND
  5
1444D
  8
0
  0
LINE
  5
84B5
  8
0
 10
68.794967323454102
 20
207.81975030657389
 30
0.0
 11
69.759166352534862
 21
207.26306973758199
 31
0.0
  0
POLYLINE
  5
84B6
  8
0
 66
     1
 10
0.0
 20
0.0
 30
0.0
  0
VERTEX
  5
1444E
  8
0
 10
65.010563984381292
 20
212.90321381140549
 30
0.0
  0
VERTEX
  5
1444F
  8
0
 10
65.054290575948926
 20
212.72757647040089
 30
0.0
  0
VERTEX
  5
14450
  8
0
 10
65.153606302614662
 20
212.37949375268701
 30
0.0
  0
VERTEX
  5
14451
  8
0
 10
65.268565947942875
 20
212.03625990837639
 30
0.0
  0
VERTEX
  5
14452
  8
0
 10
65.331839930542515
 20
211.86668133221991
 30
0.0
  0
VERTEX
  5
14453
  8
0
 10
65.398934158658562
 20
211.69857762934919
 30
0.0
  0
VERTEX
  5
14454
  8
0
 10
65.544444036014283
 20
211.36713824194021
 30
0.0
  0
VERTEX
  5
14455
  8
0
 10
65.704797682203889
 20
211.04262029160779
 30
0.0
  0
VERTEX
  5
14456
  8
0
 10
65.879666810238632
 20
210.7256881537698
 30
0.0
  0
VERTEX
  5
14457
  8
0
 10
66.068693416039423
 20
210.4169906736478
 30
0.0
  0
VERTEX
  5
14458
  8
0
 10
66.271490511367105
 20
210.11715983790731
 30
0.0
  0
VERTEX
  5
14459
  8
0
 10
66.3779243272038
 20
209.97076197859329
 30
0.0
  0
VERTEX
  5
1445A
  8
0
 10
66.487642916091318
 20
209.82680948081079
 30
0.0
  0
VERTEX
  5
1445B
  8
0
 10
66.716708108175908
 20
209.54653402753431
 30
0.0
  0
VERTEX
  5
1445C
  8
0
 10
66.958217129640389
 20
209.2769072772191
 30
0.0
  0
VERTEX
  5
1445D
  8
0
 10
67.211675546642709
 20
209.0184812282518
 30
0.0
  0
VERTEX
  5
1445E
  8
0
 10
67.476564461717999
 20
208.7717849481736
 30
0.0
  0
VERTEX
  5
1445F
  8
0
 10
67.752341576101799
 20
208.5373234905386
 30
0.0
  0
VERTEX
  5
14460
  8
0
 10
67.894137613152338
 20
208.42483182754941
 30
0.0
  0
VERTEX
  5
14461
  8
0
 10
68.038442299960707
 20
208.31557686093259
 30
0.0
  0
VERTEX
  5
14462
  8
0
 10
68.334280908259174
 20
208.10699903427249
 30
0.0
  0
VERTEX
  5
14463
  8
0
 10
68.639251739896963
 20
207.912017025399
 30
0.0
  0
VERTEX
  5
14464
  8
0
 10
68.794967323454216
 20
207.81975030657389
 30
0.0
  0
SEQEND
  5
14465
  8
0
  0
POLYLINE
  5
84B7
  8
0
 66
     1
 10
0.0
 20
0.0
 30
0.0
  0
VERTEX
  5
14466
  8
0
 10
64.794967323454216
 20
215.4456641788785
 30
0.0
  0
VERTEX
  5
14467
  8
0
 10
64.795073121426285
 20
215.36555821127331
 30
0.0
  0
VERTEX
  5
14468
  8
0
 10
64.795951298138334
 20
215.2066869064906
 30
0.0
  0
VERTEX
  5
14469
  8
0
 10
64.797788993124868
 20
215.04967796244929
 30
0.0
  0
VERTEX
  5
1446A
  8
0
 10
64.799094178547975
 20
214.97189947289871
 30
0.0
  0
VERTEX
  5
1446B
  8
0
 10
64.80067102799876
 20
214.89461940179689
 30
0.0
  0
VERTEX
  5
1446C
  8
0
 10
64.804681812560034
 20
214.74159681770149
 30
0.0
  0
VERTEX
  5
1446D
  8
0
 10
64.809905001354764
 20
214.59069256161999
 30
0.0
  0
VERTEX
  5
1446E
  8
0
 10
64.816423266051856
 20
214.4419833181577
 30
0.0
  0
VERTEX
  5
1446F
  8
0
 10
64.824317813452794
 20
214.2955445446805
 30
0.0
  0
VERTEX
  5
14470
  8
0
 10
64.83366794070912
 20
214.15145052747721
 30
0.0
  0
VERTEX
  5
14471
  8
0
 10
64.838913003670086
 20
214.08030550664171
 30
0.0
  0
VERTEX
  5
14472
  8
0
 10
64.844550623664873
 20
214.00977363453279
 30
0.0
  0
VERTEX
  5
14473
  8
0
 10
64.857040108644696
 20
213.87058379598369
 30
0.0
  0
VERTEX
  5
14474
  8
0
 10
64.871207521053975
 20
213.73394798831981
 30
0.0
  0
VERTEX
  5
14475
  8
0
 10
64.887120498316108
 20
213.59992972155621
 30
0.0
  0
VERTEX
  5
14476
  8
0
 10
64.904842855667539
 20
213.46858852914571
 30
0.0
  0
VERTEX
  5
14477
  8
0
 10
64.924434294407547
 20
213.33997946107911
 30
0.0
  0
VERTEX
  5
14478
  8
0
 10
64.934948391058015
 20
213.2767153270687
 30
0.0
  0
VERTEX
  5
14479
  8
0
 10
64.945951978980247
 20
213.21414253913409
 30
0.0
  0
VERTEX
  5
1447A
  8
0
 10
64.969776697738894
 20
213.08948893229049
 30
0.0
  0
VERTEX
  5
1447B
  8
0
 10
64.996270872684249
 20
212.96514221351839
 30
0.0
  0
VERTEX
  5
1447C
  8
0
 10
65.010563984381292
 20
212.90321381140549
 30
0.0
  0
SEQEND
  5
1447D
  8
0
  0
LINE
  5
84B8
  8
0
 10
62.794967323454209
 20
215.4456641788785
 30
0.0
 11
62.794967323454209
 21
295.74368873142021
 31
0.0
  0
POLYLINE
  5
84B9
  8
0
 66
     1
 10
0.0
 20
0.0
 30
0.0
  0
VERTEX
  5
1447E
  8
0
 10
76.617218334743256
 20
195.74368873142009
 30
0.0
  0
VERTEX
  5
1447F
  8
0
 10
76.529974406533029
 20
195.9039907505491
 30
0.0
  0
VERTEX
  5
14480
  8
0
 10
76.353222969232434
 20
196.22084798319131
 30
0.0
  0
VERTEX
  5
14481
  8
0
 10
76.173493179410002
 20
196.53263849874989
 30
0.0
  0
VERTEX
  5
14482
  8
0
 10
76.082526498558764
 20
196.68660744136571
 30
0.0
  0
VERTEX
  5
14483
  8
0
 10
75.990833444218879
 20
196.8392783217684
 30
0.0
  0
VERTEX
  5
14484
  8
0
 10
75.805292959942676
 20
197.14068486404099
 30
0.0
  0
VERTEX
  5
14485
  8
0
 10
75.616921698745841
 20
197.43677694685729
 30
0.0
  0
VERTEX
  5
14486
  8
0
 10
75.425770395214386
 20
197.7274748228655
 30
0.0
  0
VERTEX
  5
14487
  8
0
 10
75.231890532690954
 20
198.01270019755191
 30
0.0
  0
VERTEX
  5
14488
  8
0
 10
75.035334329409466
 20
198.29237625032681
 30
0.0
  0
VERTEX
  5
14489
  8
0
 10
74.936069115672126
 20
198.4301096826897
 30
0.0
  0
VERTEX
  5
1448A
  8
0
 10
74.83615472443023
 20
198.5664276552165
 30
0.0
  0
VERTEX
  5
1448B
  8
0
 10
74.634405363382143
 20
198.8347806011499
 30
0.0
  0
VERTEX
  5
1448C
  8
0
 10
74.430140584013984
 20
199.09736281183891
 30
0.0
  0
VERTEX
  5
1448D
  8
0
 10
74.223415401559919
 20
199.354103565244
 30
0.0
  0
VERTEX
  5
1448E
  8
0
 10
74.014285493921193
 20
199.60493371262299
 30
0.0
  0
VERTEX
  5
1448F
  8
0
 10
73.802807186671075
 20
199.84978569715429
 30
0.0
  0
VERTEX
  5
14490
  8
0
 10
73.696205158301268
 20
199.96994920662311
 30
0.0
  0
VERTEX
  5
14491
  8
0
 10
73.589037437884144
 20
200.08859357213299
 30
0.0
  0
VERTEX
  5
14492
  8
0
 10
73.373033822795605
 20
200.32129301873141
 30
0.0
  0
VERTEX
  5
14493
  8
0
 10
73.154854518294655
 20
200.54782136332321
 30
0.0
  0
VERTEX
  5
14494
  8
0
 10
73.044967323454216
 20
200.65875224088131
 30
0.0
  0
SEQEND
  5
14495
  8
0
  0
POLYLINE
  5
84BA
  8
0
 66
     1
 10
0.0
 20
0.0
 30
0.0
  0
VERTEX
  5
14496
  8
0
 10
80.674913125310013
 20
190.74368873142009
 30
0.0
  0
VERTEX
  5
14497
  8
0
 10
80.668570811167115
 20
190.74381373982339
 30
0.0
  0
VERTEX
  5
14498
  8
0
 10
80.655376845657088
 20
190.74481532842671
 30
0.0
  0
VERTEX
  5
14499
  8
0
 10
80.641502326348345
 20
190.74682217371961
 30
0.0
  0
VERTEX
  5
1449A
  8
0
 10
80.634309414445838
 20
190.7482036529567
 30
0.0
  0
VERTEX
  5
1449B
  8
0
 10
80.626945881245888
 20
190.74983769483961
 30
0.0
  0
VERTEX
  5
1449C
  8
0
 10
80.611706544029985
 20
190.75386487797201
 30
0.0
  0
VERTEX
  5
1449D
  8
0
 10
80.595783755355797
 20
190.7589062719484
 30
0.0
  0
VERTEX
  5
1449E
  8
0
 10
80.579177362870269
 20
190.7649639856885
 30
0.0
  0
VERTEX
  5
1449F
  8
0
 10
80.561887619963954
 20
190.77203968744351
 30
0.0
  0
VERTEX
  5
144A0
  8
0
 10
80.543915183282479
 20
190.78013460580399
 30
0.0
  0
VERTEX
  5
144A1
  8
0
 10
80.534673269354926
 20
190.78456453556271
 30
0.0
  0
VERTEX
  5
144A2
  8
0
 10
80.525261109019084
 20
190.7892495324285
 30
0.0
  0
VERTEX
  5
144A3
  8
0
 10
80.505926848017907
 20
190.79938482645539
 30
0.0
  0
VERTEX
  5
144A4
  8
0
 10
80.485914239714475
 20
190.810540420547
 30
0.0
  0
VERTEX
  5
144A5
  8
0
 10
80.465225504946943
 20
190.82271582853051
 30
0.0
  0
VERTEX
  5
144A6
  8
0
 10
80.44386323767003
 20
190.83591015458421
 30
0.0
  0
VERTEX
  5
144A7
  8
0
 10
80.421830395606534
 20
190.8501221039248
 30
0.0
  0
VERTEX
  5
144A8
  8
0
 10
80.410563530254095
 20
190.8576091765764
 30
0.0
  0
VERTEX
  5
144A9
  8
0
 10
80.399130289875416
 20
190.8653499949518
 30
0.0
  0
VERTEX
  5
144AA
  8
0
 10
80.375766573631267
 20
190.88159177280011
 30
0.0
  0
VERTEX
  5
144AB
  8
0
 10
80.351743229760586
 20
190.89884502425451
 30
0.0
  0
VERTEX
  5
144AC
  8
0
 10
80.33948552904485
 20
190.90785010443591
 30
0.0
  0
VERTEX
  5
144AD
  8
0
 10
80.26253172285692
 20
190.96715409833621
 30
0.0
  0
VERTEX
  5
144AE
  8
0
 10
80.091571074128524
 20
191.1125398053818
 30
0.0
  0
VERTEX
  5
144AF
  8
0
 10
79.899115770185063
 20
191.29265931335581
 30
0.0
  0
VERTEX
  5
144B0
  8
0
 10
79.687033749865464
 20
191.50597082993241
 30
0.0
  0
VERTEX
  5
144B1
  8
0
 10
79.45748383762475
 20
191.75064570373971
 30
0.0
  0
VERTEX
  5
144B2
  8
0
 10
79.212797709922484
 20
192.0247167855577
 30
0.0
  0
VERTEX
  5
144B3
  8
0
 10
79.085635656500685
 20
192.17203351368639
 30
0.0
  0
VERTEX
  5
144B4
  8
0
 10
78.955754929367103
 20
192.32576915286239
 30
0.0
  0
VERTEX
  5
144B5
  8
0
 10
78.689400196963788
 20
192.65109875124739
 30
0.0
  0
VERTEX
  5
144B6
  8
0
 10
78.4169690167829
 20
192.99776518222089
 30
0.0
  0
VERTEX
  5
144B7
  8
0
 10
78.141878878849866
 20
193.36255098790249
 30
0.0
  0
VERTEX
  5
144B8
  8
0
 10
77.867672182377973
 20
193.74195812431341
 30
0.0
  0
VERTEX
  5
144B9
  8
0
 10
77.591868633712011
 20
194.14120586004259
 30
0.0
  0
VERTEX
  5
144BA
  8
0
 10
77.452008386242369
 20
194.35119633595639
 30
0.0
  0
VERTEX
  5
144BB
  8
0
 10
77.311482079929647
 20
194.56784595708439
 30
0.0
  0
VERTEX
  5
144BC
  8
0
 10
77.030477445993711
 20
195.02030402096429
 30
0.0
  0
VERTEX
  5
144BD
  8
0
 10
76.753121850167759
 20
195.49689219877101
 30
0.0
  0
VERTEX
  5
144BE
  8
0
 10
76.617218334743256
 20
195.74368873142009
 30
0.0
  0
SEQEND
  5
144BF
  8
0
  0
LINE
  5
84BB
  8
0
 10
127.7949673234542
 20
293.74368873142021
 30
0.0
 11
127.7949673234542
 21
190.74368873142009
 31
0.0
  0
POLYLINE
  5
84BD
  8
0
 66
     1
 10
0.0
 20
0.0
 30
0.0
  0
VERTEX
  5
144C0
  8
0
 10
131.35963926981171
 20
195.74368873142009
 30
0.0
  0
VERTEX
  5
144C1
  8
0
 10
131.47738849961431
 20
196.0091163862657
 30
0.0
  0
VERTEX
  5
144C2
  8
0
 10
131.71792777679281
 20
196.53313436018601
 30
0.0
  0
VERTEX
  5
144C3
  8
0
 10
131.96509002280339
 20
197.04782333522729
 30
0.0
  0
VERTEX
  5
144C4
  8
0
 10
132.09111720642261
 20
197.30159080808639
 30
0.0
  0
VERTEX
  5
144C5
  8
0
 10
132.21875467028309
 20
197.5529322427366
 30
0.0
  0
VERTEX
  5
144C6
  8
0
 10
132.4787979799554
 20
198.04821468727951
 30
0.0
  0
VERTEX
  5
144C7
  8
0
 10
132.74509310099
 20
198.53342906683511
 30
0.0
  0
VERTEX
  5
144C8
  8
0
 10
133.01751013288271
 20
199.00833869065031
 30
0.0
  0
VERTEX
  5
144C9
  8
0
 10
133.29591618882071
 20
199.47271189470021
 30
0.0
  0
VERTEX
  5
144CA
  8
0
 10
133.5801754605061
 20
199.9263221546932
 30
0.0
  0
VERTEX
  5
144CB
  8
0
 10
133.72445682959179
 20
200.14902182446929
 30
0.0
  0
VERTEX
  5
144CC
  8
0
 10
133.87014928440379
 20
200.3689481965732
 30
0.0
  0
VERTEX
  5
144CD
  8
0
 10
134.16569620938341
 20
200.80037410445709
 30
0.0
  0
VERTEX
  5
144CE
  8
0
 10
134.46667206571851
 20
201.2203894259614
 30
0.0
  0
VERTEX
  5
144CF
  8
0
 10
134.77293003541479
 20
201.62878927486051
 30
0.0
  0
VERTEX
  5
144D0
  8
0
 10
135.08432072382831
 20
202.0253744310325
 30
0.0
  0
VERTEX
  5
144D1
  8
0
 10
135.4006922325417
 20
202.4099514376407
 30
0.0
  0
VERTEX
  5
144D2
  8
0
 10
135.56069765983989
 20
202.5976780287769
 30
0.0
  0
VERTEX
  5
144D3
  8
0
 10
135.7218902334601
 20
202.78233269550171
 30
0.0
  0
VERTEX
  5
144D4
  8
0
 10
136.04775804409479
 20
203.1423365545983
 30
0.0
  0
VERTEX
  5
144D5
  8
0
 10
136.37813670399299
 20
203.4897874026903
 30
0.0
  0
VERTEX
  5
144D6
  8
0
 10
136.5449673234541
 20
203.65875224088131
 30
0.0
  0
SEQEND
  5
144D7
  8
0
  0
POLYLINE
  5
84BE
  8
0
 66
     1
 10
0.0
 20
0.0
 30
0.0
  0
VERTEX
  5
144D8
  8
0
 10
127.9012117523297
 20
190.74368873142009
 30
0.0
  0
VERTEX
  5
144D9
  8
0
 10
127.93640780093671
 20
190.7480417097253
 30
0.0
  0
VERTEX
  5
144DA
  8
0
 10
128.0226197259409
 20
190.78320410380269
 30
0.0
  0
VERTEX
  5
144DB
  8
0
 10
128.1298856949744
 20
190.85410181597319
 30
0.0
  0
VERTEX
  5
144DC
  8
0
 10
128.19129180170839
 20
190.9029958474388
 30
0.0
  0
VERTEX
  5
144DD
  8
0
 10
128.25776188677679
 20
190.9608142858892
 30
0.0
  0
VERTEX
  5
144DE
  8
0
 10
128.40539413766399
 20
191.1029412344887
 30
0.0
  0
VERTEX
  5
144DF
  8
0
 10
128.57151986271299
 20
191.27962900835459
 30
0.0
  0
VERTEX
  5
144E0
  8
0
 10
128.75447680251111
 20
191.48958133469739
 30
0.0
  0
VERTEX
  5
144E1
  8
0
 10
128.95232606012581
 20
191.7311979454272
 30
0.0
  0
VERTEX
  5
144E2
  8
0
 10
129.1629561464265
 20
192.0027159518867
 30
0.0
  0
VERTEX
  5
144E3
  8
0
 10
129.27229022522101
 20
192.1490052585095
 30
0.0
  0
VERTEX
  5
144E4
  8
0
 10
129.38385821784269
 20
192.30190841930059
 30
0.0
  0
VERTEX
  5
144E5
  8
0
 10
129.61228970683459
 20
192.62623435239919
 30
0.0
  0
VERTEX
  5
144E6
  8
0
 10
129.84534826907529
 20
192.97288859687239
 30
0.0
  0
VERTEX
  5
144E7
  8
0
 10
130.0799891180954
 20
193.33875664060719
 30
0.0
  0
VERTEX
  5
144E8
  8
0
 10
130.31308541260589
 20
193.7204075171307
 30
0.0
  0
VERTEX
  5
144E9
  8
0
 10
130.5464768887266
 20
194.12289991024579
 30
0.0
  0
VERTEX
  5
144EA
  8
0
 10
130.6643502703923
 20
194.3348741204062
 30
0.0
  0
VERTEX
  5
144EB
  8
0
 10
130.78242998988389
 20
194.55374328828739
 30
0.0
  0
VERTEX
  5
144EC
  8
0
 10
131.01737829652001
 20
195.01130185110509
 30
0.0
  0
VERTEX
  5
144ED
  8
0
 10
131.24755537049441
 20
195.49374737076289
 30
0.0
  0
VERTEX
  5
144EE
  8
0
 10
131.35963926981171
 20
195.74368873142009
 30
0.0
  0
SEQEND
  5
144EF
  8
0
  0
LINE
  5
84BF
  8
0
 10
112.30106780354301
 20
286.74368873142021
 30
0.0
 11
98.288866843365454
 21
286.74368873142021
 31
0.0
  0
POLYLINE
  5
84C0
  8
0
 66
     1
 10
0.0
 20
0.0
 30
0.0
  0
VERTEX
  5
144F0
  8
0
 10
112.30106780354301
 20
286.74368873142021
 30
0.0
  0
VERTEX
  5
144F1
  8
0
 10
112.4113446619175
 20
286.74542644644077
 30
0.0
  0
VERTEX
  5
144F2
  8
0
 10
112.63146047653581
 20
286.75931781522422
 30
0.0
  0
VERTEX
  5
144F3
  8
0
 10
112.8502643236429
 20
286.78704539108088
 30
0.0
  0
VERTEX
  5
144F4
  8
0
 10
112.9589024439433
 20
286.8060654847726
 30
0.0
  0
VERTEX
  5
144F5
  8
0
 10
113.0668873475946
 20
286.82849906963702
 30
0.0
  0
VERTEX
  5
144F6
  8
0
 10
113.28046935265139
 20
286.88351424106941
 30
0.0
  0
VERTEX
  5
144F7
  8
0
 10
113.49016221875939
 20
286.95187244376018
 30
0.0
  0
VERTEX
  5
144F8
  8
0
 10
113.6951332693792
 20
287.03330223179682
 30
0.0
  0
VERTEX
  5
144F9
  8
0
 10
113.89456857798869
 20
287.1274802528614
 30
0.0
  0
VERTEX
  5
144FA
  8
0
 10
114.08767620013261
 20
287.23403253224433
 30
0.0
  0
VERTEX
  5
144FB
  8
0
 10
114.1816164327568
 20
287.29181867107479
 30
0.0
  0
VERTEX
  5
144FC
  8
0
 10
114.2736893181809
 20
287.35253595787287
 30
0.0
  0
VERTEX
  5
144FD
  8
0
 10
114.45186928631161
 20
287.48251996046059
 30
0.0
  0
VERTEX
  5
144FE
  8
0
 10
114.6215085636242
 20
287.62346838210709
 30
0.0
  0
VERTEX
  5
144FF
  8
0
 10
114.7819335237385
 20
287.774821525927
 30
0.0
  0
VERTEX
  5
14500
  8
0
 10
114.9325071297194
 20
287.93597837856981
 30
0.0
  0
VERTEX
  5
14501
  8
0
 10
115.0726314637096
 20
288.10629899680362
 30
0.0
  0
VERTEX
  5
14502
  8
0
 10
115.1385995886387
 20
288.19468571322523
 30
0.0
  0
VERTEX
  5
14503
  8
0
 10
115.2017501012219
 20
288.28510704868808
 30
0.0
  0
VERTEX
  5
14504
  8
0
 10
115.2717810507452
 20
288.39305024622172
 30
0.0
  0
VERTEX
  5
14505
  8
0
 10
115.2910564553691
 20
288.42435702390998
 30
0.0
  0
VERTEX
  5
14506
  8
0
 10
115.310001946951
 20
288.45586454525608
 30
0.0
  0
VERTEX
  5
14507
  8
0
 10
115.3193503206632
 20
288.471692499244
 30
0.0
  0
VERTEX
  5
14508
  8
0
 10
115.3286154350601
 20
288.48756933374352
 30
0.0
  0
VERTEX
  5
14509
  8
0
 10
115.34689486589841
 20
288.51946789109161
 30
0.0
  0
VERTEX
  5
1450A
  8
0
 10
115.3648382225276
 20
288.55155669763678
 30
0.0
  0
VERTEX
  5
1450B
  8
0
 10
115.3824435250917
 20
288.58383221272601
 30
0.0
  0
VERTEX
  5
1450C
  8
0
 10
115.399708831035
 20
288.6162908751034
 30
0.0
  0
VERTEX
  5
1450D
  8
0
 10
115.416632235317
 20
288.64892910330531
 30
0.0
  0
VERTEX
  5
1450E
  8
0
 10
115.4249651393197
 20
288.66531442995432
 30
0.0
  0
VERTEX
  5
1450F
  8
0
 10
115.4332118706223
 20
288.68174329605472
 30
0.0
  0
VERTEX
  5
14510
  8
0
 10
115.449445907567
 20
288.71472983265852
 30
0.0
  0
VERTEX
  5
14511
  8
0
 10
115.4653325548996
 20
288.74788507340821
 30
0.0
  0
VERTEX
  5
14512
  8
0
 10
115.4731450581712
 20
288.7645248153276
 30
0.0
  0
SEQEND
  5
14513
  8
0
  0
LINE
  5
84C1
  8
0
 10
115.4731450581712
 20
288.7645248153276
 30
0.0
 11
116.74471479176
 21
291.49141490891901
 31
0.0
  0
POLYLINE
  5
84C2
  8
0
 66
     1
 10
0.0
 20
0.0
 30
0.0
  0
VERTEX
  5
14514
  8
0
 10
116.74471479176
 20
291.49141490891901
 30
0.0
  0
VERTEX
  5
14515
  8
0
 10
116.85963991671019
 20
291.73787263471559
 30
0.0
  0
VERTEX
  5
14516
  8
0
 10
117.081040199293
 20
292.21266707291659
 30
0.0
  0
VERTEX
  5
14517
  8
0
 10
117.29076909818799
 20
292.66243214802802
 30
0.0
  0
VERTEX
  5
14518
  8
0
 10
117.39111103411049
 20
292.87761612403108
 30
0.0
  0
SEQEND
  5
14519
  8
0
  0
POLYLINE
  5
84C3
  8
0
 66
     1
 10
0.0
 20
0.0
 30
0.0
  0
VERTEX
  5
1451A
  8
0
 10
117.39111103411049
 20
292.87761612403108
 30
0.0
  0
VERTEX
  5
1451B
  8
0
 10
117.3978973486507
 20
292.89197057921223
 30
0.0
  0
VERTEX
  5
1451C
  8
0
 10
117.4118865108953
 20
292.92038604029261
 30
0.0
  0
VERTEX
  5
1451D
  8
0
 10
117.4264025011976
 20
292.94836826550949
 30
0.0
  0
VERTEX
  5
1451E
  8
0
 10
117.43384658412241
 20
292.96218180525278
 30
0.0
  0
VERTEX
  5
1451F
  8
0
 10
117.4414082435957
 20
292.97586930183201
 30
0.0
  0
VERTEX
  5
14520
  8
0
 10
117.4568639158485
 20
293.00284454142451
 30
0.0
  0
VERTEX
  5
14521
  8
0
 10
117.4727274806702
 20
293.02925321505921
 30
0.0
  0
VERTEX
  5
14522
  8
0
 10
117.4889552156658
 20
293.05505873716208
 30
0.0
  0
VERTEX
  5
14523
  8
0
 10
117.5055022360675
 20
293.0802289296916
 30
0.0
  0
VERTEX
  5
14524
  8
0
 10
117.52232327110249
 20
293.10473652590503
 30
0.0
  0
VERTEX
  5
14525
  8
0
 10
117.53082301892459
 20
293.11673551123198
 30
0.0
  0
VERTEX
  5
14526
  8
0
 10
117.53937479863249
 20
293.12856138225601
 30
0.0
  0
VERTEX
  5
14527
  8
0
 10
117.5566112066021
 20
293.15168428056307
 30
0.0
  0
VERTEX
  5
14528
  8
0
 10
117.5739853751024
 20
293.17408769551002
 30
0.0
  0
VERTEX
  5
14529
  8
0
 10
117.5914494613184
 20
293.19575663002291
 30
0.0
  0
VERTEX
  5
1452A
  8
0
 10
117.6089552701669
 20
293.21667876755407
 30
0.0
  0
VERTEX
  5
1452B
  8
0
 10
117.62645458801509
 20
293.23684452853138
 30
0.0
  0
VERTEX
  5
1452C
  8
0
 10
117.6351868147446
 20
293.24664151907149
 30
0.0
  0
VERTEX
  5
1452D
  8
0
 10
117.64389947940209
 20
293.25624705090189
 30
0.0
  0
VERTEX
  5
1452E
  8
0
 10
117.6612425480271
 20
293.27488211195117
 30
0.0
  0
VERTEX
  5
1452F
  8
0
 10
117.6784371642853
 20
293.29274800601382
 30
0.0
  0
VERTEX
  5
14530
  8
0
 10
117.6869644897492
 20
293.3013926332236
 30
0.0
  0
VERTEX
  5
14531
  8
0
 10
117.69543766240849
 20
293.30984539040531
 30
0.0
  0
VERTEX
  5
14532
  8
0
 10
117.7122191809252
 20
293.3261959780329
 30
0.0
  0
VERTEX
  5
14533
  8
0
 10
117.72894267657151
 20
293.34199290844202
 30
0.0
  0
VERTEX
  5
14534
  8
0
 10
117.7372981567562
 20
293.34970621333139
 30
0.0
  0
VERTEX
  5
14535
  8
0
 10
117.7456484485384
 20
293.35729872569482
 30
0.0
  0
VERTEX
  5
14536
  8
0
 10
117.76233059093521
 20
293.37212902885938
 30
0.0
  0
VERTEX
  5
14537
  8
0
 10
117.77898357726529
 20
293.38649866666123
 30
0.0
  0
VERTEX
  5
14538
  8
0
 10
117.79560220236129
 20
293.40042176917308
 30
0.0
  0
VERTEX
  5
14539
  8
0
 10
117.8121815314646
 20
293.41391178165071
 30
0.0
  0
VERTEX
  5
1453A
  8
0
 10
117.828716856003
 20
293.4269814998633
 30
0.0
  0
VERTEX
  5
1453B
  8
0
 10
117.83696659751099
 20
293.43336257861432
 30
0.0
  0
VERTEX
  5
1453C
  8
0
 10
117.8452036556039
 20
293.43964310634141
 30
0.0
  0
VERTEX
  5
1453D
  8
0
 10
117.8616375658607
 20
293.45190820701998
 30
0.0
  0
VERTEX
  5
1453E
  8
0
 10
117.8780143513729
 20
293.46378786782168
 30
0.0
  0
VERTEX
  5
1453F
  8
0
 10
117.9348244033433
 20
293.50247969602651
 30
0.0
  0
VERTEX
  5
14540
  8
0
 10
118.0299915818366
 20
293.55927332809591
 30
0.0
  0
VERTEX
  5
14541
  8
0
 10
118.121721103206
 20
293.60550577154157
 30
0.0
  0
VERTEX
  5
14542
  8
0
 10
118.20935699414819
 20
293.64264746700331
 30
0.0
  0
VERTEX
  5
14543
  8
0
 10
118.2514466901364
 20
293.65821098703782
 30
0.0
  0
VERTEX
  5
14544
  8
0
 10
118.2922927574232
 20
293.6719672339504
 30
0.0
  0
VERTEX
  5
14545
  8
0
 10
118.3700068061962
 20
293.69460898743358
 30
0.0
  0
VERTEX
  5
14546
  8
0
 10
118.44204472019339
 20
293.7116160036739
 30
0.0
  0
VERTEX
  5
14547
  8
0
 10
118.5080147974291
 20
293.72394737665257
 30
0.0
  0
VERTEX
  5
14548
  8
0
 10
118.56757796732769
 20
293.73248452750698
 30
0.0
  0
VERTEX
  5
14549
  8
0
 10
118.62045797683859
 20
293.73803479408429
 30
0.0
  0
VERTEX
  5
1454A
  8
0
 10
118.6443253686874
 20
293.73992116706398
 30
0.0
  0
VERTEX
  5
1454B
  8
0
 10
118.6664506505949
 20
293.7413280332334
 30
0.0
  0
VERTEX
  5
1454C
  8
0
 10
118.70541936062661
 20
293.74300896893408
 30
0.0
  0
VERTEX
  5
1454D
  8
0
 10
118.7372962133343
 20
293.74362997510661
 30
0.0
  0
VERTEX
  5
1454E
  8
0
 10
118.7505727146654
 20
293.74368873142021
 30
0.0
  0
SEQEND
  5
1454F
  8
0
  0
POLYLINE
  5
84C4
  8
0
 66
     1
 10
0.0
 20
0.0
 30
0.0
  0
VERTEX
  5
14550
  8
0
 10
95.116789588737106
 20
288.7645248153276
 30
0.0
  0
VERTEX
  5
14551
  8
0
 10
95.124602092008672
 20
288.74788507340821
 30
0.0
  0
VERTEX
  5
14552
  8
0
 10
95.140488739341436
 20
288.71472983265852
 30
0.0
  0
VERTEX
  5
14553
  8
0
 10
95.15672277628596
 20
288.68174329605472
 30
0.0
  0
VERTEX
  5
14554
  8
0
 10
95.164969507588694
 20
288.66531442995432
 30
0.0
  0
VERTEX
  5
14555
  8
0
 10
95.173302411591294
 20
288.64892910330531
 30
0.0
  0
VERTEX
  5
14556
  8
0
 10
95.190225815873404
 20
288.6162908751034
 30
0.0
  0
VERTEX
  5
14557
  8
0
 10
95.207491121816702
 20
288.58383221272601
 30
0.0
  0
VERTEX
  5
14558
  8
0
 10
95.225096424380695
 20
288.55155669763678
 30
0.0
  0
VERTEX
  5
14559
  8
0
 10
95.243039781009884
 20
288.51946789109161
 30
0.0
  0
VERTEX
  5
1455A
  8
0
 10
95.261319211848217
 20
288.48756933374392
 30
0.0
  0
VERTEX
  5
1455B
  8
0
 10
95.270584326245043
 20
288.471692499244
 30
0.0
  0
VERTEX
  5
1455C
  8
0
 10
95.279932699957271
 20
288.45586454525608
 30
0.0
  0
VERTEX
  5
1455D
  8
0
 10
95.298878191539174
 20
288.42435702390998
 30
0.0
  0
VERTEX
  5
1455E
  8
0
 10
95.318153596163157
 20
288.39305024622172
 30
0.0
  0
VERTEX
  5
1455F
  8
0
 10
95.388184545686499
 20
288.28510704868808
 30
0.0
  0
VERTEX
  5
14560
  8
0
 10
95.451335058269706
 20
288.19468571322523
 30
0.0
  0
VERTEX
  5
14561
  8
0
 10
95.517303183198692
 20
288.10629899680362
 30
0.0
  0
VERTEX
  5
14562
  8
0
 10
95.657427517189035
 20
287.93597837856981
 30
0.0
  0
VERTEX
  5
14563
  8
0
 10
95.808001123169774
 20
287.774821525927
 30
0.0
  0
VERTEX
  5
14564
  8
0
 10
95.968426083284044
 20
287.62346838210709
 30
0.0
  0
VERTEX
  5
14565
  8
0
 10
96.138065360596784
 20
287.48251996046059
 30
0.0
  0
VERTEX
  5
14566
  8
0
 10
96.316245328727518
 20
287.35253595787287
 30
0.0
  0
VERTEX
  5
14567
  8
0
 10
96.408318214151464
 20
287.29181867107479
 30
0.0
  0
VERTEX
  5
14568
  8
0
 10
96.502258446775855
 20
287.23403253224433
 30
0.0
  0
VERTEX
  5
14569
  8
0
 10
96.695366068919611
 20
287.1274802528614
 30
0.0
  0
VERTEX
  5
1456A
  8
0
 10
96.89480137752912
 20
287.03330223179682
 30
0.0
  0
VERTEX
  5
1456B
  8
0
 10
97.099772428148853
 20
286.95187244376018
 30
0.0
  0
VERTEX
  5
1456C
  8
0
 10
97.309465294256924
 20
286.88351424106941
 30
0.0
  0
VERTEX
  5
1456D
  8
0
 10
97.523047299313703
 20
286.82849906963702
 30
0.0
  0
VERTEX
  5
1456E
  8
0
 10
97.631032202965002
 20
286.8060654847726
 30
0.0
  0
VERTEX
  5
1456F
  8
0
 10
97.739670323265386
 20
286.78704539108088
 30
0.0
  0
VERTEX
  5
14570
  8
0
 10
97.958474170372483
 20
286.75931781522422
 30
0.0
  0
VERTEX
  5
14571
  8
0
 10
98.178589984990936
 20
286.74542644644077
 30
0.0
  0
VERTEX
  5
14572
  8
0
 10
98.288866843365454
 20
286.74368873142021
 30
0.0
  0
SEQEND
  5
14573
  8
0
  0
LINE
  5
84C5
  8
0
 10
93.845219855148343
 20
291.49141490891901
 30
0.0
 11
95.116789588737106
 21
288.7645248153276
 31
0.0
  0
POLYLINE
  5
84C6
  8
0
 66
     1
 10
0.0
 20
0.0
 30
0.0
  0
VERTEX
  5
14574
  8
0
 10
93.198823612797923
 20
292.87761612403108
 30
0.0
  0
VERTEX
  5
14575
  8
0
 10
93.299165548720325
 20
292.66243214802802
 30
0.0
  0
VERTEX
  5
14576
  8
0
 10
93.508894447615376
 20
292.21266707291659
 30
0.0
  0
VERTEX
  5
14577
  8
0
 10
93.730294730198125
 20
291.73787263471559
 30
0.0
  0
VERTEX
  5
14578
  8
0
 10
93.845219855148343
 20
291.49141490891901
 30
0.0
  0
SEQEND
  5
14579
  8
0
  0
POLYLINE
  5
84C7
  8
0
 66
     1
 10
0.0
 20
0.0
 30
0.0
  0
VERTEX
  5
1457A
  8
0
 10
91.839361932242923
 20
293.74368873142021
 30
0.0
  0
VERTEX
  5
1457B
  8
0
 10
91.852638433574157
 20
293.74362997510661
 30
0.0
  0
VERTEX
  5
1457C
  8
0
 10
91.884515286281726
 20
293.74300896893408
 30
0.0
  0
VERTEX
  5
1457D
  8
0
 10
91.923483996313394
 20
293.7413280332334
 30
0.0
  0
VERTEX
  5
1457E
  8
0
 10
91.9456092782209
 20
293.73992116706398
 30
0.0
  0
VERTEX
  5
1457F
  8
0
 10
91.969476670069753
 20
293.73803479408429
 30
0.0
  0
VERTEX
  5
14580
  8
0
 10
92.022356679580767
 20
293.73248452750698
 30
0.0
  0
VERTEX
  5
14581
  8
0
 10
92.081919849479164
 20
293.72394737665257
 30
0.0
  0
VERTEX
  5
14582
  8
0
 10
92.147889926714925
 20
293.7116160036739
 30
0.0
  0
VERTEX
  5
14583
  8
0
 10
92.219927840712089
 20
293.69460898743358
 30
0.0
  0
VERTEX
  5
14584
  8
0
 10
92.297641889485135
 20
293.6719672339504
 30
0.0
  0
VERTEX
  5
14585
  8
0
 10
92.338487956771928
 20
293.65821098703782
 30
0.0
  0
VERTEX
  5
14586
  8
0
 10
92.380577652760053
 20
293.64264746700331
 30
0.0
  0
VERTEX
  5
14587
  8
0
 10
92.468213543702291
 20
293.60550577154157
 30
0.0
  0
VERTEX
  5
14588
  8
0
 10
92.559943065071806
 20
293.55927332809591
 30
0.0
  0
VERTEX
  5
14589
  8
0
 10
92.655110243565105
 20
293.50247969602651
 30
0.0
  0
VERTEX
  5
1458A
  8
0
 10
92.711920295535364
 20
293.46378786782168
 30
0.0
  0
VERTEX
  5
1458B
  8
0
 10
92.728297081047685
 20
293.45190820701998
 30
0.0
  0
VERTEX
  5
1458C
  8
0
 10
92.74473099130455
 20
293.43964310634141
 30
0.0
  0
VERTEX
  5
1458D
  8
0
 10
92.752968049397396
 20
293.43336257861432
 30
0.0
  0
VERTEX
  5
1458E
  8
0
 10
92.761217790905334
 20
293.4269814998633
 30
0.0
  0
VERTEX
  5
1458F
  8
0
 10
92.777753115443716
 20
293.41391178165071
 30
0.0
  0
VERTEX
  5
14590
  8
0
 10
92.794332444546967
 20
293.40042176917308
 30
0.0
  0
VERTEX
  5
14591
  8
0
 10
92.810951069643124
 20
293.38649866666123
 30
0.0
  0
VERTEX
  5
14592
  8
0
 10
92.827604055973097
 20
293.37212902885938
 30
0.0
  0
VERTEX
  5
14593
  8
0
 10
92.8442861983699
 20
293.35729872569482
 30
0.0
  0
VERTEX
  5
14594
  8
0
 10
92.852636490152108
 20
293.34970621333139
 30
0.0
  0
VERTEX
  5
14595
  8
0
 10
92.860991970336826
 20
293.34199290844202
 30
0.0
  0
VERTEX
  5
14596
  8
0
 10
92.877715465983101
 20
293.3261959780329
 30
0.0
  0
VERTEX
  5
14597
  8
0
 10
92.894496984499824
 20
293.30984539040531
 30
0.0
  0
VERTEX
  5
14598
  8
0
 10
92.902970157159075
 20
293.3013926332236
 30
0.0
  0
VERTEX
  5
14599
  8
0
 10
92.911497482622977
 20
293.29274800601382
 30
0.0
  0
VERTEX
  5
1459A
  8
0
 10
92.928692098881243
 20
293.27488211195117
 30
0.0
  0
VERTEX
  5
1459B
  8
0
 10
92.946035167506238
 20
293.25624705090189
 30
0.0
  0
VERTEX
  5
1459C
  8
0
 10
92.954747832163662
 20
293.24664151907149
 30
0.0
  0
VERTEX
  5
1459D
  8
0
 10
92.963480058893197
 20
293.23684452853138
 30
0.0
  0
VERTEX
  5
1459E
  8
0
 10
92.980979376741416
 20
293.21667876755458
 30
0.0
  0
VERTEX
  5
1459F
  8
0
 10
92.998485185589857
 20
293.19575663002291
 30
0.0
  0
VERTEX
  5
145A0
  8
0
 10
93.015949271805994
 20
293.17408769551002
 30
0.0
  0
VERTEX
  5
145A1
  8
0
 10
93.033323440306162
 20
293.15168428056307
 30
0.0
  0
VERTEX
  5
145A2
  8
0
 10
93.050559848275839
 20
293.12856138225601
 30
0.0
  0
VERTEX
  5
145A3
  8
0
 10
93.059111627983839
 20
293.11673551123198
 30
0.0
  0
VERTEX
  5
145A4
  8
0
 10
93.067611375805768
 20
293.10473652590503
 30
0.0
  0
VERTEX
  5
145A5
  8
0
 10
93.084432410840805
 20
293.0802289296916
 30
0.0
  0
VERTEX
  5
145A6
  8
0
 10
93.100979431242536
 20
293.05505873716208
 30
0.0
  0
VERTEX
  5
145A7
  8
0
 10
93.117207166238131
 20
293.02925321505921
 30
0.0
  0
VERTEX
  5
145A8
  8
0
 10
93.133070731059874
 20
293.00284454142451
 30
0.0
  0
VERTEX
  5
145A9
  8
0
 10
93.148526403312644
 20
292.97586930183201
 30
0.0
  0
VERTEX
  5
145AA
  8
0
 10
93.156088062785884
 20
292.96218180525278
 30
0.0
  0
VERTEX
  5
145AB
  8
0
 10
93.163532145710846
 20
292.94836826550949
 30
0.0
  0
VERTEX
  5
145AC
  8
0
 10
93.178048136012976
 20
292.92038604029261
 30
0.0
  0
VERTEX
  5
145AD
  8
0
 10
93.192037298257674
 20
292.89197057921223
 30
0.0
  0
VERTEX
  5
145AE
  8
0
 10
93.198823612797923
 20
292.87761612403108
 30
0.0
  0
SEQEND
  5
145AF
  8
0
  0
LINE
  5
84C8
  8
0
 10
62.794967323454209
 20
295.74368873142021
 30
0.0
 11
147.79496732345419
 21
295.74368873142021
 31
0.0
  0
ARC
  5
84C9
  8
0
 10
120.7949673234541
 20
260.7244548002738
 30
0.0
 40
2.0000000000000031
 50
0.0
 51
75.155395552904096
  0
ARC
  5
84CA
  8
0
 10
120.7949673234541
 20
143.7629226625661
 30
0.0
 40
2.0000000000000129
 50
284.84460444709589
 51
0.0
  0
ARC
  5
84CB
  8
0
 10
105.2949673234542
 20
202.24368873141989
 30
0.0
 40
62.499999999999901
 50
255.155395552904
 51
284.84460444709589
  0
ARC
  5
84CC
  8
0
 10
105.2949673234542
 20
202.24368873141989
 30
0.0
 40
62.500000000000092
 50
75.155395552904096
 51
104.8446044470959
  0
ARC
  5
84CD
  8
0
 10
89.794967323454102
 20
260.7244548002738
 30
0.0
 40
1.9999999999999969
 50
104.8446044470959
 51
180.0
  0
ARC
  5
84CE
  8
0
 10
89.794967323454102
 20
143.7629226625661
 30
0.0
 40
1.9999999999999889
 50
180.0
 51
255.155395552904
  0
LINE
  5
84CF
  8
0
 10
122.7949673234541
 20
260.7244548002738
 30
0.0
 11
122.7949673234541
 21
143.7629226625661
 31
0.0
  0
LINE
  5
84D0
  8
0
 10
87.794967323454216
 20
260.7244548002738
 30
0.0
 11
87.794967323454216
 21
143.7629226625661
 31
0.0
  0
LINE
  5
84D1
  8
3
 10
69.794967323454216
 20
199.01068873142
 30
0.0
 11
72.794967323454216
 21
199.01068873142
 31
0.0
  0
LINE
  5
84D9
  8
1
 10
105.2949673234541
 20
123.7842333572468
 30
0.0
 11
105.2949673234541
 21
311.7031441055932
 31
0.0
  0
LINE
  5
13DDC
  8
0
 10
325.160649317381
 20
464.7725174844594
 30
0.0
 11
325.160649317381
 21
459.27251748445951
 31
0.0
  0
LINE
  5
13DDD
  8
0
 10
312.64398265071429
 20
464.7725174844594
 30
0.0
 11
312.64398265071429
 21
459.27251748445951
 31
0.0
  0
LINE
  5
13DDE
  8
0
 10
325.160649317381
 20
409.67251748445949
 30
0.0
 11
325.160649317381
 21
404.97251748445967
 31
0.0
  0
LINE
  5
13DDF
  8
0
 10
312.64398265071429
 20
409.67251748445949
 30
0.0
 11
312.64398265071429
 21
404.97251748445967
 31
0.0
  0
TEXT
  5
13E3B
  8
0
 62
     3
 10
0.0
 20
0.0
 30
0.0
 40
10.0
  1
CAFF-125PBL-SUS
  7
STANDARD1
  0
ENDSEC
  0
EOF
