  0
SECTION
  2
HEADER
  9
$ACADVER
  1
AC1009
  9
$INSBASE
 10
0.0
 20
0.0
 30
0.0
  9
$EXTMIN
 10
0.0
 20
-2.960436562073669
 30
0.0
  9
$EXTMAX
 10
753.02220987385579
 20
529.653817586267
 30
0.0
  9
$LIMMIN
 10
0.0
 20
0.0
  9
$LIMMAX
 10
375.0
 20
270.0
  9
$ORTHOMODE
 70
     1
  9
$REGENMODE
 70
     1
  9
$FILLMODE
 70
     1
  9
$QTEXTMODE
 70
     0
  9
$MIRRTEXT
 70
     1
  9
$DRAGMODE
 70
     2
  9
$LTSCALE
 40
10.0
  9
$OSMODE
 70
  3071
  9
$ATTMODE
 70
     1
  9
$TEXTSIZE
 40
5.0
  9
$TRACEWID
 40
0.05
  9
$TEXTSTYLE
  7
STANDARD
  9
$CLAYER
  8
0
  9
$CELTYPE
  6
BYLAYER
  9
$CECOLOR
 62
     6
  9
$DIMSCALE
 40
2.0
  9
$DIMASZ
 40
3.0
  9
$DIMEXO
 40
2.0
  9
$DIMDLI
 40
0.38
  9
$DIMRND
 40
0.0
  9
$DIMDLE
 40
0.0
  9
$DIMEXE
 40
2.0
  9
$DIMTP
 40
0.0
  9
$DIMTM
 40
0.0
  9
$DIMTXT
 40
3.2000000000000002
  9
$DIMCEN
 40
0.0
  9
$DIMTSZ
 40
0.0
  9
$DIMTOL
 70
     0
  9
$DIMLIM
 70
     0
  9
$DIMTIH
 70
     0
  9
$DIMTOH
 70
     0
  9
$DIMSE1
 70
     0
  9
$DIMSE2
 70
     0
  9
$DIMTAD
 70
     1
  9
$DIMZIN
 70
     8
  9
$DIMBLK
  1

  9
$DIMASO
 70
     0
  9
$DIMSHO
 70
     0
  9
$DIMPOST
  1

  9
$DIMAPOST
  1

  9
$DIMALT
 70
     0
  9
$DIMALTD
 70
     2
  9
$DIMALTF
 40
25.399999999999999
  9
$DIMLFAC
 40
1.0
  9
$DIMTOFL
 70
     0
  9
$DIMTVP
 40
1.6000000000000001
  9
$DIMTIX
 70
     1
  9
$DIMSOXD
 70
     0
  9
$DIMSAH
 70
     0
  9
$DIMBLK1
  1

  9
$DIMBLK2
  1

  9
$DIMSTYLE
  2
STANDARD
  9
$DIMCLRD
 70
     0
  9
$DIMCLRE
 70
     0
  9
$DIMCLRT
 70
     0
  9
$DIMTFAC
 40
1.0
  9
$DIMGAP
 40
1.1999999999999991
  9
$LUNITS
 70
     2
  9
$LUPREC
 70
     4
  9
$SKETCHINC
 40
0.1
  9
$FILLETRAD
 40
0.0
  9
$AUNITS
 70
     0
  9
$AUPREC
 70
     4
  9
$MENU
  1
ACAD
  9
$ELEVATION
 40
0.0
  9
$PELEVATION
 40
0.0
  9
$THICKNESS
 40
0.0
  9
$LIMCHECK
 70
     0
  9
$BLIPMODE
 70
     0
  9
$CHAMFERA
 40
0.0
  9
$CHAMFERB
 40
0.0
  9
$SKPOLY
 70
     0
  9
$TDCREATE
 40
2448055.7149187499
  9
$TDUPDATE
 40
2456598.561286204
  9
$TDINDWG
 40
2.6490660416999998
  9
$TDUSRTIMER
 40
2.6490660416999998
  9
$USRTIMER
 70
     1
  9
$ANGBASE
 50
0.0
  9
$ANGDIR
 70
     0
  9
$PDMODE
 70
     0
  9
$PDSIZE
 40
0.0
  9
$PLINEWID
 40
0.0
  9
$COORDS
 70
     1
  9
$SPLFRAME
 70
     0
  9
$SPLINETYPE
 70
     6
  9
$SPLINESEGS
 70
     8
  9
$ATTDIA
 70
     0
  9
$ATTREQ
 70
     1
  9
$HANDLING
 70
     1
  9
$HANDSEED
  5
27D51
  9
$SURFTAB1
 70
     6
  9
$SURFTAB2
 70
     6
  9
$SURFTYPE
 70
     6
  9
$SURFU
 70
     6
  9
$SURFV
 70
     6
  9
$UCSNAME
  2

  9
$UCSORG
 10
0.0
 20
0.0
 30
0.0
  9
$UCSXDIR
 10
1.0
 20
0.0
 30
0.0
  9
$UCSYDIR
 10
0.0
 20
1.0
 30
0.0
  9
$PUCSNAME
  2

  9
$PUCSORG
 10
0.0
 20
0.0
 30
0.0
  9
$PUCSXDIR
 10
1.0
 20
0.0
 30
0.0
  9
$PUCSYDIR
 10
0.0
 20
1.0
 30
0.0
  9
$USERI1
 70
     0
  9
$USERI2
 70
     0
  9
$USERI3
 70
     0
  9
$USERI4
 70
     0
  9
$USERI5
 70
     0
  9
$USERR1
 40
0.0
  9
$USERR2
 40
0.0
  9
$USERR3
 40
0.0
  9
$USERR4
 40
0.0
  9
$USERR5
 40
0.0
  9
$WORLDVIEW
 70
     1
  9
$SHADEDGE
 70
     3
  9
$SHADEDIF
 70
    70
  9
$TILEMODE
 70
     1
  9
$MAXACTVP
 70
    16
  9
$PLIMCHECK
 70
     0
  9
$PEXTMIN
 10
1.0000000000000000E+020
 20
1.0000000000000000E+020
 30
1.0000000000000000E+020
  9
$PEXTMAX
 10
-1.0000000000000000E+020
 20
-1.0000000000000000E+020
 30
-1.0000000000000000E+020
  9
$PLIMMIN
 10
0.0
 20
0.0
  9
$PLIMMAX
 10
12.0
 20
9.0
  9
$UNITMODE
 70
     0
  9
$VISRETAIN
 70
     0
  9
$PLINEGEN
 70
     1
  9
$PSLTSCALE
 70
     0
  0
ENDSEC
  0
SECTION
  2
TABLES
  0
TABLE
  2
VPORT
 70
     1
  0
VPORT
  2
*ACTIVE
 70
     0
 10
0.0
 20
0.0
 11
1.0
 21
1.0
 12
391.26987590048788
 22
263.3519676767508
 13
0.0
 23
0.0
 14
5.0
 24
5.0
 15
10.0
 25
10.0
 16
0.0
 26
0.0
 36
1.0
 17
0.0
 27
0.0
 37
0.0
 40
537.41303454044851
 41
1.831871345029239
 42
50.0
 43
0.0
 44
0.0
 50
0.0
 51
0.0
 71
     0
 72
   500
 73
     1
 74
     1
 75
     0
 76
     0
 77
     0
 78
     2
  0
ENDTAB
  0
TABLE
  2
LTYPE
 70
     4
  0
LTYPE
  2
CONTINUOUS
 70
     0
  3
実線
 72
    65
 73
     0
 40
0.0
  0
LTYPE
  2
CENTER
 70
     0
  3
____ _ ____ _ ____ _ ____ _ ____ _ ____ _ ____
 72
    65
 73
     4
 40
2.0
 49
1.25
 49
-0.25
 49
0.25
 49
-0.25
  0
LTYPE
  2
HIDDEN
 70
     0
  3
_ _ _ _ _ _ _ _ _ _ _ _ _ _ _ _ _ _ _ _ _ _ _
 72
    65
 73
     2
 40
0.375
 49
0.25
 49
-0.125
  0
LTYPE
  2
PHANTOM2
 70
     0
  3
___ _ _ ___ _ _ ___ _ _ ___ _ _
 72
    65
 73
     6
 40
1.25
 49
0.625
 49
-0.125
 49
0.125
 49
-0.125
 49
0.125
 49
-0.125
  0
ENDTAB
  0
TABLE
  2
LAYER
 70
     5
  0
LAYER
  2
0
 70
     0
 62
     7
  6
CONTINUOUS
  0
LAYER
  2
1
 70
     0
 62
     1
  6
CENTER
  0
LAYER
  2
2
 70
     0
 62
     2
  6
HIDDEN
  0
LAYER
  2
DEFPOINTS
 70
     0
 62
     7
  6
CONTINUOUS
  0
LAYER
  2
3
 70
     0
 62
     3
  6
CONTINUOUS
  0
ENDTAB
  0
TABLE
  2
STYLE
 70
     3
  0
STYLE
  2
STANDARD
 70
     0
 40
0.0
 41
1.0
 50
0.0
 71
     0
 42
5.0
  3
simplex.shx
  4
bigfont.shx
  0
STYLE
  2
07500
 70
     0
 40
0.0
 41
0.75
 50
0.0
 71
     0
 42
0.2
  3
simplex.shx
  4
bigfont.shx
  0
STYLE
  2
STANDARD1
 70
     0
 40
0.0
 41
1.0
 50
0.0
 71
     0
 42
3.0
  3
txt
  4

  0
ENDTAB
  0
TABLE
  2
VIEW
 70
     2
  0
VIEW
  2
ALL
 70
     0
 40
270.0
 10
220.99159663865549
 20
135.0
 41
0.0
 11
0.0
 21
0.0
 31
1.0
 12
0.0
 22
0.0
 32
0.0
 42
0.0
 43
0.0
 44
0.0
 50
0.0
 71
     0
  0
VIEW
  2
OLE1
 70
     0
 40
168.2487151179721
 10
2892.3009567448912
 20
702.51600084347126
 41
162.5749581879237
 11
0.0
 21
0.0
 31
1.0
 12
0.0
 22
0.0
 32
0.0
 42
50.0
 43
0.0
 44
0.0
 50
0.0
 71
     0
  0
ENDTAB
  0
TABLE
  2
UCS
 70
     0
  0
ENDTAB
  0
TABLE
  2
APPID
 70
    48
  0
APPID
  2
ACAD
 70
     0
  0
APPID
  2
DCO15
 70
     0
  0
APPID
  2
GENIUS_GENOREF_13
 70
     0
  0
APPID
  2
GENIUS_GENOENT_13
 70
     0
  0
APPID
  2
GENIUS_GENBH_13
 70
     0
  0
APPID
  2
GENIUS_GENOBJ_13
 70
     0
  0
APPID
  2
GENIUS_GENODEF_13
 70
     0
  0
APPID
  2
GENIUS_GENOLIS_13
 70
     0
  0
APPID
  2
GENIUS_GENOBJ-NBEHI-BHF_13
 70
     0
  0
APPID
  2
GENIUS_GENOBJ-NBEHI-BHB_13
 70
     0
  0
APPID
  2
GENIUS_GENOBJ-F-PART_13
 70
     0
  0
APPID
  2
GENIUS_GEFSTDP_13
 70
     0
  0
APPID
  2
GENIUS_GENOBJ-N-RSSYM_13
 70
     0
  0
APPID
  2
GENIUS_GENSYMENT_13
 70
     0
  0
APPID
  2
GENIUS_GENOBJ-N-TIT_13
 70
     0
  0
APPID
  2
GENIUS_GENTITLE_13
 70
     0
  0
APPID
  2
GENIUS_GENZVEED_13
 70
     0
  0
APPID
  2
GENIUS_GENOBJ-N-LEADER_13
 70
     0
  0
APPID
  2
GENIUS_GENOBJ-N-FIL_13
 70
     0
  0
APPID
  2
GENIUS_GENOBJ-N-SEC_13
 70
     0
  0
APPID
  2
GENIUS_GENOBJ-N-CRS_13
 70
     0
  0
APPID
  2
GENIUS_GENOBJ-N-ZOO_13
 70
     0
  0
APPID
  2
GENIUS_GENZOO_13
 70
     0
  0
APPID
  2
GENIUS_GENOBJ-F-TOL_13
 70
     0
  0
APPID
  2
GENIUS_GENFIL_13
 70
     0
  0
APPID
  2
GENIUS_GENOBJ-N-CHA_13
 70
     0
  0
APPID
  2
_CALL_MAC$
 70
     0
  0
APPID
  2
ASM_BASE
 70
     0
  0
APPID
  2
ASM_EXPLO_VER_2_00
 70
     0
  0
APPID
  2
ASM_CADM_VER_12_00
 70
     0
  0
APPID
  2
ASM_BASEFORO
 70
     0
  0
APPID
  2
ASM_BASETRAVI
 70
     0
  0
APPID
  2
ASM_BASETRAVI1
 70
     0
  0
APPID
  2
ASM_GRUPPI
 70
     0
  0
APPID
  2
ASM_CADM_ALBERO
 70
     0
  0
APPID
  2
ASM_GOLE
 70
     0
  0
APPID
  2
ACAD_MLEADERVER
 70
     0
  0
APPID
  2
ACAD_DSTYLE_DIMJAG
 70
     0
  0
APPID
  2
ACAD_DSTYLE_DIMTALN
 70
     0
  0
APPID
  2
ACAD_EXEMPT_FROM_CAD_STANDARDS
 70
     0
  0
APPID
  2
ACAD_DSTYLE_DIMRADIAL_EXTENSION
 70
     0
  0
APPID
  2
ACAD_PSEXT
 70
     0
  0
APPID
  2
ACAD_DSTYLE_DIMBREAK
 70
     0
  0
APPID
  2
ACAECLAYERSTANDARD
 70
     0
  0
APPID
  2
ACCMTRANSPARENCY
 70
     0
  0
APPID
  2
GRADIENTCOLOR1ACI
 70
     0
  0
APPID
  2
GRADIENTCOLOR2ACI
 70
     0
  0
APPID
  2
ACAD_NAV_VCDISPLAY
 70
     0
  0
ENDTAB
  0
TABLE
  2
DIMSTYLE
 70
     1
  0
DIMSTYLE
  2
STANDARD
 70
     0
  3

  4

  5

  6

  7

 40
1.0
 41
0.18
 42
0.0625
 43
0.38
 44
0.18
 45
0.0
 46
0.0
 47
0.0
 48
0.0
140
0.18
141
0.09
142
0.0
143
25.399999999999999
144
1.0
145
0.0
146
1.0
147
0.09
 71
     0
 72
     0
 73
     1
 74
     1
 75
     0
 76
     0
 77
     0
 78
     0
170
     0
171
     2
172
     0
173
     0
174
     0
175
     0
176
     0
177
     0
178
     0
  0
ENDTAB
  0
ENDSEC
  0
SECTION
  2
BLOCKS
  0
BLOCK
  8
0
  2
$MODEL_SPACE
 70
     0
 10
0.0
 20
0.0
 30
0.0
  3
$MODEL_SPACE
  1

  0
ENDBLK
  5
36
  8
0
  0
BLOCK
 67
     1
  8
0
  2
$PAPER_SPACE
 70
     0
 10
0.0
 20
0.0
 30
0.0
  3
$PAPER_SPACE
  1

  0
ENDBLK
  5
34
 67
     1
  8
0
  0
ENDSEC
  0
SECTION
  2
ENTITIES
  0
LINE
  5
2776D
  8
0
 10
412.23428809197128
 20
259.5344632422312
 30
0.0
 11
412.23428809197128
 21
255.73446324221831
 31
0.0
  0
LINE
  5
2776E
  8
0
 10
514.23428809197139
 20
255.73446324221831
 30
0.0
 11
514.23428809197139
 21
259.5344632422312
 31
0.0
  0
ARC
  5
2776F
  8
0
 10
416.2342880919586
 20
259.5344632422312
 30
0.0
 40
3.9999999999871241
 50
90.0
 51
180.0
  0
ARC
  5
27770
  8
0
 10
510.23428809198413
 20
259.5344632422312
 30
0.0
 40
3.9999999999871241
 50
0.0
 51
90.0
  0
LINE
  5
27771
  8
0
 10
415.73428809197128
 20
255.73446324221831
 30
0.0
 11
415.73428809197128
 21
244.03446324221869
 31
0.0
  0
LINE
  5
27772
  8
0
 10
510.73428809197139
 20
246.53446324221869
 30
0.0
 11
510.73428809197139
 21
255.73446324221831
 31
0.0
  0
ARC
  5
27773
  8
0
 10
429.23428809197128
 20
259.40946324221841
 30
0.0
 40
8.1249999999999964
 50
90.0
 51
149.4897625938834
  0
ARC
  5
27774
  8
0
 10
497.23428809197139
 20
259.40946324221841
 30
0.0
 40
8.1250000000001172
 50
30.51023740611657
 51
90.0
  0
LINE
  5
27775
  8
0
 10
497.23428809197139
 20
267.53446324221852
 30
0.0
 11
429.23428809197128
 21
267.53446324221852
 31
0.0
  0
LINE
  5
27779
  8
0
 10
412.23428809197128
 20
255.73446324221831
 30
0.0
 11
514.23428809197139
 21
255.73446324221831
 31
0.0
  0
LINE
  5
2777B
  8
0
 10
416.2342880919586
 20
263.53446324221852
 30
0.0
 11
510.23428809198413
 21
263.53446324221829
 31
0.0
  0
ARC
  5
2777C
  8
0
 10
424.73428809196957
 20
154.5344666654278
 30
0.0
 40
10.00000000000391
 50
296.93167987326979
 51
321.48495828323678
  0
LINE
  5
2777D
  8
0
 10
429.26356540316192
 20
244.03446324221869
 30
0.0
 11
429.26356540316192
 21
145.61899432581569
 31
0.0
  0
LINE
  5
2777E
  8
0
 10
510.73428809197139
 20
246.53446324221869
 30
0.0
 11
432.55873511882049
 21
148.30726595209899
 31
0.0
  0
ARC
  5
2777F
  8
0
 10
399.73428809197139
 20
154.53446177512981
 30
0.0
 40
10.00000000000011
 50
172.94509412091941
 51
270.0000112077268
  0
LINE
  5
27780
  8
0
 10
400.73428809197128
 20
244.03446324221869
 30
0.0
 11
389.80999899248042
 21
155.76266610247791
 31
0.0
  0
LINE
  5
27781
  8
0
 10
429.26356540316192
 20
244.03446324221869
 30
0.0
 11
400.73428809197128
 21
244.03446324221869
 31
0.0
  0
LINE
  5
27783
  8
0
 10
399.73429004808941
 20
144.5344617751299
 30
0.0
 11
424.73429004808889
 21
144.5344666654251
 31
0.0
  0
ARC
  5
27784
  8
0
 10
424.73428809197128
 20
154.5344666654251
 30
0.0
 40
10.00000000000008
 50
270.0000112077268
 51
296.93167987326979
  0
ARC
  5
277A2
  8
0
 10
66.92473456765083
 20
259.5344632422312
 30
0.0
 40
3.9999999999871241
 50
90.0
 51
180.0
  0
ARC
  5
277A3
  8
0
 10
160.92473456767721
 20
259.5344632422312
 30
0.0
 40
3.9999999999871241
 50
0.0
 51
90.0
  0
LINE
  5
277A4
  8
0
 10
62.924734567665382
 20
259.5344632422312
 30
0.0
 11
62.924734567665382
 21
255.73446324221831
 31
0.0
  0
LINE
  5
277A5
  8
0
 10
164.92473456766439
 20
255.73446324221831
 30
0.0
 11
164.92473456766439
 21
259.5344632422312
 31
0.0
  0
LINE
  5
277A6
  8
0
 10
66.424734567665382
 20
255.73446324221831
 30
0.0
 11
66.424734567665382
 21
186.8509471833932
 31
0.0
  0
LINE
  5
277A7
  8
0
 10
161.42473456766541
 20
186.8509471833932
 30
0.0
 11
161.42473456766541
 21
255.73446324221831
 31
0.0
  0
ARC
  5
277A8
  8
0
 10
79.924734567664473
 20
259.40946324221841
 30
0.0
 40
8.1249999999999964
 50
90.0
 51
149.48976259388391
  0
ARC
  5
277A9
  8
0
 10
147.92473456766541
 20
259.40946324221841
 30
0.0
 40
8.1249999999999964
 50
30.51023740611603
 51
90.0
  0
LINE
  5
277AA
  8
0
 10
147.92473456766541
 20
267.53446324221852
 30
0.0
 11
79.924734567664473
 21
267.53446324221852
 31
0.0
  0
LINE
  5
277AB
  8
0
 10
143.92473456766541
 20
164.53446324221841
 30
0.0
 11
143.42473456766439
 21
164.53446324221841
 31
0.0
  0
LINE
  5
277AC
  8
0
 10
84.424734567665382
 20
164.53446324221821
 30
0.0
 11
83.924734567665382
 21
164.53446324221821
 31
0.0
  0
LINE
  5
277AF
  8
0
 10
154.0969670703393
 20
143.56480812761541
 30
0.0
 11
154.62473456766429
 21
145.53446324221841
 31
0.0
  0
LINE
  5
277B0
  8
0
 10
154.62473456766429
 20
163.53446324221841
 30
0.0
 11
154.0969670703393
 21
165.50411835682149
 31
0.0
  0
LINE
  5
277B3
  8
0
 10
70.724734567664655
 20
145.53446324221841
 30
0.0
 11
70.993378663205021
 21
144.53186982850869
 31
0.0
  0
LINE
  5
277B4
  8
0
 10
70.993378663205021
 20
164.53705665592841
 30
0.0
 11
70.724734567664655
 21
163.53446324221841
 31
0.0
  0
LINE
  5
277B5
  8
0
 10
80.724734567664655
 20
163.53446324221841
 30
0.0
 11
80.456090472124274
 21
164.53705665592841
 31
0.0
  0
LINE
  5
277B6
  8
0
 10
80.456090472124274
 20
144.53186982850869
 30
0.0
 11
80.724734567664655
 21
145.53446324221841
 31
0.0
  0
ARC
  5
277B7
  8
0
 10
113.9247345676654
 20
154.53446324221821
 30
0.0
 40
74.999999999994657
 50
253.69073455359481
 51
286.30926544641858
  0
ARC
  5
277B8
  8
0
 10
113.9247345676654
 20
154.53446324221821
 30
0.0
 40
74.999999999994927
 50
73.690734553594751
 51
106.30926544640521
  0
ARC
  5
277B9
  8
0
 10
93.424734567664458
 20
84.47199111911965
 30
0.0
 40
1.9999999999994711
 50
180.00000000000651
 51
253.6907345536151
  0
ARC
  5
277BA
  8
0
 10
93.424734567664458
 20
224.59693536531731
 30
0.0
 40
1.9999999999994711
 50
106.3092654463849
 51
179.99999999999349
  0
ARC
  5
277BB
  8
0
 10
134.42473456766629
 20
84.47199111911965
 30
0.0
 40
1.9999999999994711
 50
286.30926544638493
 51
359.99999999999682
  0
ARC
  5
277BC
  8
0
 10
134.42473456766629
 20
224.59693536531731
 30
0.0
 40
1.9999999999994711
 50
0.0000000000065138
 51
73.690734553615115
  0
LINE
  5
277BD
  8
0
 10
91.424734567665382
 20
177.53446324221841
 30
0.0
 11
86.250423082169164
 21
177.08176964568571
 31
0.0
  0
LINE
  5
277BE
  8
0
 10
86.250423082169164
 20
131.98715683875139
 30
0.0
 11
91.424734567665382
 21
131.53446324221869
 31
0.0
  0
LINE
  5
277BF
  8
0
 10
136.42473456766541
 20
131.53446324221869
 30
0.0
 11
141.59904605315981
 21
131.98715683875139
 31
0.0
  0
LINE
  5
277C0
  8
0
 10
141.59904605315981
 20
177.08176964568571
 30
0.0
 11
136.42473456766541
 21
177.53446324221841
 31
0.0
  0
ARC
  5
277C1
  8
0
 10
86.424734567665382
 20
133.97954623493499
 30
0.0
 40
2.000000000000179
 50
180.00000000000651
 51
265.00000000000671
  0
ARC
  5
277C2
  8
0
 10
86.424734567665382
 20
175.0893802495016
 30
0.0
 40
2.000000000000179
 50
94.999999999993236
 51
179.99999999999349
  0
ARC
  5
277C3
  8
0
 10
141.4247345676653
 20
133.97954623493499
 30
0.0
 40
2.000000000000179
 50
274.99999999999329
 51
359.99999999999352
  0
ARC
  5
277C4
  8
0
 10
141.4247345676653
 20
175.0893802495016
 30
0.0
 40
2.000000000000179
 50
0.0000000000065138
 51
85.00000000000675
  0
LINE
  5
277C5
  8
0
 10
83.924734567665382
 20
155.76266610247791
 30
0.0
 11
80.724734567664655
 21
155.76266610247791
 31
0.0
  0
LINE
  5
277C7
  8
0
 10
84.424734567665155
 20
144.5344617751303
 30
0.0
 11
80.724734567664655
 21
144.5344617751303
 31
0.0
  0
LINE
  5
277CA
  8
0
 10
147.12473456766429
 20
144.5344617751303
 30
0.0
 11
143.42473456766439
 21
144.5344617751303
 31
0.0
  0
LINE
  5
277CC
  8
0
 10
147.12473456766429
 20
155.76266610247791
 30
0.0
 11
143.92473456766541
 21
155.76266610247791
 31
0.0
  0
LINE
  5
277CD
  8
0
 10
143.92473456766541
 20
240.83446324221839
 30
0.0
 11
83.924734567665382
 21
240.83446324221839
 31
0.0
  0
LINE
  5
277CE
  8
0
 10
147.12473456766429
 20
244.03446324221869
 30
0.0
 11
80.724734567664655
 21
244.03446324221869
 31
0.0
  0
LINE
  5
277CF
  8
0
 10
147.12473456766429
 20
244.03446324221869
 30
0.0
 11
147.12473456766429
 21
143.56480812761541
 31
0.0
  0
LINE
  5
277D0
  8
0
 10
143.92473456766541
 20
240.83446324221839
 30
0.0
 11
143.92473456766541
 21
144.53446324221841
 31
0.0
  0
LINE
  5
277D1
  8
0
 10
83.924734567665382
 20
240.83446324221839
 30
0.0
 11
83.924734567665382
 21
144.53446324221821
 31
0.0
  0
LINE
  5
277D2
  8
0
 10
80.724734567664655
 20
244.03446324221869
 30
0.0
 11
80.724734567664655
 21
144.5344617751303
 31
0.0
  0
LINE
  5
277D3
  8
0
 10
66.924734569085103
 20
263.53446324221852
 30
0.0
 11
160.92473456767721
 21
263.53446324221852
 31
0.0
  0
LINE
  5
277D4
  8
0
 10
62.924734567665382
 20
255.73446324221831
 30
0.0
 11
164.92473456766439
 21
255.73446324221831
 31
0.0
  0
POLYLINE
  5
277D5
  8
0
 10
66.424734567665396
 20
186.8509471833932
 30
0.0
 66
     1
 70
     8
  0
VERTEX
  8
0
  5
27A45
 10
66.4247
 20
186.851
 30
0.000000
  70
    32
  0
VERTEX
  8
0
  5
27A46
 10
66.4250
 20
186.651
 30
0.000000
  70
    32
  0
VERTEX
  8
0
  5
27A47
 10
66.4258
 20
186.451
 30
0.000000
  70
    32
  0
VERTEX
  8
0
  5
27A48
 10
66.4271
 20
186.251
 30
0.000000
  70
    32
  0
VERTEX
  8
0
  5
27A49
 10
66.4290
 20
186.051
 30
0.000000
  70
    32
  0
VERTEX
  8
0
  5
27A4A
 10
66.4314
 20
185.851
 30
0.000000
  70
    32
  0
VERTEX
  8
0
  5
27A4B
 10
66.4343
 20
185.651
 30
0.000000
  70
    32
  0
VERTEX
  8
0
  5
27A4C
 10
66.4378
 20
185.452
 30
0.000000
  70
    32
  0
VERTEX
  8
0
  5
27A4D
 10
66.4418
 20
185.252
 30
0.000000
  70
    32
  0
VERTEX
  8
0
  5
27A4E
 10
66.4463
 20
185.052
 30
0.000000
  70
    32
  0
VERTEX
  8
0
  5
27A4F
 10
66.4514
 20
184.852
 30
0.000000
  70
    32
  0
VERTEX
  8
0
  5
27A50
 10
66.4570
 20
184.652
 30
0.000000
  70
    32
  0
VERTEX
  8
0
  5
27A51
 10
66.4631
 20
184.452
 30
0.000000
  70
    32
  0
VERTEX
  8
0
  5
27A52
 10
66.4698
 20
184.253
 30
0.000000
  70
    32
  0
VERTEX
  8
0
  5
27A53
 10
66.4770
 20
184.053
 30
0.000000
  70
    32
  0
VERTEX
  8
0
  5
27A54
 10
66.4847
 20
183.853
 30
0.000000
  70
    32
  0
VERTEX
  8
0
  5
27A55
 10
66.4929
 20
183.654
 30
0.000000
  70
    32
  0
VERTEX
  8
0
  5
27A56
 10
66.5017
 20
183.454
 30
0.000000
  70
    32
  0
VERTEX
  8
0
  5
27A57
 10
66.5111
 20
183.254
 30
0.000000
  70
    32
  0
VERTEX
  8
0
  5
27A58
 10
66.5209
 20
183.055
 30
0.000000
  70
    32
  0
VERTEX
  8
0
  5
27A59
 10
66.5313
 20
182.855
 30
0.000000
  70
    32
  0
VERTEX
  8
0
  5
27A5A
 10
66.5422
 20
182.656
 30
0.000000
  70
    32
  0
VERTEX
  8
0
  5
27A5B
 10
66.5537
 20
182.456
 30
0.000000
  70
    32
  0
VERTEX
  8
0
  5
27A5C
 10
66.5656
 20
182.257
 30
0.000000
  70
    32
  0
VERTEX
  8
0
  5
27A5D
 10
66.5782
 20
182.058
 30
0.000000
  70
    32
  0
VERTEX
  8
0
  5
27A5E
 10
66.5912
 20
181.859
 30
0.000000
  70
    32
  0
VERTEX
  8
0
  5
27A5F
 10
66.6048
 20
181.659
 30
0.000000
  70
    32
  0
VERTEX
  8
0
  5
27A60
 10
66.6189
 20
181.460
 30
0.000000
  70
    32
  0
VERTEX
  8
0
  5
27A61
 10
66.6335
 20
181.261
 30
0.000000
  70
    32
  0
VERTEX
  8
0
  5
27A62
 10
66.6487
 20
181.062
 30
0.000000
  70
    32
  0
VERTEX
  8
0
  5
27A63
 10
66.6644
 20
180.863
 30
0.000000
  70
    32
  0
VERTEX
  8
0
  5
27A64
 10
66.6806
 20
180.664
 30
0.000000
  70
    32
  0
VERTEX
  8
0
  5
27A65
 10
66.6974
 20
180.465
 30
0.000000
  70
    32
  0
VERTEX
  8
0
  5
27A66
 10
66.7147
 20
180.267
 30
0.000000
  70
    32
  0
VERTEX
  8
0
  5
27A67
 10
66.7325
 20
180.068
 30
0.000000
  70
    32
  0
VERTEX
  8
0
  5
27A68
 10
66.7508
 20
179.869
 30
0.000000
  70
    32
  0
VERTEX
  8
0
  5
27A69
 10
66.7697
 20
179.671
 30
0.000000
  70
    32
  0
VERTEX
  8
0
  5
27A6A
 10
66.7891
 20
179.472
 30
0.000000
  70
    32
  0
VERTEX
  8
0
  5
27A6B
 10
66.8091
 20
179.274
 30
0.000000
  70
    32
  0
VERTEX
  8
0
  5
27A6C
 10
66.8295
 20
179.076
 30
0.000000
  70
    32
  0
VERTEX
  8
0
  5
27A6D
 10
66.8505
 20
178.878
 30
0.000000
  70
    32
  0
VERTEX
  8
0
  5
27A6E
 10
66.8720
 20
178.680
 30
0.000000
  70
    32
  0
VERTEX
  8
0
  5
27A6F
 10
66.8941
 20
178.482
 30
0.000000
  70
    32
  0
VERTEX
  8
0
  5
27A70
 10
66.9167
 20
178.284
 30
0.000000
  70
    32
  0
VERTEX
  8
0
  5
27A71
 10
66.9398
 20
178.086
 30
0.000000
  70
    32
  0
VERTEX
  8
0
  5
27A72
 10
66.9634
 20
177.888
 30
0.000000
  70
    32
  0
VERTEX
  8
0
  5
27A73
 10
66.9876
 20
177.691
 30
0.000000
  70
    32
  0
VERTEX
  8
0
  5
27A74
 10
67.0122
 20
177.493
 30
0.000000
  70
    32
  0
VERTEX
  8
0
  5
27A75
 10
67.0375
 20
177.296
 30
0.000000
  70
    32
  0
VERTEX
  8
0
  5
27A76
 10
67.0632
 20
177.098
 30
0.000000
  70
    32
  0
VERTEX
  8
0
  5
27A77
 10
67.0895
 20
176.901
 30
0.000000
  70
    32
  0
VERTEX
  8
0
  5
27A78
 10
67.1162
 20
176.704
 30
0.000000
  70
    32
  0
VERTEX
  8
0
  5
27A79
 10
67.1436
 20
176.507
 30
0.000000
  70
    32
  0
VERTEX
  8
0
  5
27A7A
 10
67.1714
 20
176.310
 30
0.000000
  70
    32
  0
VERTEX
  8
0
  5
27A7B
 10
67.1998
 20
176.113
 30
0.000000
  70
    32
  0
VERTEX
  8
0
  5
27A7C
 10
67.2286
 20
175.917
 30
0.000000
  70
    32
  0
VERTEX
  8
0
  5
27A7D
 10
67.2581
 20
175.720
 30
0.000000
  70
    32
  0
VERTEX
  8
0
  5
27A7E
 10
67.2880
 20
175.524
 30
0.000000
  70
    32
  0
VERTEX
  8
0
  5
27A7F
 10
67.3185
 20
175.328
 30
0.000000
  70
    32
  0
VERTEX
  8
0
  5
27A80
 10
67.3494
 20
175.132
 30
0.000000
  70
    32
  0
VERTEX
  8
0
  5
27A81
 10
67.3809
 20
174.936
 30
0.000000
  70
    32
  0
VERTEX
  8
0
  5
27A82
 10
67.4130
 20
174.740
 30
0.000000
  70
    32
  0
VERTEX
  8
0
  5
27A83
 10
67.4455
 20
174.544
 30
0.000000
  70
    32
  0
VERTEX
  8
0
  5
27A84
 10
67.4786
 20
174.349
 30
0.000000
  70
    32
  0
VERTEX
  8
0
  5
27A85
 10
67.5122
 20
174.153
 30
0.000000
  70
    32
  0
VERTEX
  8
0
  5
27A86
 10
67.5463
 20
173.958
 30
0.000000
  70
    32
  0
VERTEX
  8
0
  5
27A87
 10
67.5809
 20
173.763
 30
0.000000
  70
    32
  0
VERTEX
  8
0
  5
27A88
 10
67.6161
 20
173.568
 30
0.000000
  70
    32
  0
VERTEX
  8
0
  5
27A89
 10
67.6518
 20
173.373
 30
0.000000
  70
    32
  0
VERTEX
  8
0
  5
27A8A
 10
67.6879
 20
173.178
 30
0.000000
  70
    32
  0
VERTEX
  8
0
  5
27A8B
 10
67.7247
 20
172.984
 30
0.000000
  70
    32
  0
VERTEX
  8
0
  5
27A8C
 10
67.7619
 20
172.789
 30
0.000000
  70
    32
  0
VERTEX
  8
0
  5
27A8D
 10
67.7996
 20
172.595
 30
0.000000
  70
    32
  0
VERTEX
  8
0
  5
27A8E
 10
67.8379
 20
172.401
 30
0.000000
  70
    32
  0
VERTEX
  8
0
  5
27A8F
 10
67.8767
 20
172.207
 30
0.000000
  70
    32
  0
VERTEX
  8
0
  5
27A90
 10
67.9160
 20
172.013
 30
0.000000
  70
    32
  0
VERTEX
  8
0
  5
27A91
 10
67.9558
 20
171.820
 30
0.000000
  70
    32
  0
VERTEX
  8
0
  5
27A92
 10
67.9961
 20
171.626
 30
0.000000
  70
    32
  0
VERTEX
  8
0
  5
27A93
 10
68.0370
 20
171.433
 30
0.000000
  70
    32
  0
VERTEX
  8
0
  5
27A94
 10
68.0783
 20
171.240
 30
0.000000
  70
    32
  0
VERTEX
  8
0
  5
27A95
 10
68.1202
 20
171.047
 30
0.000000
  70
    32
  0
VERTEX
  8
0
  5
27A96
 10
68.1626
 20
170.855
 30
0.000000
  70
    32
  0
VERTEX
  8
0
  5
27A97
 10
68.2055
 20
170.662
 30
0.000000
  70
    32
  0
VERTEX
  8
0
  5
27A98
 10
68.2489
 20
170.470
 30
0.000000
  70
    32
  0
VERTEX
  8
0
  5
27A99
 10
68.2928
 20
170.278
 30
0.000000
  70
    32
  0
VERTEX
  8
0
  5
27A9A
 10
68.3373
 20
170.086
 30
0.000000
  70
    32
  0
VERTEX
  8
0
  5
27A9B
 10
68.3822
 20
169.894
 30
0.000000
  70
    32
  0
VERTEX
  8
0
  5
27A9C
 10
68.4277
 20
169.702
 30
0.000000
  70
    32
  0
VERTEX
  8
0
  5
27A9D
 10
68.4737
 20
169.511
 30
0.000000
  70
    32
  0
VERTEX
  8
0
  5
27A9E
 10
68.5202
 20
169.320
 30
0.000000
  70
    32
  0
VERTEX
  8
0
  5
27A9F
 10
68.5672
 20
169.129
 30
0.000000
  70
    32
  0
VERTEX
  8
0
  5
27AA0
 10
68.6147
 20
168.938
 30
0.000000
  70
    32
  0
VERTEX
  8
0
  5
27AA1
 10
68.6627
 20
168.747
 30
0.000000
  70
    32
  0
VERTEX
  8
0
  5
27AA2
 10
68.7112
 20
168.557
 30
0.000000
  70
    32
  0
VERTEX
  8
0
  5
27AA3
 10
68.7602
 20
168.367
 30
0.000000
  70
    32
  0
VERTEX
  8
0
  5
27AA4
 10
68.8098
 20
168.177
 30
0.000000
  70
    32
  0
VERTEX
  8
0
  5
27AA5
 10
68.8598
 20
167.987
 30
0.000000
  70
    32
  0
VERTEX
  8
0
  5
27AA6
 10
68.9103
 20
167.797
 30
0.000000
  70
    32
  0
VERTEX
  8
0
  5
27AA7
 10
68.9614
 20
167.608
 30
0.000000
  70
    32
  0
VERTEX
  8
0
  5
27AA8
 10
69.0129
 20
167.419
 30
0.000000
  70
    32
  0
VERTEX
  8
0
  5
27AA9
 10
69.0650
 20
167.230
 30
0.000000
  70
    32
  0
VERTEX
  8
0
  5
27AAA
 10
69.1176
 20
167.041
 30
0.000000
  70
    32
  0
VERTEX
  8
0
  5
27AAB
 10
69.1706
 20
166.853
 30
0.000000
  70
    32
  0
VERTEX
  8
0
  5
27AAC
 10
69.2242
 20
166.664
 30
0.000000
  70
    32
  0
VERTEX
  8
0
  5
27AAD
 10
69.2783
 20
166.476
 30
0.000000
  70
    32
  0
VERTEX
  8
0
  5
27AAE
 10
69.3328
 20
166.288
 30
0.000000
  70
    32
  0
VERTEX
  8
0
  5
27AAF
 10
69.3879
 20
166.101
 30
0.000000
  70
    32
  0
VERTEX
  8
0
  5
27AB0
 10
69.4435
 20
165.914
 30
0.000000
  70
    32
  0
VERTEX
  8
0
  5
27AB1
 10
69.4995
 20
165.726
 30
0.000000
  70
    32
  0
VERTEX
  8
0
  5
27AB2
 10
69.5561
 20
165.540
 30
0.000000
  70
    32
  0
VERTEX
  8
0
  5
27AB3
 10
69.6132
 20
165.353
 30
0.000000
  70
    32
  0
VERTEX
  8
0
  5
27AB4
 10
69.6707
 20
165.167
 30
0.000000
  70
    32
  0
VERTEX
  8
0
  5
27AB5
 10
69.7288
 20
164.980
 30
0.000000
  70
    32
  0
VERTEX
  8
0
  5
27AB6
 10
69.7874
 20
164.794
 30
0.000000
  70
    32
  0
VERTEX
  8
0
  5
27AB7
 10
69.8464
 20
164.609
 30
0.000000
  70
    32
  0
VERTEX
  8
0
  5
27AB8
 10
69.9059
 20
164.423
 30
0.000000
  70
    32
  0
VERTEX
  8
0
  5
27AB9
 10
69.9660
 20
164.238
 30
0.000000
  70
    32
  0
VERTEX
  8
0
  5
27ABA
 10
70.0265
 20
164.053
 30
0.000000
  70
    32
  0
VERTEX
  8
0
  5
27ABB
 10
70.0875
 20
163.869
 30
0.000000
  70
    32
  0
VERTEX
  8
0
  5
27ABC
 10
70.1491
 20
163.684
 30
0.000000
  70
    32
  0
VERTEX
  8
0
  5
27ABD
 10
70.2111
 20
163.500
 30
0.000000
  70
    32
  0
VERTEX
  8
0
  5
27ABE
 10
70.2736
 20
163.316
 30
0.000000
  70
    32
  0
VERTEX
  8
0
  5
27ABF
 10
70.3366
 20
163.133
 30
0.000000
  70
    32
  0
VERTEX
  8
0
  5
27AC0
 10
70.4000
 20
162.949
 30
0.000000
  70
    32
  0
VERTEX
  8
0
  5
27AC1
 10
70.4640
 20
162.766
 30
0.000000
  70
    32
  0
VERTEX
  8
0
  5
27AC2
 10
70.5285
 20
162.584
 30
0.000000
  70
    32
  0
VERTEX
  8
0
  5
27AC3
 10
70.5934
 20
162.401
 30
0.000000
  70
    32
  0
VERTEX
  8
0
  5
27AC4
 10
70.6588
 20
162.219
 30
0.000000
  70
    32
  0
VERTEX
  8
0
  5
27AC5
 10
70.7247
 20
162.037
 30
0.000000
  70
    32
  0
SEQEND
  8
0
  5
27AC6
  0
POLYLINE
  5
277D6
  8
0
 10
154.6247345676658
 20
156.07938536386129
 30
0.0
 66
     1
 70
     8
  0
VERTEX
  8
0
  5
27AC7
 10
154.625
 20
156.079
 30
0.000000
  70
    32
  0
VERTEX
  8
0
  5
27AC8
 10
154.728
 20
156.296
 30
0.000000
  70
    32
  0
VERTEX
  8
0
  5
27AC9
 10
154.831
 20
156.513
 30
0.000000
  70
    32
  0
VERTEX
  8
0
  5
27ACA
 10
154.932
 20
156.731
 30
0.000000
  70
    32
  0
VERTEX
  8
0
  5
27ACB
 10
155.033
 20
156.949
 30
0.000000
  70
    32
  0
VERTEX
  8
0
  5
27ACC
 10
155.134
 20
157.168
 30
0.000000
  70
    32
  0
VERTEX
  8
0
  5
27ACD
 10
155.233
 20
157.388
 30
0.000000
  70
    32
  0
VERTEX
  8
0
  5
27ACE
 10
155.332
 20
157.608
 30
0.000000
  70
    32
  0
VERTEX
  8
0
  5
27ACF
 10
155.430
 20
157.828
 30
0.000000
  70
    32
  0
VERTEX
  8
0
  5
27AD0
 10
155.528
 20
158.049
 30
0.000000
  70
    32
  0
VERTEX
  8
0
  5
27AD1
 10
155.624
 20
158.270
 30
0.000000
  70
    32
  0
VERTEX
  8
0
  5
27AD2
 10
155.720
 20
158.492
 30
0.000000
  70
    32
  0
VERTEX
  8
0
  5
27AD3
 10
155.815
 20
158.715
 30
0.000000
  70
    32
  0
VERTEX
  8
0
  5
27AD4
 10
155.910
 20
158.938
 30
0.000000
  70
    32
  0
VERTEX
  8
0
  5
27AD5
 10
156.003
 20
159.161
 30
0.000000
  70
    32
  0
VERTEX
  8
0
  5
27AD6
 10
156.096
 20
159.385
 30
0.000000
  70
    32
  0
VERTEX
  8
0
  5
27AD7
 10
156.188
 20
159.610
 30
0.000000
  70
    32
  0
VERTEX
  8
0
  5
27AD8
 10
156.280
 20
159.835
 30
0.000000
  70
    32
  0
VERTEX
  8
0
  5
27AD9
 10
156.370
 20
160.060
 30
0.000000
  70
    32
  0
VERTEX
  8
0
  5
27ADA
 10
156.460
 20
160.286
 30
0.000000
  70
    32
  0
VERTEX
  8
0
  5
27ADB
 10
156.549
 20
160.513
 30
0.000000
  70
    32
  0
VERTEX
  8
0
  5
27ADC
 10
156.638
 20
160.740
 30
0.000000
  70
    32
  0
VERTEX
  8
0
  5
27ADD
 10
156.725
 20
160.967
 30
0.000000
  70
    32
  0
VERTEX
  8
0
  5
27ADE
 10
156.812
 20
161.195
 30
0.000000
  70
    32
  0
VERTEX
  8
0
  5
27ADF
 10
156.898
 20
161.423
 30
0.000000
  70
    32
  0
VERTEX
  8
0
  5
27AE0
 10
156.983
 20
161.652
 30
0.000000
  70
    32
  0
VERTEX
  8
0
  5
27AE1
 10
157.068
 20
161.881
 30
0.000000
  70
    32
  0
VERTEX
  8
0
  5
27AE2
 10
157.152
 20
162.111
 30
0.000000
  70
    32
  0
VERTEX
  8
0
  5
27AE3
 10
157.234
 20
162.341
 30
0.000000
  70
    32
  0
VERTEX
  8
0
  5
27AE4
 10
157.317
 20
162.571
 30
0.000000
  70
    32
  0
VERTEX
  8
0
  5
27AE5
 10
157.398
 20
162.802
 30
0.000000
  70
    32
  0
VERTEX
  8
0
  5
27AE6
 10
157.479
 20
163.033
 30
0.000000
  70
    32
  0
VERTEX
  8
0
  5
27AE7
 10
157.558
 20
163.265
 30
0.000000
  70
    32
  0
VERTEX
  8
0
  5
27AE8
 10
157.637
 20
163.498
 30
0.000000
  70
    32
  0
VERTEX
  8
0
  5
27AE9
 10
157.716
 20
163.730
 30
0.000000
  70
    32
  0
VERTEX
  8
0
  5
27AEA
 10
157.793
 20
163.963
 30
0.000000
  70
    32
  0
VERTEX
  8
0
  5
27AEB
 10
157.870
 20
164.197
 30
0.000000
  70
    32
  0
VERTEX
  8
0
  5
27AEC
 10
157.946
 20
164.431
 30
0.000000
  70
    32
  0
VERTEX
  8
0
  5
27AED
 10
158.021
 20
164.665
 30
0.000000
  70
    32
  0
VERTEX
  8
0
  5
27AEE
 10
158.095
 20
164.900
 30
0.000000
  70
    32
  0
VERTEX
  8
0
  5
27AEF
 10
158.169
 20
165.135
 30
0.000000
  70
    32
  0
VERTEX
  8
0
  5
27AF0
 10
158.242
 20
165.370
 30
0.000000
  70
    32
  0
VERTEX
  8
0
  5
27AF1
 10
158.314
 20
165.606
 30
0.000000
  70
    32
  0
VERTEX
  8
0
  5
27AF2
 10
158.385
 20
165.842
 30
0.000000
  70
    32
  0
VERTEX
  8
0
  5
27AF3
 10
158.455
 20
166.079
 30
0.000000
  70
    32
  0
VERTEX
  8
0
  5
27AF4
 10
158.525
 20
166.316
 30
0.000000
  70
    32
  0
VERTEX
  8
0
  5
27AF5
 10
158.593
 20
166.553
 30
0.000000
  70
    32
  0
VERTEX
  8
0
  5
27AF6
 10
158.661
 20
166.791
 30
0.000000
  70
    32
  0
VERTEX
  8
0
  5
27AF7
 10
158.728
 20
167.029
 30
0.000000
  70
    32
  0
VERTEX
  8
0
  5
27AF8
 10
158.795
 20
167.267
 30
0.000000
  70
    32
  0
VERTEX
  8
0
  5
27AF9
 10
158.860
 20
167.506
 30
0.000000
  70
    32
  0
VERTEX
  8
0
  5
27AFA
 10
158.925
 20
167.745
 30
0.000000
  70
    32
  0
VERTEX
  8
0
  5
27AFB
 10
158.989
 20
167.985
 30
0.000000
  70
    32
  0
VERTEX
  8
0
  5
27AFC
 10
159.052
 20
168.224
 30
0.000000
  70
    32
  0
VERTEX
  8
0
  5
27AFD
 10
159.115
 20
168.464
 30
0.000000
  70
    32
  0
VERTEX
  8
0
  5
27AFE
 10
159.176
 20
168.705
 30
0.000000
  70
    32
  0
VERTEX
  8
0
  5
27AFF
 10
159.237
 20
168.946
 30
0.000000
  70
    32
  0
VERTEX
  8
0
  5
27B00
 10
159.297
 20
169.187
 30
0.000000
  70
    32
  0
VERTEX
  8
0
  5
27B01
 10
159.356
 20
169.428
 30
0.000000
  70
    32
  0
VERTEX
  8
0
  5
27B02
 10
159.414
 20
169.670
 30
0.000000
  70
    32
  0
VERTEX
  8
0
  5
27B03
 10
159.472
 20
169.912
 30
0.000000
  70
    32
  0
VERTEX
  8
0
  5
27B04
 10
159.528
 20
170.154
 30
0.000000
  70
    32
  0
VERTEX
  8
0
  5
27B05
 10
159.584
 20
170.397
 30
0.000000
  70
    32
  0
VERTEX
  8
0
  5
27B06
 10
159.639
 20
170.640
 30
0.000000
  70
    32
  0
VERTEX
  8
0
  5
27B07
 10
159.693
 20
170.883
 30
0.000000
  70
    32
  0
VERTEX
  8
0
  5
27B08
 10
159.747
 20
171.127
 30
0.000000
  70
    32
  0
VERTEX
  8
0
  5
27B09
 10
159.799
 20
171.370
 30
0.000000
  70
    32
  0
VERTEX
  8
0
  5
27B0A
 10
159.851
 20
171.614
 30
0.000000
  70
    32
  0
VERTEX
  8
0
  5
27B0B
 10
159.902
 20
171.859
 30
0.000000
  70
    32
  0
VERTEX
  8
0
  5
27B0C
 10
159.952
 20
172.103
 30
0.000000
  70
    32
  0
VERTEX
  8
0
  5
27B0D
 10
160.001
 20
172.348
 30
0.000000
  70
    32
  0
VERTEX
  8
0
  5
27B0E
 10
160.049
 20
172.593
 30
0.000000
  70
    32
  0
VERTEX
  8
0
  5
27B0F
 10
160.097
 20
172.839
 30
0.000000
  70
    32
  0
VERTEX
  8
0
  5
27B10
 10
160.144
 20
173.084
 30
0.000000
  70
    32
  0
VERTEX
  8
0
  5
27B11
 10
160.190
 20
173.330
 30
0.000000
  70
    32
  0
VERTEX
  8
0
  5
27B12
 10
160.235
 20
173.576
 30
0.000000
  70
    32
  0
VERTEX
  8
0
  5
27B13
 10
160.279
 20
173.823
 30
0.000000
  70
    32
  0
VERTEX
  8
0
  5
27B14
 10
160.323
 20
174.069
 30
0.000000
  70
    32
  0
VERTEX
  8
0
  5
27B15
 10
160.365
 20
174.316
 30
0.000000
  70
    32
  0
VERTEX
  8
0
  5
27B16
 10
160.407
 20
174.563
 30
0.000000
  70
    32
  0
VERTEX
  8
0
  5
27B17
 10
160.448
 20
174.811
 30
0.000000
  70
    32
  0
VERTEX
  8
0
  5
27B18
 10
160.488
 20
175.058
 30
0.000000
  70
    32
  0
VERTEX
  8
0
  5
27B19
 10
160.528
 20
175.306
 30
0.000000
  70
    32
  0
VERTEX
  8
0
  5
27B1A
 10
160.566
 20
175.554
 30
0.000000
  70
    32
  0
VERTEX
  8
0
  5
27B1B
 10
160.604
 20
175.802
 30
0.000000
  70
    32
  0
VERTEX
  8
0
  5
27B1C
 10
160.640
 20
176.050
 30
0.000000
  70
    32
  0
VERTEX
  8
0
  5
27B1D
 10
160.676
 20
176.299
 30
0.000000
  70
    32
  0
VERTEX
  8
0
  5
27B1E
 10
160.712
 20
176.547
 30
0.000000
  70
    32
  0
VERTEX
  8
0
  5
27B1F
 10
160.746
 20
176.796
 30
0.000000
  70
    32
  0
VERTEX
  8
0
  5
27B20
 10
160.779
 20
177.045
 30
0.000000
  70
    32
  0
VERTEX
  8
0
  5
27B21
 10
160.812
 20
177.294
 30
0.000000
  70
    32
  0
VERTEX
  8
0
  5
27B22
 10
160.844
 20
177.544
 30
0.000000
  70
    32
  0
VERTEX
  8
0
  5
27B23
 10
160.875
 20
177.793
 30
0.000000
  70
    32
  0
VERTEX
  8
0
  5
27B24
 10
160.905
 20
178.043
 30
0.000000
  70
    32
  0
VERTEX
  8
0
  5
27B25
 10
160.934
 20
178.293
 30
0.000000
  70
    32
  0
VERTEX
  8
0
  5
27B26
 10
160.962
 20
178.543
 30
0.000000
  70
    32
  0
VERTEX
  8
0
  5
27B27
 10
160.990
 20
178.793
 30
0.000000
  70
    32
  0
VERTEX
  8
0
  5
27B28
 10
161.017
 20
179.044
 30
0.000000
  70
    32
  0
VERTEX
  8
0
  5
27B29
 10
161.042
 20
179.294
 30
0.000000
  70
    32
  0
VERTEX
  8
0
  5
27B2A
 10
161.067
 20
179.545
 30
0.000000
  70
    32
  0
VERTEX
  8
0
  5
27B2B
 10
161.092
 20
179.795
 30
0.000000
  70
    32
  0
VERTEX
  8
0
  5
27B2C
 10
161.115
 20
180.046
 30
0.000000
  70
    32
  0
VERTEX
  8
0
  5
27B2D
 10
161.137
 20
180.297
 30
0.000000
  70
    32
  0
VERTEX
  8
0
  5
27B2E
 10
161.159
 20
180.548
 30
0.000000
  70
    32
  0
VERTEX
  8
0
  5
27B2F
 10
161.180
 20
180.800
 30
0.000000
  70
    32
  0
VERTEX
  8
0
  5
27B30
 10
161.200
 20
181.051
 30
0.000000
  70
    32
  0
VERTEX
  8
0
  5
27B31
 10
161.219
 20
181.302
 30
0.000000
  70
    32
  0
VERTEX
  8
0
  5
27B32
 10
161.237
 20
181.554
 30
0.000000
  70
    32
  0
VERTEX
  8
0
  5
27B33
 10
161.255
 20
181.805
 30
0.000000
  70
    32
  0
VERTEX
  8
0
  5
27B34
 10
161.271
 20
182.057
 30
0.000000
  70
    32
  0
VERTEX
  8
0
  5
27B35
 10
161.287
 20
182.309
 30
0.000000
  70
    32
  0
VERTEX
  8
0
  5
27B36
 10
161.302
 20
182.561
 30
0.000000
  70
    32
  0
VERTEX
  8
0
  5
27B37
 10
161.316
 20
182.813
 30
0.000000
  70
    32
  0
VERTEX
  8
0
  5
27B38
 10
161.329
 20
183.065
 30
0.000000
  70
    32
  0
VERTEX
  8
0
  5
27B39
 10
161.341
 20
183.317
 30
0.000000
  70
    32
  0
VERTEX
  8
0
  5
27B3A
 10
161.353
 20
183.569
 30
0.000000
  70
    32
  0
VERTEX
  8
0
  5
27B3B
 10
161.363
 20
183.821
 30
0.000000
  70
    32
  0
VERTEX
  8
0
  5
27B3C
 10
161.373
 20
184.074
 30
0.000000
  70
    32
  0
VERTEX
  8
0
  5
27B3D
 10
161.382
 20
184.326
 30
0.000000
  70
    32
  0
VERTEX
  8
0
  5
27B3E
 10
161.390
 20
184.578
 30
0.000000
  70
    32
  0
VERTEX
  8
0
  5
27B3F
 10
161.398
 20
184.831
 30
0.000000
  70
    32
  0
VERTEX
  8
0
  5
27B40
 10
161.404
 20
185.083
 30
0.000000
  70
    32
  0
VERTEX
  8
0
  5
27B41
 10
161.409
 20
185.336
 30
0.000000
  70
    32
  0
VERTEX
  8
0
  5
27B42
 10
161.414
 20
185.588
 30
0.000000
  70
    32
  0
VERTEX
  8
0
  5
27B43
 10
161.418
 20
185.841
 30
0.000000
  70
    32
  0
VERTEX
  8
0
  5
27B44
 10
161.421
 20
186.093
 30
0.000000
  70
    32
  0
VERTEX
  8
0
  5
27B45
 10
161.423
 20
186.346
 30
0.000000
  70
    32
  0
VERTEX
  8
0
  5
27B46
 10
161.424
 20
186.598
 30
0.000000
  70
    32
  0
VERTEX
  8
0
  5
27B47
 10
161.425
 20
186.851
 30
0.000000
  70
    32
  0
SEQEND
  8
0
  5
27B48
  0
POLYLINE
  5
277D7
  8
0
 10
143.92473456766513
 20
227.80748301819835
 30
0.0
 66
     1
 70
     8
  0
VERTEX
  8
0
  5
27B49
 10
143.925
 20
227.807
 30
0.000000
  70
    32
  0
VERTEX
  8
0
  5
27B4A
 10
143.798
 20
227.954
 30
0.000000
  70
    32
  0
VERTEX
  8
0
  5
27B4B
 10
143.670
 20
228.099
 30
0.000000
  70
    32
  0
VERTEX
  8
0
  5
27B4C
 10
143.542
 20
228.244
 30
0.000000
  70
    32
  0
VERTEX
  8
0
  5
27B4D
 10
143.414
 20
228.389
 30
0.000000
  70
    32
  0
VERTEX
  8
0
  5
27B4E
 10
143.285
 20
228.533
 30
0.000000
  70
    32
  0
VERTEX
  8
0
  5
27B4F
 10
143.156
 20
228.676
 30
0.000000
  70
    32
  0
VERTEX
  8
0
  5
27B50
 10
143.027
 20
228.818
 30
0.000000
  70
    32
  0
VERTEX
  8
0
  5
27B51
 10
142.896
 20
228.960
 30
0.000000
  70
    32
  0
VERTEX
  8
0
  5
27B52
 10
142.766
 20
229.101
 30
0.000000
  70
    32
  0
VERTEX
  8
0
  5
27B53
 10
142.635
 20
229.242
 30
0.000000
  70
    32
  0
VERTEX
  8
0
  5
27B54
 10
142.504
 20
229.382
 30
0.000000
  70
    32
  0
VERTEX
  8
0
  5
27B55
 10
142.372
 20
229.521
 30
0.000000
  70
    32
  0
VERTEX
  8
0
  5
27B56
 10
142.239
 20
229.660
 30
0.000000
  70
    32
  0
VERTEX
  8
0
  5
27B57
 10
142.107
 20
229.798
 30
0.000000
  70
    32
  0
VERTEX
  8
0
  5
27B58
 10
141.974
 20
229.935
 30
0.000000
  70
    32
  0
VERTEX
  8
0
  5
27B59
 10
141.840
 20
230.072
 30
0.000000
  70
    32
  0
VERTEX
  8
0
  5
27B5A
 10
141.706
 20
230.208
 30
0.000000
  70
    32
  0
VERTEX
  8
0
  5
27B5B
 10
141.572
 20
230.343
 30
0.000000
  70
    32
  0
VERTEX
  8
0
  5
27B5C
 10
141.437
 20
230.478
 30
0.000000
  70
    32
  0
VERTEX
  8
0
  5
27B5D
 10
141.302
 20
230.612
 30
0.000000
  70
    32
  0
VERTEX
  8
0
  5
27B5E
 10
141.166
 20
230.746
 30
0.000000
  70
    32
  0
VERTEX
  8
0
  5
27B5F
 10
141.030
 20
230.878
 30
0.000000
  70
    32
  0
VERTEX
  8
0
  5
27B60
 10
140.894
 20
231.010
 30
0.000000
  70
    32
  0
VERTEX
  8
0
  5
27B61
 10
140.757
 20
231.142
 30
0.000000
  70
    32
  0
VERTEX
  8
0
  5
27B62
 10
140.620
 20
231.273
 30
0.000000
  70
    32
  0
VERTEX
  8
0
  5
27B63
 10
140.482
 20
231.403
 30
0.000000
  70
    32
  0
VERTEX
  8
0
  5
27B64
 10
140.344
 20
231.532
 30
0.000000
  70
    32
  0
VERTEX
  8
0
  5
27B65
 10
140.205
 20
231.661
 30
0.000000
  70
    32
  0
VERTEX
  8
0
  5
27B66
 10
140.067
 20
231.789
 30
0.000000
  70
    32
  0
VERTEX
  8
0
  5
27B67
 10
139.927
 20
231.916
 30
0.000000
  70
    32
  0
VERTEX
  8
0
  5
27B68
 10
139.788
 20
232.043
 30
0.000000
  70
    32
  0
VERTEX
  8
0
  5
27B69
 10
139.648
 20
232.169
 30
0.000000
  70
    32
  0
VERTEX
  8
0
  5
27B6A
 10
139.507
 20
232.294
 30
0.000000
  70
    32
  0
VERTEX
  8
0
  5
27B6B
 10
139.366
 20
232.419
 30
0.000000
  70
    32
  0
VERTEX
  8
0
  5
27B6C
 10
139.225
 20
232.543
 30
0.000000
  70
    32
  0
VERTEX
  8
0
  5
27B6D
 10
139.084
 20
232.666
 30
0.000000
  70
    32
  0
VERTEX
  8
0
  5
27B6E
 10
138.942
 20
232.789
 30
0.000000
  70
    32
  0
VERTEX
  8
0
  5
27B6F
 10
138.799
 20
232.911
 30
0.000000
  70
    32
  0
VERTEX
  8
0
  5
27B70
 10
138.656
 20
233.032
 30
0.000000
  70
    32
  0
VERTEX
  8
0
  5
27B71
 10
138.513
 20
233.152
 30
0.000000
  70
    32
  0
VERTEX
  8
0
  5
27B72
 10
138.370
 20
233.272
 30
0.000000
  70
    32
  0
VERTEX
  8
0
  5
27B73
 10
138.226
 20
233.391
 30
0.000000
  70
    32
  0
VERTEX
  8
0
  5
27B74
 10
138.082
 20
233.509
 30
0.000000
  70
    32
  0
VERTEX
  8
0
  5
27B75
 10
137.937
 20
233.627
 30
0.000000
  70
    32
  0
VERTEX
  8
0
  5
27B76
 10
137.792
 20
233.744
 30
0.000000
  70
    32
  0
VERTEX
  8
0
  5
27B77
 10
137.647
 20
233.860
 30
0.000000
  70
    32
  0
VERTEX
  8
0
  5
27B78
 10
137.501
 20
233.976
 30
0.000000
  70
    32
  0
VERTEX
  8
0
  5
27B79
 10
137.355
 20
234.091
 30
0.000000
  70
    32
  0
VERTEX
  8
0
  5
27B7A
 10
137.209
 20
234.205
 30
0.000000
  70
    32
  0
VERTEX
  8
0
  5
27B7B
 10
137.062
 20
234.318
 30
0.000000
  70
    32
  0
VERTEX
  8
0
  5
27B7C
 10
136.915
 20
234.431
 30
0.000000
  70
    32
  0
VERTEX
  8
0
  5
27B7D
 10
136.768
 20
234.543
 30
0.000000
  70
    32
  0
VERTEX
  8
0
  5
27B7E
 10
136.620
 20
234.654
 30
0.000000
  70
    32
  0
VERTEX
  8
0
  5
27B7F
 10
136.472
 20
234.765
 30
0.000000
  70
    32
  0
VERTEX
  8
0
  5
27B80
 10
136.324
 20
234.874
 30
0.000000
  70
    32
  0
VERTEX
  8
0
  5
27B81
 10
136.175
 20
234.983
 30
0.000000
  70
    32
  0
VERTEX
  8
0
  5
27B82
 10
136.026
 20
235.092
 30
0.000000
  70
    32
  0
VERTEX
  8
0
  5
27B83
 10
135.876
 20
235.199
 30
0.000000
  70
    32
  0
VERTEX
  8
0
  5
27B84
 10
135.726
 20
235.306
 30
0.000000
  70
    32
  0
VERTEX
  8
0
  5
27B85
 10
135.576
 20
235.412
 30
0.000000
  70
    32
  0
VERTEX
  8
0
  5
27B86
 10
135.426
 20
235.518
 30
0.000000
  70
    32
  0
VERTEX
  8
0
  5
27B87
 10
135.275
 20
235.623
 30
0.000000
  70
    32
  0
VERTEX
  8
0
  5
27B88
 10
135.124
 20
235.726
 30
0.000000
  70
    32
  0
VERTEX
  8
0
  5
27B89
 10
134.973
 20
235.830
 30
0.000000
  70
    32
  0
VERTEX
  8
0
  5
27B8A
 10
134.821
 20
235.932
 30
0.000000
  70
    32
  0
VERTEX
  8
0
  5
27B8B
 10
134.669
 20
236.034
 30
0.000000
  70
    32
  0
VERTEX
  8
0
  5
27B8C
 10
134.517
 20
236.135
 30
0.000000
  70
    32
  0
VERTEX
  8
0
  5
27B8D
 10
134.364
 20
236.235
 30
0.000000
  70
    32
  0
VERTEX
  8
0
  5
27B8E
 10
134.211
 20
236.335
 30
0.000000
  70
    32
  0
VERTEX
  8
0
  5
27B8F
 10
134.058
 20
236.433
 30
0.000000
  70
    32
  0
VERTEX
  8
0
  5
27B90
 10
133.904
 20
236.531
 30
0.000000
  70
    32
  0
VERTEX
  8
0
  5
27B91
 10
133.750
 20
236.629
 30
0.000000
  70
    32
  0
VERTEX
  8
0
  5
27B92
 10
133.596
 20
236.725
 30
0.000000
  70
    32
  0
VERTEX
  8
0
  5
27B93
 10
133.441
 20
236.821
 30
0.000000
  70
    32
  0
VERTEX
  8
0
  5
27B94
 10
133.287
 20
236.916
 30
0.000000
  70
    32
  0
VERTEX
  8
0
  5
27B95
 10
133.132
 20
237.010
 30
0.000000
  70
    32
  0
VERTEX
  8
0
  5
27B96
 10
132.976
 20
237.103
 30
0.000000
  70
    32
  0
VERTEX
  8
0
  5
27B97
 10
132.821
 20
237.196
 30
0.000000
  70
    32
  0
VERTEX
  8
0
  5
27B98
 10
132.665
 20
237.288
 30
0.000000
  70
    32
  0
VERTEX
  8
0
  5
27B99
 10
132.508
 20
237.379
 30
0.000000
  70
    32
  0
VERTEX
  8
0
  5
27B9A
 10
132.352
 20
237.470
 30
0.000000
  70
    32
  0
VERTEX
  8
0
  5
27B9B
 10
132.195
 20
237.559
 30
0.000000
  70
    32
  0
VERTEX
  8
0
  5
27B9C
 10
132.038
 20
237.648
 30
0.000000
  70
    32
  0
VERTEX
  8
0
  5
27B9D
 10
131.881
 20
237.736
 30
0.000000
  70
    32
  0
VERTEX
  8
0
  5
27B9E
 10
131.723
 20
237.824
 30
0.000000
  70
    32
  0
VERTEX
  8
0
  5
27B9F
 10
131.565
 20
237.910
 30
0.000000
  70
    32
  0
VERTEX
  8
0
  5
27BA0
 10
131.407
 20
237.996
 30
0.000000
  70
    32
  0
VERTEX
  8
0
  5
27BA1
 10
131.249
 20
238.081
 30
0.000000
  70
    32
  0
VERTEX
  8
0
  5
27BA2
 10
131.090
 20
238.165
 30
0.000000
  70
    32
  0
VERTEX
  8
0
  5
27BA3
 10
130.931
 20
238.249
 30
0.000000
  70
    32
  0
VERTEX
  8
0
  5
27BA4
 10
130.772
 20
238.331
 30
0.000000
  70
    32
  0
VERTEX
  8
0
  5
27BA5
 10
130.613
 20
238.413
 30
0.000000
  70
    32
  0
VERTEX
  8
0
  5
27BA6
 10
130.453
 20
238.494
 30
0.000000
  70
    32
  0
VERTEX
  8
0
  5
27BA7
 10
130.293
 20
238.575
 30
0.000000
  70
    32
  0
VERTEX
  8
0
  5
27BA8
 10
130.133
 20
238.654
 30
0.000000
  70
    32
  0
VERTEX
  8
0
  5
27BA9
 10
129.972
 20
238.733
 30
0.000000
  70
    32
  0
VERTEX
  8
0
  5
27BAA
 10
129.812
 20
238.811
 30
0.000000
  70
    32
  0
VERTEX
  8
0
  5
27BAB
 10
129.651
 20
238.888
 30
0.000000
  70
    32
  0
VERTEX
  8
0
  5
27BAC
 10
129.490
 20
238.965
 30
0.000000
  70
    32
  0
VERTEX
  8
0
  5
27BAD
 10
129.328
 20
239.040
 30
0.000000
  70
    32
  0
VERTEX
  8
0
  5
27BAE
 10
129.167
 20
239.115
 30
0.000000
  70
    32
  0
VERTEX
  8
0
  5
27BAF
 10
129.005
 20
239.189
 30
0.000000
  70
    32
  0
VERTEX
  8
0
  5
27BB0
 10
128.843
 20
239.263
 30
0.000000
  70
    32
  0
VERTEX
  8
0
  5
27BB1
 10
128.680
 20
239.335
 30
0.000000
  70
    32
  0
VERTEX
  8
0
  5
27BB2
 10
128.518
 20
239.407
 30
0.000000
  70
    32
  0
VERTEX
  8
0
  5
27BB3
 10
128.355
 20
239.478
 30
0.000000
  70
    32
  0
VERTEX
  8
0
  5
27BB4
 10
128.192
 20
239.548
 30
0.000000
  70
    32
  0
VERTEX
  8
0
  5
27BB5
 10
128.029
 20
239.617
 30
0.000000
  70
    32
  0
VERTEX
  8
0
  5
27BB6
 10
127.866
 20
239.686
 30
0.000000
  70
    32
  0
VERTEX
  8
0
  5
27BB7
 10
127.702
 20
239.753
 30
0.000000
  70
    32
  0
VERTEX
  8
0
  5
27BB8
 10
127.538
 20
239.820
 30
0.000000
  70
    32
  0
VERTEX
  8
0
  5
27BB9
 10
127.374
 20
239.886
 30
0.000000
  70
    32
  0
VERTEX
  8
0
  5
27BBA
 10
127.210
 20
239.952
 30
0.000000
  70
    32
  0
VERTEX
  8
0
  5
27BBB
 10
127.045
 20
240.016
 30
0.000000
  70
    32
  0
VERTEX
  8
0
  5
27BBC
 10
126.881
 20
240.080
 30
0.000000
  70
    32
  0
VERTEX
  8
0
  5
27BBD
 10
126.716
 20
240.143
 30
0.000000
  70
    32
  0
VERTEX
  8
0
  5
27BBE
 10
126.551
 20
240.205
 30
0.000000
  70
    32
  0
VERTEX
  8
0
  5
27BBF
 10
126.386
 20
240.266
 30
0.000000
  70
    32
  0
VERTEX
  8
0
  5
27BC0
 10
126.220
 20
240.327
 30
0.000000
  70
    32
  0
VERTEX
  8
0
  5
27BC1
 10
126.055
 20
240.386
 30
0.000000
  70
    32
  0
VERTEX
  8
0
  5
27BC2
 10
125.889
 20
240.445
 30
0.000000
  70
    32
  0
VERTEX
  8
0
  5
27BC3
 10
125.723
 20
240.503
 30
0.000000
  70
    32
  0
VERTEX
  8
0
  5
27BC4
 10
125.557
 20
240.560
 30
0.000000
  70
    32
  0
VERTEX
  8
0
  5
27BC5
 10
125.391
 20
240.617
 30
0.000000
  70
    32
  0
VERTEX
  8
0
  5
27BC6
 10
125.224
 20
240.673
 30
0.000000
  70
    32
  0
VERTEX
  8
0
  5
27BC7
 10
125.058
 20
240.727
 30
0.000000
  70
    32
  0
VERTEX
  8
0
  5
27BC8
 10
124.891
 20
240.781
 30
0.000000
  70
    32
  0
VERTEX
  8
0
  5
27BC9
 10
124.724
 20
240.834
 30
0.000000
  70
    32
  0
SEQEND
  8
0
  5
27BCA
  0
POLYLINE
  5
277D8
  8
0
 10
103.12559018883181
 20
240.83446324221839
 30
0.0
 66
     1
 70
     8
  0
VERTEX
  8
0
  5
27BCB
 10
103.126
 20
240.834
 30
0.000000
  70
    32
  0
VERTEX
  8
0
  5
27BCC
 10
102.959
 20
240.781
 30
0.000000
  70
    32
  0
VERTEX
  8
0
  5
27BCD
 10
102.792
 20
240.727
 30
0.000000
  70
    32
  0
VERTEX
  8
0
  5
27BCE
 10
102.625
 20
240.673
 30
0.000000
  70
    32
  0
VERTEX
  8
0
  5
27BCF
 10
102.459
 20
240.617
 30
0.000000
  70
    32
  0
VERTEX
  8
0
  5
27BD0
 10
102.292
 20
240.560
 30
0.000000
  70
    32
  0
VERTEX
  8
0
  5
27BD1
 10
102.126
 20
240.503
 30
0.000000
  70
    32
  0
VERTEX
  8
0
  5
27BD2
 10
101.960
 20
240.445
 30
0.000000
  70
    32
  0
VERTEX
  8
0
  5
27BD3
 10
101.795
 20
240.386
 30
0.000000
  70
    32
  0
VERTEX
  8
0
  5
27BD4
 10
101.629
 20
240.327
 30
0.000000
  70
    32
  0
VERTEX
  8
0
  5
27BD5
 10
101.464
 20
240.266
 30
0.000000
  70
    32
  0
VERTEX
  8
0
  5
27BD6
 10
101.298
 20
240.205
 30
0.000000
  70
    32
  0
VERTEX
  8
0
  5
27BD7
 10
101.133
 20
240.143
 30
0.000000
  70
    32
  0
VERTEX
  8
0
  5
27BD8
 10
100.969
 20
240.080
 30
0.000000
  70
    32
  0
VERTEX
  8
0
  5
27BD9
 10
100.804
 20
240.016
 30
0.000000
  70
    32
  0
VERTEX
  8
0
  5
27BDA
 10
100.640
 20
239.952
 30
0.000000
  70
    32
  0
VERTEX
  8
0
  5
27BDB
 10
100.475
 20
239.886
 30
0.000000
  70
    32
  0
VERTEX
  8
0
  5
27BDC
 10
100.311
 20
239.820
 30
0.000000
  70
    32
  0
VERTEX
  8
0
  5
27BDD
 10
100.148
 20
239.753
 30
0.000000
  70
    32
  0
VERTEX
  8
0
  5
27BDE
 10
99.9839
 20
239.686
 30
0.000000
  70
    32
  0
VERTEX
  8
0
  5
27BDF
 10
99.8205
 20
239.617
 30
0.000000
  70
    32
  0
VERTEX
  8
0
  5
27BE0
 10
99.6573
 20
239.548
 30
0.000000
  70
    32
  0
VERTEX
  8
0
  5
27BE1
 10
99.4944
 20
239.478
 30
0.000000
  70
    32
  0
VERTEX
  8
0
  5
27BE2
 10
99.3316
 20
239.407
 30
0.000000
  70
    32
  0
VERTEX
  8
0
  5
27BE3
 10
99.1691
 20
239.335
 30
0.000000
  70
    32
  0
VERTEX
  8
0
  5
27BE4
 10
99.0068
 20
239.263
 30
0.000000
  70
    32
  0
VERTEX
  8
0
  5
27BE5
 10
98.8447
 20
239.189
 30
0.000000
  70
    32
  0
VERTEX
  8
0
  5
27BE6
 10
98.6829
 20
239.115
 30
0.000000
  70
    32
  0
VERTEX
  8
0
  5
27BE7
 10
98.5213
 20
239.040
 30
0.000000
  70
    32
  0
VERTEX
  8
0
  5
27BE8
 10
98.3599
 20
238.965
 30
0.000000
  70
    32
  0
VERTEX
  8
0
  5
27BE9
 10
98.1987
 20
238.888
 30
0.000000
  70
    32
  0
VERTEX
  8
0
  5
27BEA
 10
98.0378
 20
238.811
 30
0.000000
  70
    32
  0
VERTEX
  8
0
  5
27BEB
 10
97.8771
 20
238.733
 30
0.000000
  70
    32
  0
VERTEX
  8
0
  5
27BEC
 10
97.7167
 20
238.654
 30
0.000000
  70
    32
  0
VERTEX
  8
0
  5
27BED
 10
97.5565
 20
238.575
 30
0.000000
  70
    32
  0
VERTEX
  8
0
  5
27BEE
 10
97.3966
 20
238.494
 30
0.000000
  70
    32
  0
VERTEX
  8
0
  5
27BEF
 10
97.2369
 20
238.413
 30
0.000000
  70
    32
  0
VERTEX
  8
0
  5
27BF0
 10
97.0775
 20
238.331
 30
0.000000
  70
    32
  0
VERTEX
  8
0
  5
27BF1
 10
96.9183
 20
238.249
 30
0.000000
  70
    32
  0
VERTEX
  8
0
  5
27BF2
 10
96.7594
 20
238.165
 30
0.000000
  70
    32
  0
VERTEX
  8
0
  5
27BF3
 10
96.6007
 20
238.081
 30
0.000000
  70
    32
  0
VERTEX
  8
0
  5
27BF4
 10
96.4423
 20
237.996
 30
0.000000
  70
    32
  0
VERTEX
  8
0
  5
27BF5
 10
96.2842
 20
237.910
 30
0.000000
  70
    32
  0
VERTEX
  8
0
  5
27BF6
 10
96.1263
 20
237.824
 30
0.000000
  70
    32
  0
VERTEX
  8
0
  5
27BF7
 10
95.9687
 20
237.736
 30
0.000000
  70
    32
  0
VERTEX
  8
0
  5
27BF8
 10
95.8114
 20
237.648
 30
0.000000
  70
    32
  0
VERTEX
  8
0
  5
27BF9
 10
95.6543
 20
237.559
 30
0.000000
  70
    32
  0
VERTEX
  8
0
  5
27BFA
 10
95.4975
 20
237.470
 30
0.000000
  70
    32
  0
VERTEX
  8
0
  5
27BFB
 10
95.3410
 20
237.379
 30
0.000000
  70
    32
  0
VERTEX
  8
0
  5
27BFC
 10
95.1848
 20
237.288
 30
0.000000
  70
    32
  0
VERTEX
  8
0
  5
27BFD
 10
95.0289
 20
237.196
 30
0.000000
  70
    32
  0
VERTEX
  8
0
  5
27BFE
 10
94.8732
 20
237.103
 30
0.000000
  70
    32
  0
VERTEX
  8
0
  5
27BFF
 10
94.7179
 20
237.010
 30
0.000000
  70
    32
  0
VERTEX
  8
0
  5
27C00
 10
94.5628
 20
236.916
 30
0.000000
  70
    32
  0
VERTEX
  8
0
  5
27C01
 10
94.4080
 20
236.821
 30
0.000000
  70
    32
  0
VERTEX
  8
0
  5
27C02
 10
94.2535
 20
236.725
 30
0.000000
  70
    32
  0
VERTEX
  8
0
  5
27C03
 10
94.0993
 20
236.629
 30
0.000000
  70
    32
  0
VERTEX
  8
0
  5
27C04
 10
93.9454
 20
236.531
 30
0.000000
  70
    32
  0
VERTEX
  8
0
  5
27C05
 10
93.7919
 20
236.433
 30
0.000000
  70
    32
  0
VERTEX
  8
0
  5
27C06
 10
93.6386
 20
236.335
 30
0.000000
  70
    32
  0
VERTEX
  8
0
  5
27C07
 10
93.4856
 20
236.235
 30
0.000000
  70
    32
  0
VERTEX
  8
0
  5
27C08
 10
93.3329
 20
236.135
 30
0.000000
  70
    32
  0
VERTEX
  8
0
  5
27C09
 10
93.1806
 20
236.034
 30
0.000000
  70
    32
  0
VERTEX
  8
0
  5
27C0A
 10
93.0285
 20
235.932
 30
0.000000
  70
    32
  0
VERTEX
  8
0
  5
27C0B
 10
92.8768
 20
235.830
 30
0.000000
  70
    32
  0
VERTEX
  8
0
  5
27C0C
 10
92.7254
 20
235.726
 30
0.000000
  70
    32
  0
VERTEX
  8
0
  5
27C0D
 10
92.5743
 20
235.623
 30
0.000000
  70
    32
  0
VERTEX
  8
0
  5
27C0E
 10
92.4236
 20
235.518
 30
0.000000
  70
    32
  0
VERTEX
  8
0
  5
27C0F
 10
92.2731
 20
235.412
 30
0.000000
  70
    32
  0
VERTEX
  8
0
  5
27C10
 10
92.1230
 20
235.306
 30
0.000000
  70
    32
  0
VERTEX
  8
0
  5
27C11
 10
91.9732
 20
235.199
 30
0.000000
  70
    32
  0
VERTEX
  8
0
  5
27C12
 10
91.8238
 20
235.092
 30
0.000000
  70
    32
  0
VERTEX
  8
0
  5
27C13
 10
91.6747
 20
234.983
 30
0.000000
  70
    32
  0
VERTEX
  8
0
  5
27C14
 10
91.5259
 20
234.874
 30
0.000000
  70
    32
  0
VERTEX
  8
0
  5
27C15
 10
91.3774
 20
234.765
 30
0.000000
  70
    32
  0
VERTEX
  8
0
  5
27C16
 10
91.2293
 20
234.654
 30
0.000000
  70
    32
  0
VERTEX
  8
0
  5
27C17
 10
91.0816
 20
234.543
 30
0.000000
  70
    32
  0
VERTEX
  8
0
  5
27C18
 10
90.9342
 20
234.431
 30
0.000000
  70
    32
  0
VERTEX
  8
0
  5
27C19
 10
90.7871
 20
234.318
 30
0.000000
  70
    32
  0
VERTEX
  8
0
  5
27C1A
 10
90.6404
 20
234.205
 30
0.000000
  70
    32
  0
VERTEX
  8
0
  5
27C1B
 10
90.4940
 20
234.091
 30
0.000000
  70
    32
  0
VERTEX
  8
0
  5
27C1C
 10
90.3480
 20
233.976
 30
0.000000
  70
    32
  0
VERTEX
  8
0
  5
27C1D
 10
90.2024
 20
233.860
 30
0.000000
  70
    32
  0
VERTEX
  8
0
  5
27C1E
 10
90.0571
 20
233.744
 30
0.000000
  70
    32
  0
VERTEX
  8
0
  5
27C1F
 10
89.9122
 20
233.627
 30
0.000000
  70
    32
  0
VERTEX
  8
0
  5
27C20
 10
89.7676
 20
233.509
 30
0.000000
  70
    32
  0
VERTEX
  8
0
  5
27C21
 10
89.6234
 20
233.391
 30
0.000000
  70
    32
  0
VERTEX
  8
0
  5
27C22
 10
89.4796
 20
233.272
 30
0.000000
  70
    32
  0
VERTEX
  8
0
  5
27C23
 10
89.3361
 20
233.152
 30
0.000000
  70
    32
  0
VERTEX
  8
0
  5
27C24
 10
89.1930
 20
233.032
 30
0.000000
  70
    32
  0
VERTEX
  8
0
  5
27C25
 10
89.0503
 20
232.911
 30
0.000000
  70
    32
  0
VERTEX
  8
0
  5
27C26
 10
88.9079
 20
232.789
 30
0.000000
  70
    32
  0
VERTEX
  8
0
  5
27C27
 10
88.7660
 20
232.666
 30
0.000000
  70
    32
  0
VERTEX
  8
0
  5
27C28
 10
88.6244
 20
232.543
 30
0.000000
  70
    32
  0
VERTEX
  8
0
  5
27C29
 10
88.4832
 20
232.419
 30
0.000000
  70
    32
  0
VERTEX
  8
0
  5
27C2A
 10
88.3424
 20
232.294
 30
0.000000
  70
    32
  0
VERTEX
  8
0
  5
27C2B
 10
88.2019
 20
232.169
 30
0.000000
  70
    32
  0
VERTEX
  8
0
  5
27C2C
 10
88.0619
 20
232.043
 30
0.000000
  70
    32
  0
VERTEX
  8
0
  5
27C2D
 10
87.9222
 20
231.916
 30
0.000000
  70
    32
  0
VERTEX
  8
0
  5
27C2E
 10
87.7830
 20
231.789
 30
0.000000
  70
    32
  0
VERTEX
  8
0
  5
27C2F
 10
87.6441
 20
231.661
 30
0.000000
  70
    32
  0
VERTEX
  8
0
  5
27C30
 10
87.5056
 20
231.532
 30
0.000000
  70
    32
  0
VERTEX
  8
0
  5
27C31
 10
87.3676
 20
231.403
 30
0.000000
  70
    32
  0
VERTEX
  8
0
  5
27C32
 10
87.2299
 20
231.273
 30
0.000000
  70
    32
  0
VERTEX
  8
0
  5
27C33
 10
87.0926
 20
231.142
 30
0.000000
  70
    32
  0
VERTEX
  8
0
  5
27C34
 10
86.9558
 20
231.010
 30
0.000000
  70
    32
  0
VERTEX
  8
0
  5
27C35
 10
86.8193
 20
230.878
 30
0.000000
  70
    32
  0
VERTEX
  8
0
  5
27C36
 10
86.6833
 20
230.746
 30
0.000000
  70
    32
  0
VERTEX
  8
0
  5
27C37
 10
86.5477
 20
230.612
 30
0.000000
  70
    32
  0
VERTEX
  8
0
  5
27C38
 10
86.4125
 20
230.478
 30
0.000000
  70
    32
  0
VERTEX
  8
0
  5
27C39
 10
86.2777
 20
230.343
 30
0.000000
  70
    32
  0
VERTEX
  8
0
  5
27C3A
 10
86.1433
 20
230.208
 30
0.000000
  70
    32
  0
VERTEX
  8
0
  5
27C3B
 10
86.0093
 20
230.072
 30
0.000000
  70
    32
  0
VERTEX
  8
0
  5
27C3C
 10
85.8758
 20
229.935
 30
0.000000
  70
    32
  0
VERTEX
  8
0
  5
27C3D
 10
85.7427
 20
229.798
 30
0.000000
  70
    32
  0
VERTEX
  8
0
  5
27C3E
 10
85.6100
 20
229.660
 30
0.000000
  70
    32
  0
VERTEX
  8
0
  5
27C3F
 10
85.4777
 20
229.521
 30
0.000000
  70
    32
  0
VERTEX
  8
0
  5
27C40
 10
85.3459
 20
229.382
 30
0.000000
  70
    32
  0
VERTEX
  8
0
  5
27C41
 10
85.2145
 20
229.242
 30
0.000000
  70
    32
  0
VERTEX
  8
0
  5
27C42
 10
85.0835
 20
229.101
 30
0.000000
  70
    32
  0
VERTEX
  8
0
  5
27C43
 10
84.9530
 20
228.960
 30
0.000000
  70
    32
  0
VERTEX
  8
0
  5
27C44
 10
84.8229
 20
228.818
 30
0.000000
  70
    32
  0
VERTEX
  8
0
  5
27C45
 10
84.6933
 20
228.676
 30
0.000000
  70
    32
  0
VERTEX
  8
0
  5
27C46
 10
84.5641
 20
228.533
 30
0.000000
  70
    32
  0
VERTEX
  8
0
  5
27C47
 10
84.4353
 20
228.389
 30
0.000000
  70
    32
  0
VERTEX
  8
0
  5
27C48
 10
84.3070
 20
228.244
 30
0.000000
  70
    32
  0
VERTEX
  8
0
  5
27C49
 10
84.1791
 20
228.099
 30
0.000000
  70
    32
  0
VERTEX
  8
0
  5
27C4A
 10
84.0517
 20
227.954
 30
0.000000
  70
    32
  0
VERTEX
  8
0
  5
27C4B
 10
83.9247
 20
227.807
 30
0.000000
  70
    32
  0
SEQEND
  8
0
  5
27C4C
  0
LINE
  5
277D9
  8
0
 10
154.0969670703393
 20
160.01929079951969
 30
0.0
 11
147.12473456766429
 21
160.01929079951969
 31
0.0
  0
LINE
  5
277DA
  8
0
 10
154.0969670703393
 20
165.50411835682149
 30
0.0
 11
147.12473456766429
 21
165.50411835682149
 31
0.0
  0
ARC
  5
277DB
  8
0
 10
144.5161304483413
 20
162.76170457817059
 30
0.0
 40
9.9656040314047871
 50
344.02678711914979
 51
15.97321288085022
  0
LINE
  5
277DC
  8
0
 10
154.0969670703393
 20
149.04963568491709
 30
0.0
 11
147.12473456766429
 21
149.04963568491709
 31
0.0
  0
ARC
  5
277DD
  8
0
 10
115.2204320423529
 20
154.53446324221821
 30
0.0
 40
39.261537273973232
 50
351.96952664059751
 51
8.0304733594024835
  0
LINE
  5
277DE
  8
0
 10
154.0969670703393
 20
143.56480812761541
 30
0.0
 11
147.12473456766429
 21
143.56480812761541
 31
0.0
  0
ARC
  5
277DF
  8
0
 10
144.58697203510059
 20
146.30722190626631
 30
0.0
 40
9.8975168049169255
 50
343.91393380933232
 51
16.086066190667609
  0
LINE
  5
277E1
  8
0
 10
154.62473456766429
 20
163.53446324221841
 30
0.0
 11
154.62473456766429
 21
145.53446324221841
 31
0.0
  0
LINE
  5
277E2
  8
0
 10
70.993378663205021
 20
159.53575994907351
 30
0.0
 11
70.724734567664655
 21
160.8156407417014
 31
0.0
  0
LINE
  5
277E3
  8
0
 10
70.724734567664655
 20
156.9759983638171
 30
0.0
 11
70.993378663205021
 21
159.53575994907351
 31
0.0
  0
LINE
  5
277E5
  8
0
 10
80.456090472124274
 20
164.53705665592841
 30
0.0
 11
80.724734567664655
 21
163.2571758633008
 31
0.0
  0
LINE
  5
277E6
  8
0
 10
80.724734567664655
 20
160.8156407417014
 30
0.0
 11
80.456090472124274
 21
159.53575994907351
 31
0.0
  0
LINE
  5
277E7
  8
0
 10
70.993378663205021
 20
159.53575994907351
 30
0.0
 11
80.456090472124274
 21
159.53575994907351
 31
0.0
  0
LINE
  5
277E9
  8
0
 10
70.724734567664655
 20
163.2571758633008
 30
0.0
 11
70.993378663205021
 21
164.53705665592841
 31
0.0
  0
LINE
  5
277EA
  8
0
 10
70.993378663205021
 20
164.53705665592841
 30
0.0
 11
80.456090472124274
 21
164.53705665592841
 31
0.0
  0
POLYLINE
  5
277EB
  8
0
 66
     1
 10
0.0
 20
0.0
 30
0.0
 70
   128
  0
VERTEX
  5
27A29
  8
0
 10
70.993378663205021
 20
149.53316653536311
 30
0.0
  0
VERTEX
  5
27A2A
  8
0
 10
70.824048705719633
 20
150.96093709377041
 30
0.0
  0
VERTEX
  5
27A2B
  8
0
 10
70.724734567664655
 20
152.09292812061949
 30
0.0
  0
SEQEND
  5
27A2C
  8
0
  0
LINE
  5
277EC
  8
0
 10
70.724734567664655
 20
148.2532857427353
 30
0.0
 11
70.993378663205021
 21
149.53316653536311
 31
0.0
  0
LINE
  5
277EE
  8
0
 10
80.456090472124274
 20
149.53316653536311
 30
0.0
 11
80.724734567664655
 21
148.2532857427353
 31
0.0
  0
LINE
  5
277EF
  8
0
 10
80.724734567664655
 20
145.8117506211361
 30
0.0
 11
80.456090472124274
 21
144.53186982850869
 31
0.0
  0
LINE
  5
277F0
  8
0
 10
70.993378663205021
 20
144.53186982850869
 30
0.0
 11
80.456090472124274
 21
144.53186982850869
 31
0.0
  0
LINE
  5
277F1
  8
0
 10
70.993378663205021
 20
144.53186982850869
 30
0.0
 11
70.724734567664655
 21
145.8117506211361
 31
0.0
  0
LINE
  5
277F2
  8
0
 10
70.993378663205021
 20
149.53316653536311
 30
0.0
 11
80.456090472124274
 21
149.53316653536311
 31
0.0
  0
LINE
  5
277F3
  8
0
 10
70.724734567664655
 20
145.8117506211361
 30
0.0
 11
70.724734567664655
 21
163.53446324221841
 31
0.0
  0
LINE
  5
277F4
  8
0
 10
80.456090472124274
 20
159.53575994907351
 30
0.0
 11
80.724734567664655
 21
156.9759983638171
 31
0.0
  0
POLYLINE
  5
277F5
  8
0
 66
     1
 10
0.0
 20
0.0
 30
0.0
 70
   128
  0
VERTEX
  5
27A2D
  8
0
 10
80.724734567664655
 20
152.09292812061949
 30
0.0
  0
VERTEX
  5
27A2E
  8
0
 10
80.508602890795828
 20
149.9376404563516
 30
0.0
  0
VERTEX
  5
27A2F
  8
0
 10
80.456090472124274
 20
149.53316653536311
 30
0.0
  0
SEQEND
  5
27A30
  8
0
  0
LINE
  5
277F6
  8
0
 10
70.724734567664655
 20
152.09292812061949
 30
0.0
 11
70.724734567664655
 21
156.9759983638171
 31
0.0
  0
LINE
  5
277F8
  8
0
 10
70.724734567664655
 20
145.8117506211361
 30
0.0
 11
70.724734567664655
 21
145.53446324221841
 31
0.0
  0
LINE
  5
277FA
  8
0
 10
91.424734567665382
 20
84.47199111911965
 30
0.0
 11
91.424734567665382
 21
224.59693536531731
 31
0.0
  0
LINE
  5
277FC
  8
0
 10
136.42473456766581
 20
84.471991119119537
 30
0.0
 11
136.42473456766541
 21
224.59693536531731
 31
0.0
  0
LINE
  5
277FE
  8
0
 10
84.424734567665155
 20
133.97954623493499
 30
0.0
 11
84.424734567665382
 21
175.08938024950251
 31
0.0
  0
LINE
  5
27800
  8
0
 10
143.42473456766561
 20
133.97954623493479
 30
0.0
 11
143.42473456766439
 21
175.08938024950251
 31
0.0
  0
LINE
  5
27807
  8
0
 10
86.250423082170315
 20
131.98715683875139
 30
0.0
 11
86.250423082169164
 21
177.08176964568571
 31
0.0
  0
LINE
  5
27809
  8
0
 10
141.59904605315981
 20
131.9871568387513
 30
0.0
 11
141.59904605315981
 21
177.08176964568571
 31
0.0
  0
LINE
  5
2780B
  8
0
 10
649.54384161631015
 20
259.5344632422312
 30
0.0
 11
649.54384161631015
 21
255.73446324221831
 31
0.0
  0
LINE
  5
2780C
  8
0
 10
751.54384161631106
 20
255.73446324221831
 30
0.0
 11
751.54384161631106
 21
259.5344632422312
 31
0.0
  0
ARC
  5
2780D
  8
0
 10
653.54384161629741
 20
259.5344632422312
 30
0.0
 40
3.9999999999871241
 50
90.0
 51
180.0
  0
ARC
  5
2780E
  8
0
 10
747.54384161632368
 20
259.5344632422312
 30
0.0
 40
3.9999999999871241
 50
0.0
 51
90.0
  0
LINE
  5
2780F
  8
0
 10
653.04384161631015
 20
255.73446324221831
 30
0.0
 11
653.04384161631015
 21
186.8509471833932
 31
0.0
  0
LINE
  5
27810
  8
0
 10
748.04384161631015
 20
186.8509471833932
 30
0.0
 11
748.04384161631015
 21
255.73446324221831
 31
0.0
  0
ARC
  5
27811
  8
0
 10
666.54384161631106
 20
259.40946324221841
 30
0.0
 40
8.1249999999999343
 50
90.0
 51
149.48976259388289
  0
ARC
  5
27812
  8
0
 10
734.54384161631015
 20
259.40946324221841
 30
0.0
 40
8.1249999999999343
 50
30.510237406117071
 51
90.0
  0
LINE
  5
27813
  8
0
 10
734.54384161631015
 20
267.53446324221852
 30
0.0
 11
666.54384161631106
 21
267.53446324221852
 31
0.0
  0
LINE
  5
27814
  8
0
 10
670.54384161631015
 20
144.53446324221841
 30
0.0
 11
671.04384161631015
 21
144.53446324221841
 31
0.0
  0
LINE
  5
27816
  8
0
 10
730.54384161631015
 20
164.53446324221821
 30
0.0
 11
730.04384161631106
 21
164.53446324221821
 31
0.0
  0
LINE
  5
27817
  8
0
 10
671.04384161631015
 20
164.53446324221841
 30
0.0
 11
670.54384161631015
 21
164.53446324221841
 31
0.0
  0
LINE
  5
27818
  8
0
 10
659.84384161631033
 20
145.53446324221841
 30
0.0
 11
660.37160911363605
 21
143.56480812761541
 31
0.0
  0
LINE
  5
2781B
  8
0
 10
743.47519752077051
 20
144.53186982850869
 30
0.0
 11
743.74384161631076
 21
145.53446324221841
 31
0.0
  0
LINE
  5
2781C
  8
0
 10
733.74384161631076
 20
145.53446324221841
 30
0.0
 11
734.01248571185124
 21
144.53186982850869
 31
0.0
  0
ARC
  5
2781D
  8
0
 10
700.54384161631015
 20
154.53446324221821
 30
0.0
 40
74.999999999994657
 50
253.69073455359481
 51
286.30926544641881
  0
ARC
  5
2781E
  8
0
 10
700.54384161631015
 20
154.53446324221821
 30
0.0
 40
74.999999999994927
 50
73.690734553594751
 51
106.30926544640521
  0
ARC
  5
2781F
  8
0
 10
721.04384161631106
 20
224.59693536531731
 30
0.0
 40
1.9999999999994911
 50
0.0000000000065138
 51
73.690734553615115
  0
ARC
  5
27820
  8
0
 10
721.04384161631106
 20
84.47199111911965
 30
0.0
 40
1.9999999999994911
 50
286.30926544638493
 51
359.99999999999682
  0
ARC
  5
27821
  8
0
 10
680.04384161630924
 20
224.59693536531731
 30
0.0
 40
1.9999999999994711
 50
106.3092654463849
 51
179.99999999999349
  0
ARC
  5
27822
  8
0
 10
680.04384161630924
 20
84.47199111911965
 30
0.0
 40
1.9999999999994711
 50
180.00000000000651
 51
253.6907345536151
  0
LINE
  5
27823
  8
0
 10
723.04384161631015
 20
131.53446324221869
 30
0.0
 11
728.21815310180546
 21
131.98715683875139
 31
0.0
  0
LINE
  5
27824
  8
0
 10
728.21815310180546
 20
177.08176964568571
 30
0.0
 11
723.04384161631015
 21
177.53446324221841
 31
0.0
  0
LINE
  5
27825
  8
0
 10
678.04384161631015
 20
177.53446324221841
 30
0.0
 11
672.86953013081575
 21
177.08176964568571
 31
0.0
  0
LINE
  5
27826
  8
0
 10
672.86953013081575
 20
131.98715683875139
 30
0.0
 11
678.04384161631015
 21
131.53446324221869
 31
0.0
  0
ARC
  5
27827
  8
0
 10
728.04384161631015
 20
175.0893802495016
 30
0.0
 40
2.0000000000001741
 50
0.0000000000065138
 51
85.00000000000675
  0
ARC
  5
27828
  8
0
 10
728.04384161631015
 20
133.97954623493499
 30
0.0
 40
2.0000000000001741
 50
274.99999999999329
 51
359.99999999999352
  0
ARC
  5
27829
  8
0
 10
673.04384161631015
 20
175.0893802495016
 30
0.0
 40
2.0000000000001741
 50
94.999999999986713
 51
179.99999999999349
  0
ARC
  5
2782A
  8
0
 10
673.04384161631015
 20
133.97954623493499
 30
0.0
 40
2.0000000000001741
 50
180.00000000000651
 51
265.00000000000671
  0
LINE
  5
2782B
  8
0
 10
649.54384161631015
 20
255.73446324221831
 30
0.0
 11
751.54384161631106
 21
255.73446324221831
 31
0.0
  0
LINE
  5
2782C
  8
0
 10
653.54384161629741
 20
263.53446324221852
 30
0.0
 11
747.54384161632368
 21
263.53446324221852
 31
0.0
  0
POLYLINE
  5
2782D
  8
0
 10
736.8103612975724
 20
148.30726595209984
 30
0.0
 66
     1
 70
     8
  0
VERTEX
  8
0
  5
27C4D
 10
736.810
 20
148.307
 30
0.000000
  70
    32
  0
VERTEX
  8
0
  5
27C4E
 10
737.877
 20
149.950
 30
0.000000
  70
    32
  0
VERTEX
  8
0
  5
27C4F
 10
738.896
 20
151.638
 30
0.000000
  70
    32
  0
VERTEX
  8
0
  5
27C50
 10
739.867
 20
153.372
 30
0.000000
  70
    32
  0
VERTEX
  8
0
  5
27C51
 10
740.788
 20
155.147
 30
0.000000
  70
    32
  0
VERTEX
  8
0
  5
27C52
 10
741.659
 20
156.962
 30
0.000000
  70
    32
  0
VERTEX
  8
0
  5
27C53
 10
742.477
 20
158.816
 30
0.000000
  70
    32
  0
VERTEX
  8
0
  5
27C54
 10
743.243
 20
160.704
 30
0.000000
  70
    32
  0
VERTEX
  8
0
  5
27C55
 10
743.955
 20
162.625
 30
0.000000
  70
    32
  0
VERTEX
  8
0
  5
27C56
 10
744.612
 20
164.577
 30
0.000000
  70
    32
  0
VERTEX
  8
0
  5
27C57
 10
745.214
 20
166.557
 30
0.000000
  70
    32
  0
VERTEX
  8
0
  5
27C58
 10
745.759
 20
168.563
 30
0.000000
  70
    32
  0
VERTEX
  8
0
  5
27C59
 10
746.247
 20
170.592
 30
0.000000
  70
    32
  0
VERTEX
  8
0
  5
27C5A
 10
746.678
 20
172.641
 30
0.000000
  70
    32
  0
VERTEX
  8
0
  5
27C5B
 10
747.050
 20
174.708
 30
0.000000
  70
    32
  0
VERTEX
  8
0
  5
27C5C
 10
747.364
 20
176.791
 30
0.000000
  70
    32
  0
VERTEX
  8
0
  5
27C5D
 10
747.619
 20
178.886
 30
0.000000
  70
    32
  0
VERTEX
  8
0
  5
27C5E
 10
747.814
 20
180.991
 30
0.000000
  70
    32
  0
VERTEX
  8
0
  5
27C5F
 10
747.950
 20
183.104
 30
0.000000
  70
    32
  0
VERTEX
  8
0
  5
27C60
 10
748.026
 20
185.221
 30
0.000000
  70
    32
  0
VERTEX
  8
0
  5
27C61
 10
748.042
 20
187.340
 30
0.000000
  70
    32
  0
VERTEX
  8
0
  5
27C62
 10
747.998
 20
189.459
 30
0.000000
  70
    32
  0
VERTEX
  8
0
  5
27C63
 10
747.895
 20
191.575
 30
0.000000
  70
    32
  0
VERTEX
  8
0
  5
27C64
 10
747.732
 20
193.684
 30
0.000000
  70
    32
  0
VERTEX
  8
0
  5
27C65
 10
747.509
 20
195.785
 30
0.000000
  70
    32
  0
VERTEX
  8
0
  5
27C66
 10
747.227
 20
197.875
 30
0.000000
  70
    32
  0
VERTEX
  8
0
  5
27C67
 10
746.886
 20
199.950
 30
0.000000
  70
    32
  0
VERTEX
  8
0
  5
27C68
 10
746.486
 20
202.009
 30
0.000000
  70
    32
  0
VERTEX
  8
0
  5
27C69
 10
746.029
 20
204.050
 30
0.000000
  70
    32
  0
VERTEX
  8
0
  5
27C6A
 10
745.514
 20
206.068
 30
0.000000
  70
    32
  0
VERTEX
  8
0
  5
27C6B
 10
744.943
 20
208.062
 30
0.000000
  70
    32
  0
VERTEX
  8
0
  5
27C6C
 10
744.316
 20
210.029
 30
0.000000
  70
    32
  0
VERTEX
  8
0
  5
27C6D
 10
743.633
 20
211.968
 30
0.000000
  70
    32
  0
VERTEX
  8
0
  5
27C6E
 10
742.896
 20
213.874
 30
0.000000
  70
    32
  0
VERTEX
  8
0
  5
27C6F
 10
742.106
 20
215.747
 30
0.000000
  70
    32
  0
VERTEX
  8
0
  5
27C70
 10
741.263
 20
217.583
 30
0.000000
  70
    32
  0
VERTEX
  8
0
  5
27C71
 10
740.369
 20
219.380
 30
0.000000
  70
    32
  0
VERTEX
  8
0
  5
27C72
 10
739.425
 20
221.136
 30
0.000000
  70
    32
  0
VERTEX
  8
0
  5
27C73
 10
738.431
 20
222.849
 30
0.000000
  70
    32
  0
VERTEX
  8
0
  5
27C74
 10
737.390
 20
224.517
 30
0.000000
  70
    32
  0
VERTEX
  8
0
  5
27C75
 10
736.302
 20
226.137
 30
0.000000
  70
    32
  0
VERTEX
  8
0
  5
27C76
 10
735.170
 20
227.707
 30
0.000000
  70
    32
  0
VERTEX
  8
0
  5
27C77
 10
733.993
 20
229.226
 30
0.000000
  70
    32
  0
VERTEX
  8
0
  5
27C78
 10
732.775
 20
230.692
 30
0.000000
  70
    32
  0
VERTEX
  8
0
  5
27C79
 10
731.516
 20
232.102
 30
0.000000
  70
    32
  0
VERTEX
  8
0
  5
27C7A
 10
730.217
 20
233.455
 30
0.000000
  70
    32
  0
VERTEX
  8
0
  5
27C7B
 10
728.882
 20
234.750
 30
0.000000
  70
    32
  0
VERTEX
  8
0
  5
27C7C
 10
727.510
 20
235.984
 30
0.000000
  70
    32
  0
VERTEX
  8
0
  5
27C7D
 10
726.105
 20
237.156
 30
0.000000
  70
    32
  0
VERTEX
  8
0
  5
27C7E
 10
724.667
 20
238.265
 30
0.000000
  70
    32
  0
VERTEX
  8
0
  5
27C7F
 10
723.199
 20
239.308
 30
0.000000
  70
    32
  0
VERTEX
  8
0
  5
27C80
 10
721.703
 20
240.286
 30
0.000000
  70
    32
  0
VERTEX
  8
0
  5
27C81
 10
720.179
 20
241.196
 30
0.000000
  70
    32
  0
VERTEX
  8
0
  5
27C82
 10
718.631
 20
242.038
 30
0.000000
  70
    32
  0
VERTEX
  8
0
  5
27C83
 10
717.060
 20
242.810
 30
0.000000
  70
    32
  0
VERTEX
  8
0
  5
27C84
 10
715.469
 20
243.512
 30
0.000000
  70
    32
  0
VERTEX
  8
0
  5
27C85
 10
713.858
 20
244.142
 30
0.000000
  70
    32
  0
VERTEX
  8
0
  5
27C86
 10
712.231
 20
244.700
 30
0.000000
  70
    32
  0
VERTEX
  8
0
  5
27C87
 10
710.589
 20
245.185
 30
0.000000
  70
    32
  0
VERTEX
  8
0
  5
27C88
 10
708.934
 20
245.596
 30
0.000000
  70
    32
  0
VERTEX
  8
0
  5
27C89
 10
707.269
 20
245.933
 30
0.000000
  70
    32
  0
VERTEX
  8
0
  5
27C8A
 10
705.595
 20
246.196
 30
0.000000
  70
    32
  0
VERTEX
  8
0
  5
27C8B
 10
703.915
 20
246.384
 30
0.000000
  70
    32
  0
VERTEX
  8
0
  5
27C8C
 10
702.230
 20
246.497
 30
0.000000
  70
    32
  0
VERTEX
  8
0
  5
27C8D
 10
700.544
 20
246.534
 30
0.000000
  70
    32
  0
VERTEX
  8
0
  5
27C8E
 10
698.857
 20
246.497
 30
0.000000
  70
    32
  0
VERTEX
  8
0
  5
27C8F
 10
697.173
 20
246.384
 30
0.000000
  70
    32
  0
VERTEX
  8
0
  5
27C90
 10
695.493
 20
246.196
 30
0.000000
  70
    32
  0
VERTEX
  8
0
  5
27C91
 10
693.819
 20
245.933
 30
0.000000
  70
    32
  0
VERTEX
  8
0
  5
27C92
 10
692.154
 20
245.596
 30
0.000000
  70
    32
  0
VERTEX
  8
0
  5
27C93
 10
690.499
 20
245.185
 30
0.000000
  70
    32
  0
VERTEX
  8
0
  5
27C94
 10
688.857
 20
244.700
 30
0.000000
  70
    32
  0
VERTEX
  8
0
  5
27C95
 10
687.230
 20
244.142
 30
0.000000
  70
    32
  0
VERTEX
  8
0
  5
27C96
 10
685.619
 20
243.512
 30
0.000000
  70
    32
  0
VERTEX
  8
0
  5
27C97
 10
684.027
 20
242.810
 30
0.000000
  70
    32
  0
VERTEX
  8
0
  5
27C98
 10
682.456
 20
242.038
 30
0.000000
  70
    32
  0
VERTEX
  8
0
  5
27C99
 10
680.908
 20
241.196
 30
0.000000
  70
    32
  0
VERTEX
  8
0
  5
27C9A
 10
679.385
 20
240.286
 30
0.000000
  70
    32
  0
VERTEX
  8
0
  5
27C9B
 10
677.888
 20
239.308
 30
0.000000
  70
    32
  0
VERTEX
  8
0
  5
27C9C
 10
676.420
 20
238.265
 30
0.000000
  70
    32
  0
VERTEX
  8
0
  5
27C9D
 10
674.983
 20
237.156
 30
0.000000
  70
    32
  0
VERTEX
  8
0
  5
27C9E
 10
673.577
 20
235.984
 30
0.000000
  70
    32
  0
VERTEX
  8
0
  5
27C9F
 10
672.206
 20
234.750
 30
0.000000
  70
    32
  0
VERTEX
  8
0
  5
27CA0
 10
670.870
 20
233.455
 30
0.000000
  70
    32
  0
VERTEX
  8
0
  5
27CA1
 10
669.572
 20
232.102
 30
0.000000
  70
    32
  0
VERTEX
  8
0
  5
27CA2
 10
668.313
 20
230.692
 30
0.000000
  70
    32
  0
VERTEX
  8
0
  5
27CA3
 10
667.094
 20
229.226
 30
0.000000
  70
    32
  0
VERTEX
  8
0
  5
27CA4
 10
665.918
 20
227.707
 30
0.000000
  70
    32
  0
VERTEX
  8
0
  5
27CA5
 10
664.785
 20
226.137
 30
0.000000
  70
    32
  0
VERTEX
  8
0
  5
27CA6
 10
663.698
 20
224.517
 30
0.000000
  70
    32
  0
VERTEX
  8
0
  5
27CA7
 10
662.656
 20
222.849
 30
0.000000
  70
    32
  0
VERTEX
  8
0
  5
27CA8
 10
661.663
 20
221.136
 30
0.000000
  70
    32
  0
VERTEX
  8
0
  5
27CA9
 10
660.719
 20
219.380
 30
0.000000
  70
    32
  0
VERTEX
  8
0
  5
27CAA
 10
659.825
 20
217.583
 30
0.000000
  70
    32
  0
VERTEX
  8
0
  5
27CAB
 10
658.982
 20
215.747
 30
0.000000
  70
    32
  0
VERTEX
  8
0
  5
27CAC
 10
658.192
 20
213.874
 30
0.000000
  70
    32
  0
VERTEX
  8
0
  5
27CAD
 10
657.455
 20
211.968
 30
0.000000
  70
    32
  0
VERTEX
  8
0
  5
27CAE
 10
656.772
 20
210.029
 30
0.000000
  70
    32
  0
VERTEX
  8
0
  5
27CAF
 10
656.145
 20
208.062
 30
0.000000
  70
    32
  0
VERTEX
  8
0
  5
27CB0
 10
655.573
 20
206.068
 30
0.000000
  70
    32
  0
VERTEX
  8
0
  5
27CB1
 10
655.059
 20
204.050
 30
0.000000
  70
    32
  0
VERTEX
  8
0
  5
27CB2
 10
654.601
 20
202.009
 30
0.000000
  70
    32
  0
VERTEX
  8
0
  5
27CB3
 10
654.202
 20
199.950
 30
0.000000
  70
    32
  0
VERTEX
  8
0
  5
27CB4
 10
653.861
 20
197.875
 30
0.000000
  70
    32
  0
VERTEX
  8
0
  5
27CB5
 10
653.579
 20
195.785
 30
0.000000
  70
    32
  0
VERTEX
  8
0
  5
27CB6
 10
653.356
 20
193.684
 30
0.000000
  70
    32
  0
VERTEX
  8
0
  5
27CB7
 10
653.193
 20
191.575
 30
0.000000
  70
    32
  0
VERTEX
  8
0
  5
27CB8
 10
653.089
 20
189.459
 30
0.000000
  70
    32
  0
VERTEX
  8
0
  5
27CB9
 10
653.045
 20
187.340
 30
0.000000
  70
    32
  0
VERTEX
  8
0
  5
27CBA
 10
653.062
 20
185.221
 30
0.000000
  70
    32
  0
VERTEX
  8
0
  5
27CBB
 10
653.138
 20
183.104
 30
0.000000
  70
    32
  0
VERTEX
  8
0
  5
27CBC
 10
653.273
 20
180.991
 30
0.000000
  70
    32
  0
VERTEX
  8
0
  5
27CBD
 10
653.469
 20
178.886
 30
0.000000
  70
    32
  0
VERTEX
  8
0
  5
27CBE
 10
653.724
 20
176.791
 30
0.000000
  70
    32
  0
VERTEX
  8
0
  5
27CBF
 10
654.037
 20
174.708
 30
0.000000
  70
    32
  0
VERTEX
  8
0
  5
27CC0
 10
654.410
 20
172.641
 30
0.000000
  70
    32
  0
VERTEX
  8
0
  5
27CC1
 10
654.840
 20
170.592
 30
0.000000
  70
    32
  0
VERTEX
  8
0
  5
27CC2
 10
655.329
 20
168.563
 30
0.000000
  70
    32
  0
VERTEX
  8
0
  5
27CC3
 10
655.874
 20
166.557
 30
0.000000
  70
    32
  0
VERTEX
  8
0
  5
27CC4
 10
656.476
 20
164.577
 30
0.000000
  70
    32
  0
VERTEX
  8
0
  5
27CC5
 10
657.133
 20
162.625
 30
0.000000
  70
    32
  0
VERTEX
  8
0
  5
27CC6
 10
657.845
 20
160.704
 30
0.000000
  70
    32
  0
VERTEX
  8
0
  5
27CC7
 10
658.610
 20
158.816
 30
0.000000
  70
    32
  0
VERTEX
  8
0
  5
27CC8
 10
659.429
 20
156.962
 30
0.000000
  70
    32
  0
VERTEX
  8
0
  5
27CC9
 10
660.300
 20
155.147
 30
0.000000
  70
    32
  0
VERTEX
  8
0
  5
27CCA
 10
661.221
 20
153.372
 30
0.000000
  70
    32
  0
VERTEX
  8
0
  5
27CCB
 10
662.192
 20
151.638
 30
0.000000
  70
    32
  0
VERTEX
  8
0
  5
27CCC
 10
663.211
 20
149.950
 30
0.000000
  70
    32
  0
VERTEX
  8
0
  5
27CCD
 10
664.277
 20
148.307
 30
0.000000
  70
    32
  0
SEQEND
  8
0
  5
27CCE
  0
LINE
  5
2782E
  8
0
 10
732.50476228188779
 20
148.30726595209899
 30
0.0
 11
736.8103612975724
 21
148.30726595209899
 31
0.0
  0
POLYLINE
  5
2782F
  8
0
 10
732.50476228188813
 20
148.30726595209978
 30
0.0
 66
     1
 70
     8
  0
VERTEX
  8
0
  5
27CCF
 10
732.505
 20
148.307
 30
0.000000
  70
    32
  0
VERTEX
  8
0
  5
27CD0
 10
733.603
 20
149.798
 30
0.000000
  70
    32
  0
VERTEX
  8
0
  5
27CD1
 10
734.657
 20
151.338
 30
0.000000
  70
    32
  0
VERTEX
  8
0
  5
27CD2
 10
735.665
 20
152.926
 30
0.000000
  70
    32
  0
VERTEX
  8
0
  5
27CD3
 10
736.627
 20
154.559
 30
0.000000
  70
    32
  0
VERTEX
  8
0
  5
27CD4
 10
737.541
 20
156.235
 30
0.000000
  70
    32
  0
VERTEX
  8
0
  5
27CD5
 10
738.405
 20
157.951
 30
0.000000
  70
    32
  0
VERTEX
  8
0
  5
27CD6
 10
739.219
 20
159.706
 30
0.000000
  70
    32
  0
VERTEX
  8
0
  5
27CD7
 10
739.982
 20
161.497
 30
0.000000
  70
    32
  0
VERTEX
  8
0
  5
27CD8
 10
740.692
 20
163.322
 30
0.000000
  70
    32
  0
VERTEX
  8
0
  5
27CD9
 10
741.348
 20
165.178
 30
0.000000
  70
    32
  0
VERTEX
  8
0
  5
27CDA
 10
741.950
 20
167.064
 30
0.000000
  70
    32
  0
VERTEX
  8
0
  5
27CDB
 10
742.497
 20
168.975
 30
0.000000
  70
    32
  0
VERTEX
  8
0
  5
27CDC
 10
742.988
 20
170.910
 30
0.000000
  70
    32
  0
VERTEX
  8
0
  5
27CDD
 10
743.423
 20
172.867
 30
0.000000
  70
    32
  0
VERTEX
  8
0
  5
27CDE
 10
743.801
 20
174.842
 30
0.000000
  70
    32
  0
VERTEX
  8
0
  5
27CDF
 10
744.120
 20
176.833
 30
0.000000
  70
    32
  0
VERTEX
  8
0
  5
27CE0
 10
744.382
 20
178.838
 30
0.000000
  70
    32
  0
VERTEX
  8
0
  5
27CE1
 10
744.586
 20
180.853
 30
0.000000
  70
    32
  0
VERTEX
  8
0
  5
27CE2
 10
744.731
 20
182.876
 30
0.000000
  70
    32
  0
VERTEX
  8
0
  5
27CE3
 10
744.817
 20
184.904
 30
0.000000
  70
    32
  0
VERTEX
  8
0
  5
27CE4
 10
744.844
 20
186.935
 30
0.000000
  70
    32
  0
VERTEX
  8
0
  5
27CE5
 10
744.812
 20
188.966
 30
0.000000
  70
    32
  0
VERTEX
  8
0
  5
27CE6
 10
744.721
 20
190.994
 30
0.000000
  70
    32
  0
VERTEX
  8
0
  5
27CE7
 10
744.571
 20
193.017
 30
0.000000
  70
    32
  0
VERTEX
  8
0
  5
27CE8
 10
744.363
 20
195.031
 30
0.000000
  70
    32
  0
VERTEX
  8
0
  5
27CE9
 10
744.096
 20
197.035
 30
0.000000
  70
    32
  0
VERTEX
  8
0
  5
27CEA
 10
743.771
 20
199.024
 30
0.000000
  70
    32
  0
VERTEX
  8
0
  5
27CEB
 10
743.389
 20
200.998
 30
0.000000
  70
    32
  0
VERTEX
  8
0
  5
27CEC
 10
742.950
 20
202.953
 30
0.000000
  70
    32
  0
VERTEX
  8
0
  5
27CED
 10
742.454
 20
204.886
 30
0.000000
  70
    32
  0
VERTEX
  8
0
  5
27CEE
 10
741.902
 20
206.796
 30
0.000000
  70
    32
  0
VERTEX
  8
0
  5
27CEF
 10
741.296
 20
208.679
 30
0.000000
  70
    32
  0
VERTEX
  8
0
  5
27CF0
 10
740.635
 20
210.532
 30
0.000000
  70
    32
  0
VERTEX
  8
0
  5
27CF1
 10
739.920
 20
212.355
 30
0.000000
  70
    32
  0
VERTEX
  8
0
  5
27CF2
 10
739.153
 20
214.143
 30
0.000000
  70
    32
  0
VERTEX
  8
0
  5
27CF3
 10
738.335
 20
215.895
 30
0.000000
  70
    32
  0
VERTEX
  8
0
  5
27CF4
 10
737.467
 20
217.608
 30
0.000000
  70
    32
  0
VERTEX
  8
0
  5
27CF5
 10
736.549
 20
219.280
 30
0.000000
  70
    32
  0
VERTEX
  8
0
  5
27CF6
 10
735.583
 20
220.909
 30
0.000000
  70
    32
  0
VERTEX
  8
0
  5
27CF7
 10
734.571
 20
222.493
 30
0.000000
  70
    32
  0
VERTEX
  8
0
  5
27CF8
 10
733.513
 20
224.029
 30
0.000000
  70
    32
  0
VERTEX
  8
0
  5
27CF9
 10
732.412
 20
225.516
 30
0.000000
  70
    32
  0
VERTEX
  8
0
  5
27CFA
 10
731.268
 20
226.951
 30
0.000000
  70
    32
  0
VERTEX
  8
0
  5
27CFB
 10
730.083
 20
228.333
 30
0.000000
  70
    32
  0
VERTEX
  8
0
  5
27CFC
 10
728.859
 20
229.660
 30
0.000000
  70
    32
  0
VERTEX
  8
0
  5
27CFD
 10
727.597
 20
230.929
 30
0.000000
  70
    32
  0
VERTEX
  8
0
  5
27CFE
 10
726.299
 20
232.140
 30
0.000000
  70
    32
  0
VERTEX
  8
0
  5
27CFF
 10
724.966
 20
233.291
 30
0.000000
  70
    32
  0
VERTEX
  8
0
  5
27D00
 10
723.602
 20
234.380
 30
0.000000
  70
    32
  0
VERTEX
  8
0
  5
27D01
 10
722.206
 20
235.405
 30
0.000000
  70
    32
  0
VERTEX
  8
0
  5
27D02
 10
720.782
 20
236.366
 30
0.000000
  70
    32
  0
VERTEX
  8
0
  5
27D03
 10
719.330
 20
237.261
 30
0.000000
  70
    32
  0
VERTEX
  8
0
  5
27D04
 10
717.854
 20
238.088
 30
0.000000
  70
    32
  0
VERTEX
  8
0
  5
27D05
 10
716.355
 20
238.848
 30
0.000000
  70
    32
  0
VERTEX
  8
0
  5
27D06
 10
714.834
 20
239.538
 30
0.000000
  70
    32
  0
VERTEX
  8
0
  5
27D07
 10
713.295
 20
240.158
 30
0.000000
  70
    32
  0
VERTEX
  8
0
  5
27D08
 10
711.738
 20
240.707
 30
0.000000
  70
    32
  0
VERTEX
  8
0
  5
27D09
 10
710.167
 20
241.185
 30
0.000000
  70
    32
  0
VERTEX
  8
0
  5
27D0A
 10
708.583
 20
241.590
 30
0.000000
  70
    32
  0
VERTEX
  8
0
  5
27D0B
 10
706.988
 20
241.922
 30
0.000000
  70
    32
  0
VERTEX
  8
0
  5
27D0C
 10
705.384
 20
242.180
 30
0.000000
  70
    32
  0
VERTEX
  8
0
  5
27D0D
 10
703.774
 20
242.365
 30
0.000000
  70
    32
  0
VERTEX
  8
0
  5
27D0E
 10
702.160
 20
242.477
 30
0.000000
  70
    32
  0
VERTEX
  8
0
  5
27D0F
 10
700.544
 20
242.514
 30
0.000000
  70
    32
  0
VERTEX
  8
0
  5
27D10
 10
698.927
 20
242.477
 30
0.000000
  70
    32
  0
VERTEX
  8
0
  5
27D11
 10
697.313
 20
242.365
 30
0.000000
  70
    32
  0
VERTEX
  8
0
  5
27D12
 10
695.703
 20
242.180
 30
0.000000
  70
    32
  0
VERTEX
  8
0
  5
27D13
 10
694.100
 20
241.922
 30
0.000000
  70
    32
  0
VERTEX
  8
0
  5
27D14
 10
692.505
 20
241.590
 30
0.000000
  70
    32
  0
VERTEX
  8
0
  5
27D15
 10
690.921
 20
241.185
 30
0.000000
  70
    32
  0
VERTEX
  8
0
  5
27D16
 10
689.349
 20
240.707
 30
0.000000
  70
    32
  0
VERTEX
  8
0
  5
27D17
 10
687.793
 20
240.158
 30
0.000000
  70
    32
  0
VERTEX
  8
0
  5
27D18
 10
686.254
 20
239.538
 30
0.000000
  70
    32
  0
VERTEX
  8
0
  5
27D19
 10
684.733
 20
238.848
 30
0.000000
  70
    32
  0
VERTEX
  8
0
  5
27D1A
 10
683.234
 20
238.088
 30
0.000000
  70
    32
  0
VERTEX
  8
0
  5
27D1B
 10
681.757
 20
237.261
 30
0.000000
  70
    32
  0
VERTEX
  8
0
  5
27D1C
 10
680.306
 20
236.366
 30
0.000000
  70
    32
  0
VERTEX
  8
0
  5
27D1D
 10
678.882
 20
235.405
 30
0.000000
  70
    32
  0
VERTEX
  8
0
  5
27D1E
 10
677.486
 20
234.380
 30
0.000000
  70
    32
  0
VERTEX
  8
0
  5
27D1F
 10
676.121
 20
233.291
 30
0.000000
  70
    32
  0
VERTEX
  8
0
  5
27D20
 10
674.789
 20
232.140
 30
0.000000
  70
    32
  0
VERTEX
  8
0
  5
27D21
 10
673.491
 20
230.929
 30
0.000000
  70
    32
  0
VERTEX
  8
0
  5
27D22
 10
672.229
 20
229.660
 30
0.000000
  70
    32
  0
VERTEX
  8
0
  5
27D23
 10
671.005
 20
228.333
 30
0.000000
  70
    32
  0
VERTEX
  8
0
  5
27D24
 10
669.820
 20
226.951
 30
0.000000
  70
    32
  0
VERTEX
  8
0
  5
27D25
 10
668.676
 20
225.516
 30
0.000000
  70
    32
  0
VERTEX
  8
0
  5
27D26
 10
667.574
 20
224.029
 30
0.000000
  70
    32
  0
VERTEX
  8
0
  5
27D27
 10
666.517
 20
222.493
 30
0.000000
  70
    32
  0
VERTEX
  8
0
  5
27D28
 10
665.504
 20
220.909
 30
0.000000
  70
    32
  0
VERTEX
  8
0
  5
27D29
 10
664.539
 20
219.280
 30
0.000000
  70
    32
  0
VERTEX
  8
0
  5
27D2A
 10
663.621
 20
217.608
 30
0.000000
  70
    32
  0
VERTEX
  8
0
  5
27D2B
 10
662.752
 20
215.895
 30
0.000000
  70
    32
  0
VERTEX
  8
0
  5
27D2C
 10
661.934
 20
214.143
 30
0.000000
  70
    32
  0
VERTEX
  8
0
  5
27D2D
 10
661.167
 20
212.355
 30
0.000000
  70
    32
  0
VERTEX
  8
0
  5
27D2E
 10
660.453
 20
210.532
 30
0.000000
  70
    32
  0
VERTEX
  8
0
  5
27D2F
 10
659.792
 20
208.679
 30
0.000000
  70
    32
  0
VERTEX
  8
0
  5
27D30
 10
659.185
 20
206.796
 30
0.000000
  70
    32
  0
VERTEX
  8
0
  5
27D31
 10
658.634
 20
204.886
 30
0.000000
  70
    32
  0
VERTEX
  8
0
  5
27D32
 10
658.138
 20
202.953
 30
0.000000
  70
    32
  0
VERTEX
  8
0
  5
27D33
 10
657.699
 20
200.998
 30
0.000000
  70
    32
  0
VERTEX
  8
0
  5
27D34
 10
657.316
 20
199.024
 30
0.000000
  70
    32
  0
VERTEX
  8
0
  5
27D35
 10
656.992
 20
197.035
 30
0.000000
  70
    32
  0
VERTEX
  8
0
  5
27D36
 10
656.725
 20
195.031
 30
0.000000
  70
    32
  0
VERTEX
  8
0
  5
27D37
 10
656.516
 20
193.017
 30
0.000000
  70
    32
  0
VERTEX
  8
0
  5
27D38
 10
656.367
 20
190.994
 30
0.000000
  70
    32
  0
VERTEX
  8
0
  5
27D39
 10
656.276
 20
188.966
 30
0.000000
  70
    32
  0
VERTEX
  8
0
  5
27D3A
 10
656.244
 20
186.935
 30
0.000000
  70
    32
  0
VERTEX
  8
0
  5
27D3B
 10
656.271
 20
184.904
 30
0.000000
  70
    32
  0
VERTEX
  8
0
  5
27D3C
 10
656.357
 20
182.876
 30
0.000000
  70
    32
  0
VERTEX
  8
0
  5
27D3D
 10
656.502
 20
180.853
 30
0.000000
  70
    32
  0
VERTEX
  8
0
  5
27D3E
 10
656.705
 20
178.838
 30
0.000000
  70
    32
  0
VERTEX
  8
0
  5
27D3F
 10
656.967
 20
176.833
 30
0.000000
  70
    32
  0
VERTEX
  8
0
  5
27D40
 10
657.287
 20
174.842
 30
0.000000
  70
    32
  0
VERTEX
  8
0
  5
27D41
 10
657.665
 20
172.867
 30
0.000000
  70
    32
  0
VERTEX
  8
0
  5
27D42
 10
658.099
 20
170.910
 30
0.000000
  70
    32
  0
VERTEX
  8
0
  5
27D43
 10
658.590
 20
168.975
 30
0.000000
  70
    32
  0
VERTEX
  8
0
  5
27D44
 10
659.137
 20
167.064
 30
0.000000
  70
    32
  0
VERTEX
  8
0
  5
27D45
 10
659.740
 20
165.178
 30
0.000000
  70
    32
  0
VERTEX
  8
0
  5
27D46
 10
660.396
 20
163.322
 30
0.000000
  70
    32
  0
VERTEX
  8
0
  5
27D47
 10
661.106
 20
161.497
 30
0.000000
  70
    32
  0
VERTEX
  8
0
  5
27D48
 10
661.869
 20
159.706
 30
0.000000
  70
    32
  0
VERTEX
  8
0
  5
27D49
 10
662.683
 20
157.951
 30
0.000000
  70
    32
  0
VERTEX
  8
0
  5
27D4A
 10
663.547
 20
156.235
 30
0.000000
  70
    32
  0
VERTEX
  8
0
  5
27D4B
 10
664.461
 20
154.559
 30
0.000000
  70
    32
  0
VERTEX
  8
0
  5
27D4C
 10
665.422
 20
152.926
 30
0.000000
  70
    32
  0
VERTEX
  8
0
  5
27D4D
 10
666.431
 20
151.338
 30
0.000000
  70
    32
  0
VERTEX
  8
0
  5
27D4E
 10
667.485
 20
149.798
 30
0.000000
  70
    32
  0
VERTEX
  8
0
  5
27D4F
 10
668.583
 20
148.307
 30
0.000000
  70
    32
  0
SEQEND
  8
0
  5
27D50
  0
LINE
  5
27830
  8
0
 10
664.27732193504789
 20
148.30726595209899
 30
0.0
 11
668.58292095073239
 21
148.30726595209899
 31
0.0
  0
ARC
  5
27831
  8
0
 10
670.82136632234187
 20
152.67894742493041
 30
0.0
 40
7.8699501804491989
 50
213.74449632467159
 51
243.7765025053061
  0
ARC
  5
27832
  8
0
 10
730.26627880848025
 20
152.67899088777
 30
0.0
 40
7.8700060061736767
 50
296.22360651797328
 51
326.25539465205048
  0
POLYLINE
  5
27833
  8
0
 66
     1
 10
0.0
 20
0.0
 30
0.0
 70
   128
  0
VERTEX
  5
27A31
  8
0
 10
732.50476228188779
 20
148.30726595209899
 30
0.0
  0
VERTEX
  5
27A32
  8
0
 10
731.59492079413064
 20
147.29998792408449
 30
0.0
  0
VERTEX
  5
27A33
  8
0
 10
730.54384161631015
 20
146.463462098805
 30
0.0
  0
SEQEND
  5
27A34
  8
0
  0
LINE
  5
27834
  8
0
 10
730.54384161631015
 20
144.5344666654251
 30
0.0
 11
730.54384161631015
 21
227.80748301819821
 31
0.0
  0
LINE
  5
27835
  8
0
 10
711.34298599514341
 20
240.83446324221839
 30
0.0
 11
689.74469723747586
 21
240.83446324221839
 31
0.0
  0
LINE
  5
27836
  8
0
 10
670.54384161631015
 20
146.463462098805
 30
0.0
 11
670.54384161631015
 21
227.80748301819841
 31
0.0
  0
POLYLINE
  5
27837
  8
0
 66
     1
 10
0.0
 20
0.0
 30
0.0
 70
   128
  0
VERTEX
  5
27A35
  8
0
 10
670.54384161631015
 20
146.463462098805
 30
0.0
  0
VERTEX
  5
27A36
  8
0
 10
669.51229779918549
 20
147.28172697556701
 30
0.0
  0
VERTEX
  5
27A37
  8
0
 10
668.58292095073239
 20
148.30726595209899
 30
0.0
  0
SEQEND
  5
27A38
  8
0
  0
LINE
  5
27838
  8
0
 10
733.74384161631076
 20
144.5344666654251
 30
0.0
 11
733.74384161631076
 21
145.61899432581569
 31
0.0
  0
LINE
  5
27839
  8
0
 10
730.54384161631015
 20
144.5344666654251
 30
0.0
 11
733.74384161631076
 21
144.5344666654251
 31
0.0
  0
LINE
  5
2783B
  8
0
 10
667.34384161631033
 20
144.5344666654251
 30
0.0
 11
670.54384161631015
 21
144.5344666654251
 31
0.0
  0
LINE
  5
2783C
  8
0
 10
667.34384161631033
 20
144.5344666654251
 30
0.0
 11
667.34384161631033
 21
145.61899432581569
 31
0.0
  0
LINE
  5
2783D
  8
0
 10
670.54384161631015
 20
144.5344666654251
 30
0.0
 11
670.54384161631015
 21
146.463462098805
 31
0.0
  0
LINE
  5
2783E
  8
0
 10
730.04384161631083
 20
144.5344617751303
 30
0.0
 11
733.74384161631076
 21
144.5344617751303
 31
0.0
  0
LINE
  5
2783F
  8
0
 10
667.34384161631033
 20
144.5344617751303
 30
0.0
 11
670.54384161631015
 21
144.5344617751303
 31
0.0
  0
LINE
  5
27840
  8
0
 10
660.37160911363605
 20
149.04963568491709
 30
0.0
 11
663.78572425275024
 21
149.04963568491709
 31
0.0
  0
LINE
  5
27841
  8
0
 10
660.37160911363605
 20
143.56480812761541
 30
0.0
 11
667.34384161631033
 21
143.56480812761541
 31
0.0
  0
ARC
  5
27842
  8
0
 10
669.95071594765739
 20
146.30722190626651
 30
0.0
 40
9.9639410411212808
 50
164.0240498738869
 51
195.97595012611569
  0
LINE
  5
27843
  8
0
 10
667.34384161631033
 20
144.5344617751303
 30
0.0
 11
667.34384161631033
 21
143.56480812761541
 31
0.0
  0
POLYLINE
  5
27844
  8
0
 66
     1
 10
0.0
 20
0.0
 30
0.0
 70
   128
  0
VERTEX
  5
27A39
  8
0
 10
660.06869896293699
 20
155.70105431803131
 30
0.0
  0
VERTEX
  5
27A3A
  8
0
 10
659.98391894858139
 20
153.8762403066624
 30
0.0
  0
VERTEX
  5
27A3B
  8
0
 10
660.37160911363605
 20
149.04963568491709
 30
0.0
  0
SEQEND
  5
27A3C
  8
0
  0
LINE
  5
27845
  8
0
 10
659.84384161631033
 20
145.53446324221841
 30
0.0
 11
659.84384161631033
 21
156.07938536386069
 31
0.0
  0
LINE
  5
27846
  8
0
 10
743.4751975207696
 20
159.53575994907351
 30
0.0
 11
742.77721167644859
 21
159.53575994907351
 31
0.0
  0
LINE
  5
27847
  8
0
 10
743.4751975207696
 20
159.53575994907351
 30
0.0
 11
743.74384161631076
 21
156.9759983638171
 31
0.0
  0
LINE
  5
27848
  8
0
 10
743.74384161631076
 20
156.9759983638171
 30
0.0
 11
743.74384161631076
 21
152.09292812061949
 31
0.0
  0
POLYLINE
  5
27849
  8
0
 66
     1
 10
0.0
 20
0.0
 30
0.0
 70
   128
  0
VERTEX
  5
27A3D
  8
0
 10
743.74384161631076
 20
152.09292812061949
 30
0.0
  0
VERTEX
  5
27A3E
  8
0
 10
743.64394722720544
 20
150.95526241197919
 30
0.0
  0
VERTEX
  5
27A3F
  8
0
 10
743.4751975207696
 20
149.53316653536311
 30
0.0
  0
SEQEND
  5
27A40
  8
0
  0
LINE
  5
2784A
  8
0
 10
743.4751975207696
 20
149.53316653536311
 30
0.0
 11
737.61358424267428
 21
149.53316653536311
 31
0.0
  0
LINE
  5
2784B
  8
0
 10
743.74384161631076
 20
160.8156407417014
 30
0.0
 11
743.4751975207696
 21
159.53575994907351
 31
0.0
  0
LINE
  5
2784D
  8
0
 10
743.74384161631076
 20
162.03683953496861
 30
0.0
 11
743.74384161631076
 21
145.8117506211361
 31
0.0
  0
LINE
  5
2784E
  8
0
 10
734.01248571185124
 20
144.53186982850869
 30
0.0
 11
733.74384161631076
 21
145.8117506211361
 31
0.0
  0
LINE
  5
2784F
  8
0
 10
743.4751975207696
 20
149.53316653536311
 30
0.0
 11
743.74384161631076
 21
148.2532857427353
 31
0.0
  0
LINE
  5
27850
  8
0
 10
743.74384161631076
 20
145.8117506211361
 30
0.0
 11
743.47519752077051
 21
144.53186982850869
 31
0.0
  0
LINE
  5
27851
  8
0
 10
743.47519752077051
 20
144.53186982850869
 30
0.0
 11
734.01248571185124
 21
144.53186982850869
 31
0.0
  0
LINE
  5
27855
  8
0
 10
743.74384161631076
 20
145.53446324221841
 30
0.0
 11
743.74384161631076
 21
145.8117506211361
 31
0.0
  0
LINE
  5
27856
  8
0
 10
723.04384161631015
 20
224.59693536531731
 30
0.0
 11
723.04384161631015
 21
84.47199111911965
 31
0.0
  0
LINE
  5
27857
  8
0
 10
678.04384161631015
 20
224.59693536531731
 30
0.0
 11
678.04384161631015
 21
84.47199111911965
 31
0.0
  0
LINE
  5
27858
  8
0
 10
730.04384161631106
 20
175.08938024950251
 30
0.0
 11
730.04384161631106
 21
133.97954623493439
 31
0.0
  0
LINE
  5
27859
  8
0
 10
671.04384161631015
 20
175.08938024950251
 30
0.0
 11
671.04384161631015
 21
133.97954623493439
 31
0.0
  0
LINE
  5
2785D
  8
0
 10
728.21815310180546
 20
177.08176964568571
 30
0.0
 11
728.21815310180546
 21
131.98715683875139
 31
0.0
  0
LINE
  5
2785E
  8
0
 10
672.86953013081575
 20
177.08176964568571
 30
0.0
 11
672.86953013081575
 21
131.98715683875139
 31
0.0
  0
LINE
  5
2785F
  8
0
 10
389.73428809197139
 20
500.5069061122237
 30
0.0
 11
389.73428809197139
 21
497.30690611222371
 31
0.0
  0
LINE
  5
27860
  8
0
 10
389.73428809197139
 20
437.30690611222349
 30
0.0
 11
389.73428809197139
 21
434.10690611222373
 31
0.0
  0
LINE
  5
27861
  8
0
 10
397.73428809197139
 20
426.74088070843908
 30
0.0
 11
398.23428809197139
 21
426.60690611222361
 31
0.0
  0
LINE
  5
27862
  8
0
 10
416.23428809197128
 20
426.60690611222361
 30
0.0
 11
416.73428809197128
 21
426.74088070843908
 31
0.0
  0
LINE
  5
27863
  8
0
 10
397.23428809197139
 20
497.30690611222371
 30
0.0
 11
397.23428809197139
 21
496.8069061122236
 31
0.0
  0
LINE
  5
27864
  8
0
 10
397.23428809197139
 20
437.80690611222371
 30
0.0
 11
397.23428809197139
 21
437.30690611222349
 31
0.0
  0
ARC
  5
27867
  8
0
 10
407.2342880919814
 20
467.3069061122236
 30
0.0
 40
74.999999999999488
 50
163.6907345535885
 51
196.30926544641139
  0
ARC
  5
27868
  8
0
 10
337.17181596887258
 20
487.80690611222411
 30
0.0
 40
1.9999999999994029
 50
90.0
 51
163.69073455361229
  0
ARC
  5
27869
  8
0
 10
337.17181596887258
 20
446.80690611222298
 30
0.0
 40
1.9999999999994029
 50
196.30926544638771
 51
270.0
  0
LINE
  5
2786A
  8
0
 10
384.6869816885046
 20
494.9812175977188
 30
0.0
 11
384.23428809197139
 21
489.80690611222337
 31
0.0
  0
LINE
  5
2786B
  8
0
 10
384.23428809197139
 20
444.80690611222337
 30
0.0
 11
384.6869816885046
 21
439.63259462672858
 31
0.0
  0
ARC
  5
2786C
  8
0
 10
386.67937108468777
 20
494.80690611222337
 30
0.0
 40
2.0000000000001741
 50
90.000000000006509
 51
175.00000000000651
  0
ARC
  5
2786D
  8
0
 10
386.67937108468777
 20
439.80690611222388
 30
0.0
 40
2.000000000000167
 50
184.99999999999349
 51
269.99999999998698
  0
CIRCLE
  5
2786E
  8
0
 10
463.23428809197139
 20
467.3069061122232
 30
0.0
 40
41.000000000000007
  0
CIRCLE
  5
27870
  8
0
 10
463.23428809197139
 20
467.3069061122232
 30
0.0
 40
10.0
  0
CIRCLE
  5
27872
  8
0
 10
463.23428809197139
 20
467.3069061122232
 30
0.0
 40
51.000000000000007
  0
CIRCLE
  5
27873
  8
0
 10
463.23428809197139
 20
467.3069061122232
 30
0.0
 40
47.000000000013031
  0
LINE
  5
27874
  8
0
 10
424.5204662708183
 20
500.50690611222331
 30
0.0
 11
389.73428809197139
 21
500.5069061122237
 31
0.0
  0
LINE
  5
27875
  8
0
 10
424.5204662708183
 20
434.10690611222321
 30
0.0
 11
389.73428809197139
 21
434.10690611222373
 31
0.0
  0
LINE
  5
27876
  8
0
 10
400.73428809197128
 20
434.10690611222321
 30
0.0
 11
400.73428809197128
 21
500.50690611222331
 31
0.0
  0
LINE
  5
27879
  8
0
 10
400.33826437600408
 20
437.30690611222349
 30
0.0
 11
389.73428809197139
 21
437.30690611222349
 31
0.0
  0
LINE
  5
2787A
  8
0
 10
400.33826437600408
 20
437.30690611222349
 30
0.0
 11
400.33826437600408
 21
497.3069061122232
 31
0.0
  0
LINE
  5
2787B
  8
0
 10
400.33826437600408
 20
497.3069061122232
 30
0.0
 11
389.73428809197139
 21
497.3069061122236
 31
0.0
  0
LINE
  5
27882
  8
0
 10
407.23428809197128
 20
427.13467360954928
 30
0.0
 11
407.23428809197128
 21
434.10690611222373
 31
0.0
  0
LINE
  5
27883
  8
0
 10
416.73428809197128
 20
426.74088070843908
 30
0.0
 11
416.73428809197128
 21
434.10690611222373
 31
0.0
  0
ARC
  5
27884
  8
0
 10
411.98428809197139
 20
455.98861947341828
 30
0.0
 40
29.242309962024081
 50
260.65168891469449
 51
279.3483110853054
  0
LINE
  5
27885
  8
0
 10
397.73428809197139
 20
426.74088070843908
 30
0.0
 11
397.73428809197139
 21
434.10690611222373
 31
0.0
  0
ARC
  5
27886
  8
0
 10
402.48428809197128
 20
456.16901012515473
 30
0.0
 40
29.420319456141481
 50
260.70875410647352
 51
279.29124589353961
  0
LINE
  5
27889
  8
0
 10
416.23428809197128
 20
426.60690611222361
 30
0.0
 11
398.23428809197139
 21
426.60690611222361
 31
0.0
  0
LINE
  5
2788B
  8
0
 10
415.8967880919717
 20
500.77555020776413
 30
0.0
 11
413.67996953150748
 21
500.50690611222348
 31
0.0
  0
LINE
  5
2788C
  8
0
 10
409.45110665243459
 20
500.50690611222348
 30
0.0
 11
407.23428809197128
 21
500.77555020776413
 31
0.0
  0
LINE
  5
2788D
  8
0
 10
407.23428809197128
 20
510.23826201668322
 30
0.0
 11
407.23428809197128
 21
500.77555020776413
 31
0.0
  0
LINE
  5
2788E
  8
0
 10
407.23428809197128
 20
510.23826201668322
 30
0.0
 11
409.45110665243459
 21
510.50690611222348
 31
0.0
  0
LINE
  5
2788F
  8
0
 10
409.45110665243459
 20
510.50690611222348
 30
0.0
 11
413.67996953150748
 21
510.50690611222348
 31
0.0
  0
LINE
  5
27890
  8
0
 10
413.67996953150748
 20
510.50690611222348
 30
0.0
 11
415.8967880919717
 21
510.23826201668322
 31
0.0
  0
LINE
  5
27891
  8
0
 10
415.8967880919717
 20
510.50690611222342
 30
0.0
 11
415.8967880919717
 21
500.50690611222319
 31
0.0
  0
LINE
  5
27892
  8
0
 10
407.23428809197128
 20
500.77555020776413
 30
0.0
 11
405.01746953150808
 21
500.50690611222348
 31
0.0
  0
LINE
  5
27893
  8
0
 10
400.78860665243519
 20
500.50690611222348
 30
0.0
 11
398.57178809197097
 21
500.77555020776413
 31
0.0
  0
LINE
  5
27894
  8
0
 10
398.57178809197097
 20
510.50690611222342
 30
0.0
 11
398.5717880919708
 21
500.50690611222342
 31
0.0
  0
LINE
  5
27895
  8
0
 10
398.57178809197097
 20
510.23826201668322
 30
0.0
 11
400.78860665243519
 21
510.50690611222348
 31
0.0
  0
LINE
  5
27896
  8
0
 10
400.78860665243519
 20
510.50690611222348
 30
0.0
 11
405.01746953150808
 21
510.50690611222348
 31
0.0
  0
LINE
  5
27897
  8
0
 10
405.01746953150808
 20
510.50690611222348
 30
0.0
 11
407.23428809197128
 21
510.23826201668322
 31
0.0
  0
LINE
  5
2789A
  8
0
 10
415.8967880919717
 20
510.50690611222348
 30
0.0
 11
398.57178809197097
 21
510.50690611222348
 31
0.0
  0
LINE
  5
278A1
  8
0
 10
337.17181596887258
 20
489.80690611222371
 30
0.0
 11
400.33826437600408
 21
489.80690611222337
 31
0.0
  0
LINE
  5
278A2
  8
0
 10
337.17181596887258
 20
444.80690611222371
 30
0.0
 11
400.33826437600408
 21
444.80690611222337
 31
0.0
  0
LINE
  5
278A3
  8
0
 10
386.67937108468692
 20
496.8069061122236
 30
0.0
 11
400.33826437600408
 21
496.8069061122236
 31
0.0
  0
LINE
  5
278A4
  8
0
 10
386.67937108468692
 20
437.80690611222371
 30
0.0
 11
400.33826437600408
 21
437.80690611222371
 31
0.0
  0
LINE
  5
278A7
  8
0
 10
384.6869816885046
 20
494.9812175977188
 30
0.0
 11
400.33826437600408
 21
494.98121759771851
 31
0.0
  0
LINE
  5
278A8
  8
0
 10
384.6869816885046
 20
439.63259462672858
 30
0.0
 11
400.33826437600408
 21
439.63259462672858
 31
0.0
  0
LINE
  5
278F4
  8
0
 10
413.23428809197179
 20
512.89248986030429
 30
0.0
 11
413.23428809197179
 21
510.50690611222348
 31
0.0
  0
LINE
  5
278F5
  8
0
 10
401.23428809197179
 20
510.50690611222348
 30
0.0
 11
401.23428809197179
 21
512.89248986030429
 31
0.0
  0
LINE
  5
278F6
  8
0
 10
412.16078809197143
 20
513.96598986030415
 30
0.0
 11
413.23428809197179
 21
512.89248986030429
 31
0.0
  0
LINE
  5
278F7
  8
0
 10
401.23428809197179
 20
512.89248986030429
 30
0.0
 11
402.3077880919713
 21
513.96598986030415
 31
0.0
  0
LINE
  5
278F8
  8
0
 10
401.23428809197179
 20
512.89248986030429
 30
0.0
 11
413.23428809197179
 21
512.89248986030429
 31
0.0
  0
LINE
  5
278F9
  8
0
 10
402.3077880919713
 20
513.96598986030415
 30
0.0
 11
412.16078809197143
 21
513.96598986030415
 31
0.0
  0
LINE
  5
278FA
  8
3
 10
412.16078809197143
 20
513.96598986030415
 30
0.0
 11
412.16078809197143
 21
510.50690611222348
 31
0.0
  0
LINE
  5
278FB
  8
3
 10
402.3077880919713
 20
513.96598986030415
 30
0.0
 11
402.3077880919713
 21
510.50690611222348
 31
0.0
  0
LINE
  5
278FE
  8
2
 10
473.23428809197139
 20
253.53446324221849
 30
0.0
 11
473.23428809197139
 21
267.53446324221852
 31
0.0
  0
LINE
  5
278FF
  8
2
 10
453.23428809197128
 20
267.53446324221852
 30
0.0
 11
453.23428809197128
 21
253.53446324221849
 31
0.0
  0
LINE
  5
27900
  8
2
 10
418.23428809197139
 20
253.53446324221849
 30
0.0
 11
508.23428809197128
 21
253.53446324221849
 31
0.0
  0
ARC
  5
27901
  8
0
 10
407.23428809197048
 20
154.53446324221841
 30
0.0
 40
75.000000000000199
 50
96.393886419004076
 51
33.069578185269947
  0
ARC
  5
27902
  8
0
 10
407.23428809197048
 20
154.53446324221841
 30
0.0
 40
58.465869681096073
 50
100.3035437481557
 51
27.578714381262539
  0
ARC
  5
27903
  8
0
 10
407.23428809197048
 20
154.53446324221841
 30
0.0
 40
71.981991907293363
 50
96.969046643804745
 51
32.267844150751472
  0
ARC
  5
27904
  8
0
 10
407.2353694011735
 20
154.53446324221841
 30
0.0
 40
22.436227767909791
 50
133.97783653590369
 51
334.64768986612211
  0
CIRCLE
  5
27905
  8
0
 10
407.2353694011735
 20
154.53446324221841
 30
0.0
 40
8.6625000000000121
  0
LINE
  5
27906
  8
0
 10
407.2353694011735
 20
164.53705665592909
 30
0.0
 11
415.89786940117301
 21
159.53575994907351
 31
0.0
  0
LINE
  5
27907
  8
0
 10
415.89786940117301
 20
159.53575994907351
 30
0.0
 11
415.89786940117301
 21
149.53316653536331
 31
0.0
  0
LINE
  5
27908
  8
0
 10
415.89786940117301
 20
149.53316653536331
 30
0.0
 11
407.2353694011735
 21
144.53186982850821
 31
0.0
  0
LINE
  5
27909
  8
0
 10
407.23536940117259
 20
164.53705665592909
 30
0.0
 11
398.57286940117319
 21
159.53575994907399
 31
0.0
  0
LINE
  5
2790A
  8
0
 10
398.57286940117319
 20
159.53575994907399
 30
0.0
 11
398.57286940117319
 21
149.53316653536331
 31
0.0
  0
LINE
  5
2790B
  8
0
 10
398.57286940117319
 20
149.53316653536331
 30
0.0
 11
407.23536940117259
 21
144.53186982850821
 31
0.0
  0
LINE
  5
2794B
  8
0
 10
746.12942536439095
 20
148.53446324221801
 30
0.0
 11
743.74384161631019
 21
148.53446324221801
 31
0.0
  0
LINE
  5
2794C
  8
0
 10
743.74384161631019
 20
160.53446324221801
 30
0.0
 11
746.12942536439095
 21
160.53446324221801
 31
0.0
  0
LINE
  5
2794D
  8
0
 10
747.20292536439092
 20
149.6079632422184
 30
0.0
 11
746.12942536439095
 21
148.53446324221801
 31
0.0
  0
LINE
  5
2794E
  8
0
 10
746.12942536439095
 20
160.53446324221801
 30
0.0
 11
747.20292536439092
 21
159.4609632422185
 31
0.0
  0
LINE
  5
2794F
  8
0
 10
746.12942536439095
 20
160.53446324221801
 30
0.0
 11
746.12942536439095
 21
148.53446324221801
 31
0.0
  0
LINE
  5
27950
  8
0
 10
747.20292536439092
 20
159.4609632422185
 30
0.0
 11
747.20292536439092
 21
149.6079632422184
 31
0.0
  0
LINE
  5
27951
  8
3
 10
747.20292536439092
 20
149.6079632422184
 30
0.0
 11
743.74384161631019
 21
149.6079632422184
 31
0.0
  0
LINE
  5
27952
  8
3
 10
747.20292536439092
 20
159.4609632422185
 30
0.0
 11
743.74384161631019
 21
159.4609632422185
 31
0.0
  0
LINE
  5
27953
  8
0
 10
68.339150819583665
 20
148.53446324221801
 30
0.0
 11
70.724734567664413
 21
148.53446324221801
 31
0.0
  0
LINE
  5
27954
  8
0
 10
70.724734567664413
 20
160.53446324221801
 30
0.0
 11
68.339150819583665
 21
160.53446324221801
 31
0.0
  0
LINE
  5
27955
  8
0
 10
67.265650819583684
 20
149.6079632422184
 30
0.0
 11
68.339150819583665
 21
148.53446324221801
 31
0.0
  0
LINE
  5
27956
  8
0
 10
68.339150819583665
 20
160.53446324221801
 30
0.0
 11
67.265650819583684
 21
159.4609632422185
 31
0.0
  0
LINE
  5
27957
  8
0
 10
68.339150819583665
 20
160.53446324221801
 30
0.0
 11
68.339150819583665
 21
148.53446324221801
 31
0.0
  0
LINE
  5
27958
  8
0
 10
67.265650819583684
 20
159.4609632422185
 30
0.0
 11
67.265650819583684
 21
149.6079632422184
 31
0.0
  0
LINE
  5
27959
  8
3
 10
67.265650819583684
 20
149.6079632422184
 30
0.0
 11
70.724734567664413
 21
149.6079632422184
 31
0.0
  0
LINE
  5
2795A
  8
3
 10
67.265650819583684
 20
159.4609632422185
 30
0.0
 11
70.724734567664413
 21
159.4609632422185
 31
0.0
  0
LINE
  5
2795D
  8
2
 10
710.54384161631015
 20
253.53446324222929
 30
0.0
 11
710.54384161631015
 21
267.53446324222932
 31
0.0
  0
LINE
  5
2795E
  8
2
 10
690.54384161631015
 20
267.53446324222932
 30
0.0
 11
690.54384161631015
 21
253.53446324222929
 31
0.0
  0
LINE
  5
2795F
  8
2
 10
656.24384161631019
 20
253.53446324222929
 30
0.0
 11
744.84384161630999
 21
253.53446324222929
 31
0.0
  0
LINE
  5
27960
  8
2
 10
744.84384161630999
 20
186.85094718339349
 30
0.0
 11
744.84384161630999
 21
253.53446324222929
 31
0.0
  0
LINE
  5
27961
  8
2
 10
656.24384161631019
 20
186.8509471833928
 30
0.0
 11
656.24384161631019
 21
253.53446324222929
 31
0.0
  0
LINE
  5
27962
  8
1
 10
319.34146101305402
 20
467.30690611221371
 30
0.0
 11
525.58119956602422
 21
467.30690611221371
 31
0.0
  0
LINE
  5
27963
  8
1
 10
463.23428809197139
 20
529.653817586267
 30
0.0
 11
463.23428809197139
 21
404.95999463816042
 31
0.0
  0
LINE
  5
27964
  8
1
 10
407.23428809197128
 20
417.45999463816042
 30
0.0
 11
407.23428809197128
 21
524.653817586267
 31
0.0
  0
LINE
  5
27965
  8
1
 10
463.23428809197139
 20
283.2580120947851
 30
0.0
 11
463.23428809197139
 21
225.74156391172261
 31
0.0
  0
LINE
  5
27966
  8
1
 10
316.51073923940572
 20
154.53446324221841
 30
0.0
 11
497.95783694453712
 21
154.53446324221841
 31
0.0
  0
LINE
  5
27967
  8
1
 10
407.23428809197128
 20
63.810914389653192
 30
0.0
 11
407.23428809197128
 21
222.89896261549259
 31
0.0
  0
LINE
  5
27968
  8
1
 10
753.02220987385579
 20
154.53446324221889
 30
0.0
 11
648.06547335876439
 21
154.53446324221889
 31
0.0
  0
LINE
  5
27969
  8
1
 10
700.5438416163106
 20
63.810914389653647
 30
0.0
 11
700.5438416163106
 21
283.2580120947851
 31
0.0
  0
LINE
  5
2796A
  8
1
 10
61.446366310118719
 20
154.53446324221889
 30
0.0
 11
166.4031028252102
 21
154.53446324221889
 31
0.0
  0
LINE
  5
2796B
  8
1
 10
113.9247345676649
 20
63.810914389653647
 30
0.0
 11
113.9247345676649
 21
283.2580120947851
 31
0.0
  0
TEXT
  5
279C8
  8
0
 62
     3
 10
0.0
 20
0.0
 30
0.0
 40
10.0
  1
CAF8-150FBL
  7
STANDARD1
  0
ENDSEC
  0
EOF
