  0
SECTION
  2
HEADER
  9
$ACADVER
  1
AC1009
  9
$INSBASE
 10
0.0
 20
0.0
 30
0.0
  9
$EXTMIN
 10
0.0
 20
-2.960436562073669
 30
0.0
  9
$EXTMAX
 10
610.22742364158239
 20
480.64435152540722
 30
0.0
  9
$LIMMIN
 10
0.0
 20
0.0
  9
$LIMMAX
 10
375.0
 20
270.0
  9
$ORTHOMODE
 70
     1
  9
$REGENMODE
 70
     1
  9
$FILLMODE
 70
     1
  9
$QTEXTMODE
 70
     0
  9
$MIRRTEXT
 70
     1
  9
$DRAGMODE
 70
     2
  9
$LTSCALE
 40
10.0
  9
$OSMODE
 70
    37
  9
$ATTMODE
 70
     1
  9
$TEXTSIZE
 40
5.0
  9
$TRACEWID
 40
0.05
  9
$TEXTSTYLE
  7
STANDARD
  9
$CLAYER
  8
0
  9
$CELTYPE
  6
BYLAYER
  9
$CECOLOR
 62
     6
  9
$DIMSCALE
 40
2.0
  9
$DIMASZ
 40
3.0
  9
$DIMEXO
 40
2.0
  9
$DIMDLI
 40
0.38
  9
$DIMRND
 40
0.0
  9
$DIMDLE
 40
0.0
  9
$DIMEXE
 40
2.0
  9
$DIMTP
 40
0.0
  9
$DIMTM
 40
0.0
  9
$DIMTXT
 40
3.2000000000000002
  9
$DIMCEN
 40
0.0
  9
$DIMTSZ
 40
0.0
  9
$DIMTOL
 70
     0
  9
$DIMLIM
 70
     0
  9
$DIMTIH
 70
     0
  9
$DIMTOH
 70
     0
  9
$DIMSE1
 70
     0
  9
$DIMSE2
 70
     0
  9
$DIMTAD
 70
     1
  9
$DIMZIN
 70
     8
  9
$DIMBLK
  1

  9
$DIMASO
 70
     0
  9
$DIMSHO
 70
     0
  9
$DIMPOST
  1

  9
$DIMAPOST
  1

  9
$DIMALT
 70
     0
  9
$DIMALTD
 70
     2
  9
$DIMALTF
 40
25.399999999999999
  9
$DIMLFAC
 40
1.0
  9
$DIMTOFL
 70
     0
  9
$DIMTVP
 40
1.6000000000000001
  9
$DIMTIX
 70
     1
  9
$DIMSOXD
 70
     0
  9
$DIMSAH
 70
     0
  9
$DIMBLK1
  1

  9
$DIMBLK2
  1

  9
$DIMSTYLE
  2
STANDARD
  9
$DIMCLRD
 70
     0
  9
$DIMCLRE
 70
     0
  9
$DIMCLRT
 70
     0
  9
$DIMTFAC
 40
1.0
  9
$DIMGAP
 40
1.1999999999999991
  9
$LUNITS
 70
     2
  9
$LUPREC
 70
     4
  9
$SKETCHINC
 40
0.1
  9
$FILLETRAD
 40
0.0
  9
$AUNITS
 70
     0
  9
$AUPREC
 70
     4
  9
$MENU
  1
ACAD
  9
$ELEVATION
 40
0.0
  9
$PELEVATION
 40
0.0
  9
$THICKNESS
 40
0.0
  9
$LIMCHECK
 70
     0
  9
$BLIPMODE
 70
     0
  9
$CHAMFERA
 40
0.0
  9
$CHAMFERB
 40
0.0
  9
$SKPOLY
 70
     0
  9
$TDCREATE
 40
2448055.7149187499
  9
$TDUPDATE
 40
2459565.4849635651
  9
$TDINDWG
 40
2.4917370255
  9
$TDUSRTIMER
 40
2.4917370255
  9
$USRTIMER
 70
     1
  9
$ANGBASE
 50
0.0
  9
$ANGDIR
 70
     0
  9
$PDMODE
 70
     0
  9
$PDSIZE
 40
0.0
  9
$PLINEWID
 40
0.0
  9
$COORDS
 70
     1
  9
$SPLFRAME
 70
     0
  9
$SPLINETYPE
 70
     6
  9
$SPLINESEGS
 70
     8
  9
$ATTDIA
 70
     0
  9
$ATTREQ
 70
     1
  9
$HANDLING
 70
     1
  9
$HANDSEED
  5
24B11
  9
$SURFTAB1
 70
     6
  9
$SURFTAB2
 70
     6
  9
$SURFTYPE
 70
     6
  9
$SURFU
 70
     6
  9
$SURFV
 70
     6
  9
$UCSNAME
  2

  9
$UCSORG
 10
0.0
 20
0.0
 30
0.0
  9
$UCSXDIR
 10
1.0
 20
0.0
 30
0.0
  9
$UCSYDIR
 10
0.0
 20
1.0
 30
0.0
  9
$PUCSNAME
  2

  9
$PUCSORG
 10
0.0
 20
0.0
 30
0.0
  9
$PUCSXDIR
 10
1.0
 20
0.0
 30
0.0
  9
$PUCSYDIR
 10
0.0
 20
1.0
 30
0.0
  9
$USERI1
 70
     0
  9
$USERI2
 70
     0
  9
$USERI3
 70
     0
  9
$USERI4
 70
     0
  9
$USERI5
 70
     0
  9
$USERR1
 40
0.0
  9
$USERR2
 40
0.0
  9
$USERR3
 40
0.0
  9
$USERR4
 40
0.0
  9
$USERR5
 40
0.0
  9
$WORLDVIEW
 70
     1
  9
$SHADEDGE
 70
     3
  9
$SHADEDIF
 70
    70
  9
$TILEMODE
 70
     1
  9
$MAXACTVP
 70
    16
  9
$PLIMCHECK
 70
     0
  9
$PEXTMIN
 10
1.0000000000000000E+020
 20
1.0000000000000000E+020
 30
1.0000000000000000E+020
  9
$PEXTMAX
 10
-1.0000000000000000E+020
 20
-1.0000000000000000E+020
 30
-1.0000000000000000E+020
  9
$PLIMMIN
 10
0.0
 20
0.0
  9
$PLIMMAX
 10
12.0
 20
9.0
  9
$UNITMODE
 70
     0
  9
$VISRETAIN
 70
     0
  9
$PLINEGEN
 70
     1
  9
$PSLTSCALE
 70
     0
  0
ENDSEC
  0
SECTION
  2
TABLES
  0
TABLE
  2
VPORT
 70
     1
  0
VPORT
  2
*ACTIVE
 70
     0
 10
0.0
 20
0.0
 11
1.0
 21
1.0
 12
530.36252462155744
 22
238.83703779172669
 13
0.0
 23
0.0
 14
5.0
 24
5.0
 15
10.0
 25
10.0
 16
0.0
 26
0.0
 36
1.0
 17
0.0
 27
0.0
 37
0.0
 40
487.97511726348648
 41
2.3805970149253728
 42
50.0
 43
0.0
 44
0.0
 50
0.0
 51
0.0
 71
     0
 72
   500
 73
     1
 74
     1
 75
     0
 76
     0
 77
     0
 78
     2
  0
ENDTAB
  0
TABLE
  2
LTYPE
 70
     4
  0
LTYPE
  2
CONTINUOUS
 70
     0
  3
実線
 72
    65
 73
     0
 40
0.0
  0
LTYPE
  2
CENTER
 70
     0
  3
____ _ ____ _ ____ _ ____ _ ____ _ ____ _ ____
 72
    65
 73
     4
 40
2.0
 49
1.25
 49
-0.25
 49
0.25
 49
-0.25
  0
LTYPE
  2
HIDDEN
 70
     0
  3
_ _ _ _ _ _ _ _ _ _ _ _ _ _ _ _ _ _ _ _ _ _ _
 72
    65
 73
     2
 40
0.375
 49
0.25
 49
-0.125
  0
LTYPE
  2
PHANTOM2
 70
     0
  3
___ _ _ ___ _ _ ___ _ _ ___ _ _
 72
    65
 73
     6
 40
1.25
 49
0.625
 49
-0.125
 49
0.125
 49
-0.125
 49
0.125
 49
-0.125
  0
ENDTAB
  0
TABLE
  2
LAYER
 70
     5
  0
LAYER
  2
0
 70
     0
 62
     7
  6
CONTINUOUS
  0
LAYER
  2
1
 70
     0
 62
     1
  6
CENTER
  0
LAYER
  2
2
 70
     0
 62
     2
  6
HIDDEN
  0
LAYER
  2
DEFPOINTS
 70
     0
 62
     7
  6
CONTINUOUS
  0
LAYER
  2
3
 70
     0
 62
     3
  6
CONTINUOUS
  0
ENDTAB
  0
TABLE
  2
STYLE
 70
     3
  0
STYLE
  2
STANDARD
 70
     0
 40
0.0
 41
1.0
 50
0.0
 71
     0
 42
5.0
  3
simplex.shx
  4
bigfont.shx
  0
STYLE
  2
07500
 70
     0
 40
0.0
 41
0.75
 50
0.0
 71
     0
 42
0.2
  3
simplex.shx
  4
bigfont.shx
  0
STYLE
  2
STANDARD1
 70
     0
 40
0.0
 41
1.0
 50
0.0
 71
     0
 42
3.0
  3
txt
  4

  0
ENDTAB
  0
TABLE
  2
VIEW
 70
     2
  0
VIEW
  2
ALL
 70
     0
 40
270.0
 10
220.99159663865549
 20
135.0
 41
0.0
 11
0.0
 21
0.0
 31
1.0
 12
0.0
 22
0.0
 32
0.0
 42
0.0
 43
0.0
 44
0.0
 50
0.0
 71
     0
  0
VIEW
  2
OLE1
 70
     0
 40
168.2487151179721
 10
2892.3009567448912
 20
702.51600084347126
 41
162.5749581879237
 11
0.0
 21
0.0
 31
1.0
 12
0.0
 22
0.0
 32
0.0
 42
50.0
 43
0.0
 44
0.0
 50
0.0
 71
     0
  0
ENDTAB
  0
TABLE
  2
UCS
 70
     0
  0
ENDTAB
  0
TABLE
  2
APPID
 70
    48
  0
APPID
  2
ACAD
 70
     0
  0
APPID
  2
DCO15
 70
     0
  0
APPID
  2
GENIUS_GENOREF_13
 70
     0
  0
APPID
  2
GENIUS_GENOENT_13
 70
     0
  0
APPID
  2
GENIUS_GENBH_13
 70
     0
  0
APPID
  2
GENIUS_GENOBJ_13
 70
     0
  0
APPID
  2
GENIUS_GENODEF_13
 70
     0
  0
APPID
  2
GENIUS_GENOLIS_13
 70
     0
  0
APPID
  2
GENIUS_GENOBJ-NBEHI-BHF_13
 70
     0
  0
APPID
  2
GENIUS_GENOBJ-NBEHI-BHB_13
 70
     0
  0
APPID
  2
GENIUS_GENOBJ-F-PART_13
 70
     0
  0
APPID
  2
GENIUS_GEFSTDP_13
 70
     0
  0
APPID
  2
GENIUS_GENOBJ-N-RSSYM_13
 70
     0
  0
APPID
  2
GENIUS_GENSYMENT_13
 70
     0
  0
APPID
  2
GENIUS_GENOBJ-N-TIT_13
 70
     0
  0
APPID
  2
GENIUS_GENTITLE_13
 70
     0
  0
APPID
  2
GENIUS_GENZVEED_13
 70
     0
  0
APPID
  2
GENIUS_GENOBJ-N-LEADER_13
 70
     0
  0
APPID
  2
GENIUS_GENOBJ-N-FIL_13
 70
     0
  0
APPID
  2
GENIUS_GENOBJ-N-SEC_13
 70
     0
  0
APPID
  2
GENIUS_GENOBJ-N-CRS_13
 70
     0
  0
APPID
  2
GENIUS_GENOBJ-N-ZOO_13
 70
     0
  0
APPID
  2
GENIUS_GENZOO_13
 70
     0
  0
APPID
  2
GENIUS_GENOBJ-F-TOL_13
 70
     0
  0
APPID
  2
GENIUS_GENFIL_13
 70
     0
  0
APPID
  2
GENIUS_GENOBJ-N-CHA_13
 70
     0
  0
APPID
  2
_CALL_MAC$
 70
     0
  0
APPID
  2
ASM_BASE
 70
     0
  0
APPID
  2
ASM_EXPLO_VER_2_00
 70
     0
  0
APPID
  2
ASM_CADM_VER_12_00
 70
     0
  0
APPID
  2
ASM_BASEFORO
 70
     0
  0
APPID
  2
ASM_BASETRAVI
 70
     0
  0
APPID
  2
ASM_BASETRAVI1
 70
     0
  0
APPID
  2
ASM_GRUPPI
 70
     0
  0
APPID
  2
ASM_CADM_ALBERO
 70
     0
  0
APPID
  2
ASM_GOLE
 70
     0
  0
APPID
  2
ACAD_MLEADERVER
 70
     0
  0
APPID
  2
ACAD_DSTYLE_DIMJAG
 70
     0
  0
APPID
  2
ACAD_DSTYLE_DIMTALN
 70
     0
  0
APPID
  2
ACAD_EXEMPT_FROM_CAD_STANDARDS
 70
     0
  0
APPID
  2
ACAD_DSTYLE_DIMRADIAL_EXTENSION
 70
     0
  0
APPID
  2
ACAD_PSEXT
 70
     0
  0
APPID
  2
ACAD_DSTYLE_DIMBREAK
 70
     0
  0
APPID
  2
ACAECLAYERSTANDARD
 70
     0
  0
APPID
  2
ACCMTRANSPARENCY
 70
     0
  0
APPID
  2
GRADIENTCOLOR1ACI
 70
     0
  0
APPID
  2
GRADIENTCOLOR2ACI
 70
     0
  0
APPID
  2
ACAD_NAV_VCDISPLAY
 70
     0
  0
ENDTAB
  0
TABLE
  2
DIMSTYLE
 70
     1
  0
DIMSTYLE
  2
STANDARD
 70
     0
  3

  4

  5

  6

  7

 40
1.0
 41
0.18
 42
0.0625
 43
0.38
 44
0.18
 45
0.0
 46
0.0
 47
0.0
 48
0.0
140
0.18
141
0.09
142
0.0
143
25.399999999999999
144
1.0
145
0.0
146
1.0
147
0.09
 71
     0
 72
     0
 73
     1
 74
     1
 75
     0
 76
     0
 77
     0
 78
     0
170
     0
171
     2
172
     0
173
     0
174
     0
175
     0
176
     0
177
     0
178
     0
  0
ENDTAB
  0
ENDSEC
  0
SECTION
  2
BLOCKS
  0
BLOCK
  8
0
  2
$MODEL_SPACE
 70
     0
 10
0.0
 20
0.0
 30
0.0
  3
$MODEL_SPACE
  1

  0
ENDBLK
  5
36
  8
0
  0
BLOCK
 67
     1
  8
0
  2
$PAPER_SPACE
 70
     0
 10
0.0
 20
0.0
 30
0.0
  3
$PAPER_SPACE
  1

  0
ENDBLK
  5
34
 67
     1
  8
0
  0
ENDSEC
  0
SECTION
  2
ENTITIES
  0
LINE
  5
23C0B
  8
0
 10
139.20679737037881
 20
233.413616300445
 30
0.0
 11
139.20679737037881
 21
283.94368873142048
 31
0.0
  0
LINE
  5
23C0C
  8
0
 10
73.206797370378808
 20
283.94368873142048
 30
0.0
 11
73.206797370378808
 21
233.413616300445
 31
0.0
  0
ARC
  5
23C0F
  8
0
 10
78.181797370378717
 20
289.44368873142048
 30
0.0
 40
2.9999999999999849
 50
90.0
 51
180.0
  0
ARC
  5
23C10
  8
0
 10
134.2317973703789
 20
289.44368873142048
 30
0.0
 40
2.9999999999999849
 50
0.0
 51
90.0
  0
LINE
  5
23C11
  8
0
 10
137.2317973703789
 20
288.94368873142048
 30
0.0
 11
137.2317973703789
 21
289.44368873142048
 31
0.0
  0
LINE
  5
23C12
  8
0
 10
75.181797370378717
 20
289.44368873142048
 30
0.0
 11
75.181797370378717
 21
288.94368873142048
 31
0.0
  0
ARC
  5
23C13
  8
0
 10
73.706797370378808
 20
284.94368873142048
 30
0.0
 40
4.0000000000000142
 50
90.0
 51
180.0
  0
ARC
  5
23C14
  8
0
 10
138.70679737037881
 20
284.94368873142048
 30
0.0
 40
4.0000000000000142
 50
0.0
 51
90.0
  0
LINE
  5
23C15
  8
0
 10
142.70679737037881
 20
283.94368873142048
 30
0.0
 11
142.70679737037881
 21
284.94368873142048
 31
0.0
  0
LINE
  5
23C16
  8
0
 10
69.706797370378808
 20
284.94368873142048
 30
0.0
 11
69.706797370378808
 21
283.94368873142048
 31
0.0
  0
LINE
  5
23C17
  8
0
 10
80.706797370378808
 20
281.94368873142048
 30
0.0
 11
131.70679737037881
 21
281.94368873142048
 31
0.0
  0
LINE
  5
23C19
  8
0
 10
131.70679737037881
 20
281.94368873142048
 30
0.0
 11
131.70679737037881
 21
192.2436887314206
 31
0.0
  0
LINE
  5
23C1A
  8
0
 10
131.70679737037881
 20
192.2436887314206
 30
0.0
 11
128.70679737037881
 21
192.2436887314206
 31
0.0
  0
LINE
  5
23C1B
  8
0
 10
80.706797370378808
 20
192.2436887314206
 30
0.0
 11
80.706797370378808
 21
281.94368873142048
 31
0.0
  0
LINE
  5
23C1C
  8
0
 10
83.706797370378794
 20
192.2436887314206
 30
0.0
 11
80.706797370378808
 21
192.2436887314206
 31
0.0
  0
LINE
  5
23C1F
  8
0
 10
128.70679737037881
 20
266.32887416569793
 30
0.0
 11
128.70679737037881
 21
192.2436887314206
 31
0.0
  0
LINE
  5
23C20
  8
0
 10
83.706797370378794
 20
192.2436887314206
 30
0.0
 11
83.706797370378794
 21
266.32887416569793
 31
0.0
  0
POLYLINE
  5
23C21
  8
0
 66
     1
 10
0.0
 20
0.0
 30
0.0
  0
VERTEX
  5
24777
  8
0
 10
73.206797370378808
 20
233.413616300445
 30
0.0
  0
VERTEX
  5
24778
  8
0
 10
73.209179112873244
 20
232.8065340785497
 30
0.0
  0
VERTEX
  5
24779
  8
0
 10
73.228230990077904
 20
231.5927201466011
 30
0.0
  0
VERTEX
  5
2477A
  8
0
 10
73.266323744479905
 20
230.3799575478015
 30
0.0
  0
VERTEX
  5
2477B
  8
0
 10
73.29250400674664
 20
229.7741893500706
 30
0.0
  0
VERTEX
  5
2477C
  8
0
 10
73.323435382417756
 20
229.16894649644971
 30
0.0
  0
VERTEX
  5
2477D
  8
0
 10
73.399532929271118
 20
227.96038619555071
 30
0.0
  0
VERTEX
  5
2477E
  8
0
 10
73.494572448501458
 20
226.7549744331163
 30
0.0
  0
VERTEX
  5
2477F
  8
0
 10
73.608499067020134
 20
225.55340717928269
 30
0.0
  0
VERTEX
  5
24780
  8
0
 10
73.741247006868889
 20
224.35637818447779
 30
0.0
  0
VERTEX
  5
24781
  8
0
 10
73.892739623199745
 20
223.16457857886871
 30
0.0
  0
VERTEX
  5
24782
  8
0
 10
73.975488272877101
 20
222.57085496047651
 30
0.0
  0
VERTEX
  5
24783
  8
0
 10
74.062889448525311
 20
221.978696473323
 30
0.0
  0
VERTEX
  5
24784
  8
0
 10
74.251598243223725
 20
220.7994165621144
 30
0.0
  0
VERTEX
  5
24785
  8
0
 10
74.458757052255351
 20
219.62741972759841
 30
0.0
  0
VERTEX
  5
24786
  8
0
 10
74.684246268073366
 20
218.46338264709181
 30
0.0
  0
VERTEX
  5
24787
  8
0
 10
74.927935699678983
 20
217.30797740217761
 30
0.0
  0
VERTEX
  5
24788
  8
0
 10
75.189684647792546
 20
216.1618710906655
 30
0.0
  0
VERTEX
  5
24789
  8
0
 10
75.327284618524573
 20
215.59251204540081
 30
0.0
  0
VERTEX
  5
2478A
  8
0
 10
75.469341986088224
 20
215.02572544142691
 30
0.0
  0
VERTEX
  5
2478B
  8
0
 10
75.766746248449635
 20
213.90019643233379
 30
0.0
  0
VERTEX
  5
2478C
  8
0
 10
76.081725722196097
 20
212.7859339115148
 30
0.0
  0
VERTEX
  5
2478D
  8
0
 10
76.245749725608675
 20
212.23322889323481
 30
0.0
  0
SEQEND
  5
2478E
  8
0
  0
POLYLINE
  5
23C22
  8
0
 66
     1
 10
0.0
 20
0.0
 30
0.0
  0
VERTEX
  5
2478F
  8
0
 10
136.16784501514891
 20
212.23322889323481
 30
0.0
  0
VERTEX
  5
24790
  8
0
 10
136.331869018562
 20
212.7859339115148
 30
0.0
  0
VERTEX
  5
24791
  8
0
 10
136.64684849230801
 20
213.90019643233379
 30
0.0
  0
VERTEX
  5
24792
  8
0
 10
136.94425275466929
 20
215.02572544142691
 30
0.0
  0
VERTEX
  5
24793
  8
0
 10
137.08631012223299
 20
215.59251204540081
 30
0.0
  0
VERTEX
  5
24794
  8
0
 10
137.22391009296501
 20
216.1618710906655
 30
0.0
  0
VERTEX
  5
24795
  8
0
 10
137.48565904107909
 20
217.30797740217801
 30
0.0
  0
VERTEX
  5
24796
  8
0
 10
137.72934847268471
 20
218.46338264709181
 30
0.0
  0
VERTEX
  5
24797
  8
0
 10
137.95483768850221
 20
219.62741972759841
 30
0.0
  0
VERTEX
  5
24798
  8
0
 10
138.16199649753389
 20
220.7994165621144
 30
0.0
  0
VERTEX
  5
24799
  8
0
 10
138.35070529223231
 20
221.978696473323
 30
0.0
  0
VERTEX
  5
2479A
  8
0
 10
138.43810646788091
 20
222.57085496047651
 30
0.0
  0
VERTEX
  5
2479B
  8
0
 10
138.52085511755831
 20
223.16457857886871
 30
0.0
  0
VERTEX
  5
2479C
  8
0
 10
138.6723477338887
 20
224.35637818447779
 30
0.0
  0
VERTEX
  5
2479D
  8
0
 10
138.80509567373741
 20
225.55340717928269
 30
0.0
  0
VERTEX
  5
2479E
  8
0
 10
138.9190222922561
 20
226.7549744331163
 30
0.0
  0
VERTEX
  5
2479F
  8
0
 10
139.0140618114869
 20
227.96038619555071
 30
0.0
  0
VERTEX
  5
247A0
  8
0
 10
139.0901593583398
 20
229.16894649644971
 30
0.0
  0
VERTEX
  5
247A1
  8
0
 10
139.12109073401089
 20
229.7741893500706
 30
0.0
  0
VERTEX
  5
247A2
  8
0
 10
139.14727099627771
 20
230.3799575478015
 30
0.0
  0
VERTEX
  5
247A3
  8
0
 10
139.1853637506801
 20
231.5927201466011
 30
0.0
  0
VERTEX
  5
247A4
  8
0
 10
139.2044156278848
 20
232.8065340785497
 30
0.0
  0
VERTEX
  5
247A5
  8
0
 10
139.20679737037881
 20
233.413616300445
 30
0.0
  0
SEQEND
  5
247A6
  8
0
  0
LINE
  5
23C24
  8
0
 10
78.181797370378717
 20
292.44368873142048
 30
0.0
 11
134.2317973703789
 21
292.44368873142048
 31
0.0
  0
LINE
  5
23C25
  8
0
 10
73.706797370378808
 20
288.94368873142048
 30
0.0
 11
138.70679737037881
 21
288.94368873142048
 31
0.0
  0
LINE
  5
23C26
  8
0
 10
69.706797370378808
 20
283.94368873142048
 30
0.0
 11
142.70679737037881
 21
283.94368873142048
 31
0.0
  0
LINE
  5
23C27
  8
0
 10
131.70679737037881
 20
193.92868873142061
 30
0.0
 11
132.30679737037869
 21
193.92868873142061
 31
0.0
  0
LINE
  5
23C28
  8
0
 10
132.30679737037869
 20
210.55868873142069
 30
0.0
 11
131.70679737037881
 21
210.55868873142069
 31
0.0
  0
LINE
  5
23C29
  8
0
 10
66.780297370378776
 20
196.2436887314206
 30
0.0
 11
68.706797370378808
 21
196.2436887314206
 31
0.0
  0
LINE
  5
23C2A
  8
0
 10
68.706797370378808
 20
208.2436887314206
 30
0.0
 11
66.780297370378776
 21
208.2436887314206
 31
0.0
  0
LINE
  5
23C2B
  8
0
 10
65.706797370378808
 20
197.3171887314206
 30
0.0
 11
66.780297370378776
 21
196.2436887314206
 31
0.0
  0
LINE
  5
23C2C
  8
0
 10
66.780297370378776
 20
208.2436887314206
 30
0.0
 11
65.706797370378808
 21
207.17018873142069
 31
0.0
  0
LINE
  5
23C2D
  8
0
 10
136.64772042239289
 20
192.2410953177104
 30
0.0
 11
137.00679737037899
 21
193.5811887314207
 31
0.0
  0
LINE
  5
23C2E
  8
0
 10
137.00679737037899
 20
210.9061887314206
 30
0.0
 11
136.64772042239289
 21
212.24628214513089
 31
0.0
  0
LINE
  5
23C2F
  8
0
 10
132.30679737037869
 20
193.5811887314207
 30
0.0
 11
132.66587431836481
 21
192.2410953177104
 31
0.0
  0
LINE
  5
23C30
  8
0
 10
132.66587431836481
 20
212.24628214513089
 30
0.0
 11
132.30679737037869
 21
210.9061887314206
 31
0.0
  0
LINE
  5
23C31
  8
0
 10
68.706797370378808
 20
193.92868873142061
 30
0.0
 11
72.456797370378808
 21
193.92868873142061
 31
0.0
  0
LINE
  5
23C32
  8
0
 10
72.456797370378808
 20
210.55868873142069
 30
0.0
 11
68.706797370378808
 21
210.55868873142069
 31
0.0
  0
LINE
  5
23C33
  8
0
 10
80.347720422392726
 20
192.2410953177104
 30
0.0
 11
80.706797370378808
 21
193.5811887314207
 31
0.0
  0
LINE
  5
23C34
  8
0
 10
80.706797370378808
 20
210.9061887314206
 30
0.0
 11
80.347720422392726
 21
212.24628214513089
 31
0.0
  0
LINE
  5
23C35
  8
0
 10
72.456797370378808
 20
193.5811887314207
 30
0.0
 11
72.815874318364877
 21
192.2410953177104
 31
0.0
  0
LINE
  5
23C36
  8
0
 10
72.815874318364877
 20
212.24628214513089
 30
0.0
 11
72.456797370378808
 21
210.9061887314206
 31
0.0
  0
LINE
  5
23C37
  8
0
 10
83.706797370378794
 20
194.7436887314206
 30
0.0
 11
87.206797370378808
 21
194.7436887314206
 31
0.0
  0
LINE
  5
23C38
  8
0
 10
125.20679737037879
 20
194.7436887314206
 30
0.0
 11
128.70679737037881
 21
194.7436887314206
 31
0.0
  0
LINE
  5
23C39
  8
0
 10
128.70679737037881
 20
209.74368873142069
 30
0.0
 11
125.20679737037879
 21
209.74368873142069
 31
0.0
  0
LINE
  5
23C3A
  8
0
 10
87.206797370378808
 20
209.74368873142069
 30
0.0
 11
83.706797370378794
 21
209.74368873142069
 31
0.0
  0
LINE
  5
23C3B
  8
0
 10
66.780297370378776
 20
208.2436887314206
 30
0.0
 11
66.780297370378776
 21
196.2436887314206
 31
0.0
  0
LINE
  5
23C3C
  8
0
 10
65.706797370378808
 20
207.17018873142069
 30
0.0
 11
65.706797370378808
 21
197.3171887314206
 31
0.0
  0
LINE
  5
23C3D
  8
0
 10
137.00679737037899
 20
210.9061887314206
 30
0.0
 11
137.00679737037899
 21
193.5811887314207
 31
0.0
  0
LINE
  5
23C3E
  8
0
 10
132.30679737037869
 20
210.9061887314206
 30
0.0
 11
132.30679737037869
 21
193.5811887314207
 31
0.0
  0
LINE
  5
23C3F
  8
0
 10
136.64772042239289
 20
212.24628214513089
 30
0.0
 11
132.66587431836481
 21
212.24628214513089
 31
0.0
  0
POLYLINE
  5
23C40
  8
0
 66
     1
 10
0.0
 20
0.0
 30
0.0
  0
VERTEX
  5
247A7
  8
0
 10
136.64772042239289
 20
212.24628214513089
 30
0.0
  0
VERTEX
  5
247A8
  8
0
 10
136.7596219098254
 20
211.7970217396032
 30
0.0
  0
VERTEX
  5
247A9
  8
0
 10
136.91826032145491
 20
210.95329574541759
 30
0.0
  0
VERTEX
  5
247AA
  8
0
 10
136.9968451148556
 20
210.147152876772
 30
0.0
  0
VERTEX
  5
247AB
  8
0
 10
137.00679737037899
 20
209.74563379170331
 30
0.0
  0
SEQEND
  5
247AC
  8
0
  0
POLYLINE
  5
23C41
  8
0
 66
     1
 10
0.0
 20
0.0
 30
0.0
  0
VERTEX
  5
247AD
  8
0
 10
137.00679737037899
 20
209.74563379170331
 30
0.0
  0
VERTEX
  5
247AE
  8
0
 10
136.9968451148556
 20
209.3441147066346
 30
0.0
  0
VERTEX
  5
247AF
  8
0
 10
136.91826032145491
 20
208.53797183798909
 30
0.0
  0
VERTEX
  5
247B0
  8
0
 10
136.7596219098254
 20
207.6942458438034
 30
0.0
  0
VERTEX
  5
247B1
  8
0
 10
136.64772042239289
 20
207.24498543827579
 30
0.0
  0
SEQEND
  5
247B2
  8
0
  0
POLYLINE
  5
23C42
  8
0
 66
     1
 10
0.0
 20
0.0
 30
0.0
  0
VERTEX
  5
247B3
  8
0
 10
132.66587431836481
 20
207.24498543827579
 30
0.0
  0
VERTEX
  5
247B4
  8
0
 10
132.5539728309322
 20
207.6942458438034
 30
0.0
  0
VERTEX
  5
247B5
  8
0
 10
132.3953344193028
 20
208.53797183798909
 30
0.0
  0
VERTEX
  5
247B6
  8
0
 10
132.31674962590199
 20
209.3441147066346
 30
0.0
  0
VERTEX
  5
247B7
  8
0
 10
132.30679737037869
 20
209.74563379170331
 30
0.0
  0
SEQEND
  5
247B8
  8
0
  0
POLYLINE
  5
23C43
  8
0
 66
     1
 10
0.0
 20
0.0
 30
0.0
  0
VERTEX
  5
247B9
  8
0
 10
132.30679737037869
 20
209.74563379170331
 30
0.0
  0
VERTEX
  5
247BA
  8
0
 10
132.31674962590199
 20
210.147152876772
 30
0.0
  0
VERTEX
  5
247BB
  8
0
 10
132.3953344193028
 20
210.95329574541759
 30
0.0
  0
VERTEX
  5
247BC
  8
0
 10
132.5539728309322
 20
211.7970217396032
 30
0.0
  0
VERTEX
  5
247BD
  8
0
 10
132.66587431836481
 20
212.24628214513089
 30
0.0
  0
SEQEND
  5
247BE
  8
0
  0
LINE
  5
23C44
  8
0
 10
136.64772042239289
 20
207.24498543827579
 30
0.0
 11
132.66587431836481
 21
207.24498543827579
 31
0.0
  0
POLYLINE
  5
23C45
  8
0
 66
     1
 10
0.0
 20
0.0
 30
0.0
  0
VERTEX
  5
247BF
  8
0
 10
136.64772042239289
 20
207.24498543827579
 30
0.0
  0
VERTEX
  5
247C0
  8
0
 10
136.7596219098254
 20
206.34646462722051
 30
0.0
  0
VERTEX
  5
247C1
  8
0
 10
136.91826032145491
 20
204.65901263884919
 30
0.0
  0
VERTEX
  5
247C2
  8
0
 10
136.9968451148556
 20
203.046726901558
 30
0.0
  0
VERTEX
  5
247C3
  8
0
 10
137.00679737037899
 20
202.2436887314206
 30
0.0
  0
SEQEND
  5
247C4
  8
0
  0
POLYLINE
  5
23C46
  8
0
 66
     1
 10
0.0
 20
0.0
 30
0.0
  0
VERTEX
  5
247C5
  8
0
 10
137.00679737037899
 20
202.2436887314206
 30
0.0
  0
VERTEX
  5
247C6
  8
0
 10
136.9968451148556
 20
201.44065056128329
 30
0.0
  0
VERTEX
  5
247C7
  8
0
 10
136.91826032145491
 20
199.8283648239921
 30
0.0
  0
VERTEX
  5
247C8
  8
0
 10
136.7596219098254
 20
198.14091283562081
 30
0.0
  0
VERTEX
  5
247C9
  8
0
 10
136.64772042239289
 20
197.2423920245655
 30
0.0
  0
SEQEND
  5
247CA
  8
0
  0
POLYLINE
  5
23C47
  8
0
 66
     1
 10
0.0
 20
0.0
 30
0.0
  0
VERTEX
  5
247CB
  8
0
 10
132.66587431836481
 20
197.2423920245655
 30
0.0
  0
VERTEX
  5
247CC
  8
0
 10
132.5539728309322
 20
198.14091283562081
 30
0.0
  0
VERTEX
  5
247CD
  8
0
 10
132.3953344193028
 20
199.8283648239921
 30
0.0
  0
VERTEX
  5
247CE
  8
0
 10
132.31674962590199
 20
201.44065056128329
 30
0.0
  0
VERTEX
  5
247CF
  8
0
 10
132.30679737037869
 20
202.2436887314206
 30
0.0
  0
SEQEND
  5
247D0
  8
0
  0
POLYLINE
  5
23C48
  8
0
 66
     1
 10
0.0
 20
0.0
 30
0.0
  0
VERTEX
  5
247D1
  8
0
 10
132.30679737037869
 20
202.2436887314206
 30
0.0
  0
VERTEX
  5
247D2
  8
0
 10
132.31674962590199
 20
203.046726901558
 30
0.0
  0
VERTEX
  5
247D3
  8
0
 10
132.3953344193028
 20
204.65901263884919
 30
0.0
  0
VERTEX
  5
247D4
  8
0
 10
132.5539728309322
 20
206.34646462722051
 30
0.0
  0
VERTEX
  5
247D5
  8
0
 10
132.66587431836481
 20
207.24498543827579
 30
0.0
  0
SEQEND
  5
247D6
  8
0
  0
POLYLINE
  5
23C49
  8
0
 66
     1
 10
0.0
 20
0.0
 30
0.0
  0
VERTEX
  5
247D7
  8
0
 10
132.30679737037869
 20
194.74174367113801
 30
0.0
  0
VERTEX
  5
247D8
  8
0
 10
132.31674962590199
 20
195.1432627562067
 30
0.0
  0
VERTEX
  5
247D9
  8
0
 10
132.3953344193028
 20
195.9494056248522
 30
0.0
  0
VERTEX
  5
247DA
  8
0
 10
132.5539728309322
 20
196.79313161903789
 30
0.0
  0
VERTEX
  5
247DB
  8
0
 10
132.66587431836481
 20
197.2423920245655
 30
0.0
  0
SEQEND
  5
247DC
  8
0
  0
LINE
  5
23C4A
  8
0
 10
136.64772042239289
 20
197.2423920245655
 30
0.0
 11
132.66587431836481
 21
197.2423920245655
 31
0.0
  0
POLYLINE
  5
23C4B
  8
0
 66
     1
 10
0.0
 20
0.0
 30
0.0
  0
VERTEX
  5
247DD
  8
0
 10
136.64772042239289
 20
197.2423920245655
 30
0.0
  0
VERTEX
  5
247DE
  8
0
 10
136.7596219098254
 20
196.79313161903789
 30
0.0
  0
VERTEX
  5
247DF
  8
0
 10
136.91826032145491
 20
195.9494056248522
 30
0.0
  0
VERTEX
  5
247E0
  8
0
 10
136.9968451148556
 20
195.1432627562067
 30
0.0
  0
VERTEX
  5
247E1
  8
0
 10
137.00679737037899
 20
194.74174367113801
 30
0.0
  0
SEQEND
  5
247E2
  8
0
  0
POLYLINE
  5
23C4C
  8
0
 66
     1
 10
0.0
 20
0.0
 30
0.0
  0
VERTEX
  5
247E3
  8
0
 10
137.00679737037899
 20
194.74174367113801
 30
0.0
  0
VERTEX
  5
247E4
  8
0
 10
136.9968451148556
 20
194.3402245860693
 30
0.0
  0
VERTEX
  5
247E5
  8
0
 10
136.91826032145491
 20
193.5340817174237
 30
0.0
  0
VERTEX
  5
247E6
  8
0
 10
136.7596219098254
 20
192.6903557232381
 30
0.0
  0
VERTEX
  5
247E7
  8
0
 10
136.64772042239289
 20
192.2410953177104
 30
0.0
  0
SEQEND
  5
247E8
  8
0
  0
LINE
  5
23C4D
  8
0
 10
136.64772042239289
 20
192.2410953177104
 30
0.0
 11
132.66587431836481
 21
192.2410953177104
 31
0.0
  0
POLYLINE
  5
23C4E
  8
0
 66
     1
 10
0.0
 20
0.0
 30
0.0
  0
VERTEX
  5
247E9
  8
0
 10
132.66587431836481
 20
192.2410953177104
 30
0.0
  0
VERTEX
  5
247EA
  8
0
 10
132.5539728309322
 20
192.6903557232381
 30
0.0
  0
VERTEX
  5
247EB
  8
0
 10
132.3953344193028
 20
193.5340817174237
 30
0.0
  0
VERTEX
  5
247EC
  8
0
 10
132.31674962590199
 20
194.3402245860693
 30
0.0
  0
VERTEX
  5
247ED
  8
0
 10
132.30679737037869
 20
194.74174367113801
 30
0.0
  0
SEQEND
  5
247EE
  8
0
  0
LINE
  5
23C4F
  8
0
 10
68.706797370378808
 20
210.55868873142069
 30
0.0
 11
68.706797370378808
 21
193.92868873142061
 31
0.0
  0
LINE
  5
23C50
  8
0
 10
72.456797370378808
 20
210.9061887314206
 30
0.0
 11
72.456797370378808
 21
193.5811887314207
 31
0.0
  0
LINE
  5
23C51
  8
0
 10
80.347720422392726
 20
212.24628214513089
 30
0.0
 11
72.815874318364877
 21
212.24628214513089
 31
0.0
  0
POLYLINE
  5
23C52
  8
0
 66
     1
 10
0.0
 20
0.0
 30
0.0
  0
VERTEX
  5
247EF
  8
0
 10
80.347720422392726
 20
212.24628214513089
 30
0.0
  0
VERTEX
  5
247F0
  8
0
 10
80.459621909825259
 20
211.7970217396032
 30
0.0
  0
VERTEX
  5
247F1
  8
0
 10
80.618260321455182
 20
210.95329574541759
 30
0.0
  0
VERTEX
  5
247F2
  8
0
 10
80.696845114855464
 20
210.147152876772
 30
0.0
  0
VERTEX
  5
247F3
  8
0
 10
80.706797370378808
 20
209.74563379170331
 30
0.0
  0
SEQEND
  5
247F4
  8
0
  0
POLYLINE
  5
23C53
  8
0
 66
     1
 10
0.0
 20
0.0
 30
0.0
  0
VERTEX
  5
247F5
  8
0
 10
80.706797370378808
 20
209.74563379170331
 30
0.0
  0
VERTEX
  5
247F6
  8
0
 10
80.696845114855464
 20
209.3441147066346
 30
0.0
  0
VERTEX
  5
247F7
  8
0
 10
80.618260321455182
 20
208.53797183798909
 30
0.0
  0
VERTEX
  5
247F8
  8
0
 10
80.459621909825259
 20
207.6942458438034
 30
0.0
  0
VERTEX
  5
247F9
  8
0
 10
80.347720422392726
 20
207.24498543827579
 30
0.0
  0
SEQEND
  5
247FA
  8
0
  0
POLYLINE
  5
23C54
  8
0
 66
     1
 10
0.0
 20
0.0
 30
0.0
  0
VERTEX
  5
247FB
  8
0
 10
72.815874318364877
 20
207.24498543827579
 30
0.0
  0
VERTEX
  5
247FC
  8
0
 10
72.703972830932344
 20
207.6942458438034
 30
0.0
  0
VERTEX
  5
247FD
  8
0
 10
72.545334419302435
 20
208.53797183798909
 30
0.0
  0
VERTEX
  5
247FE
  8
0
 10
72.466749625902139
 20
209.3441147066346
 30
0.0
  0
VERTEX
  5
247FF
  8
0
 10
72.456797370378808
 20
209.74563379170331
 30
0.0
  0
SEQEND
  5
24800
  8
0
  0
POLYLINE
  5
23C55
  8
0
 66
     1
 10
0.0
 20
0.0
 30
0.0
  0
VERTEX
  5
24801
  8
0
 10
72.456797370378808
 20
209.74563379170331
 30
0.0
  0
VERTEX
  5
24802
  8
0
 10
72.466749625902139
 20
210.147152876772
 30
0.0
  0
VERTEX
  5
24803
  8
0
 10
72.545334419302435
 20
210.95329574541759
 30
0.0
  0
VERTEX
  5
24804
  8
0
 10
72.703972830932344
 20
211.7970217396032
 30
0.0
  0
VERTEX
  5
24805
  8
0
 10
72.815874318364877
 20
212.24628214513089
 30
0.0
  0
SEQEND
  5
24806
  8
0
  0
LINE
  5
23C56
  8
0
 10
80.347720422392726
 20
207.24498543827579
 30
0.0
 11
72.815874318364877
 21
207.24498543827579
 31
0.0
  0
POLYLINE
  5
23C57
  8
0
 66
     1
 10
0.0
 20
0.0
 30
0.0
  0
VERTEX
  5
24807
  8
0
 10
80.347720422392726
 20
207.24498543827579
 30
0.0
  0
VERTEX
  5
24808
  8
0
 10
80.459621909825259
 20
206.34646462722051
 30
0.0
  0
VERTEX
  5
24809
  8
0
 10
80.618260321455182
 20
204.65901263884919
 30
0.0
  0
VERTEX
  5
2480A
  8
0
 10
80.696845114855464
 20
203.046726901558
 30
0.0
  0
VERTEX
  5
2480B
  8
0
 10
80.706797370378808
 20
202.2436887314206
 30
0.0
  0
SEQEND
  5
2480C
  8
0
  0
POLYLINE
  5
23C58
  8
0
 66
     1
 10
0.0
 20
0.0
 30
0.0
  0
VERTEX
  5
2480D
  8
0
 10
80.706797370378808
 20
202.2436887314206
 30
0.0
  0
VERTEX
  5
2480E
  8
0
 10
80.696845114855464
 20
201.44065056128329
 30
0.0
  0
VERTEX
  5
2480F
  8
0
 10
80.618260321455182
 20
199.8283648239921
 30
0.0
  0
VERTEX
  5
24810
  8
0
 10
80.459621909825259
 20
198.14091283562081
 30
0.0
  0
VERTEX
  5
24811
  8
0
 10
80.347720422392726
 20
197.2423920245655
 30
0.0
  0
SEQEND
  5
24812
  8
0
  0
POLYLINE
  5
23C59
  8
0
 66
     1
 10
0.0
 20
0.0
 30
0.0
  0
VERTEX
  5
24813
  8
0
 10
72.815874318364877
 20
197.2423920245655
 30
0.0
  0
VERTEX
  5
24814
  8
0
 10
72.703972830932344
 20
198.14091283562081
 30
0.0
  0
VERTEX
  5
24815
  8
0
 10
72.545334419302435
 20
199.8283648239921
 30
0.0
  0
VERTEX
  5
24816
  8
0
 10
72.466749625902139
 20
201.44065056128329
 30
0.0
  0
VERTEX
  5
24817
  8
0
 10
72.456797370378808
 20
202.2436887314206
 30
0.0
  0
SEQEND
  5
24818
  8
0
  0
POLYLINE
  5
23C5A
  8
0
 66
     1
 10
0.0
 20
0.0
 30
0.0
  0
VERTEX
  5
24819
  8
0
 10
72.456797370378808
 20
202.2436887314206
 30
0.0
  0
VERTEX
  5
2481A
  8
0
 10
72.466749625902139
 20
203.046726901558
 30
0.0
  0
VERTEX
  5
2481B
  8
0
 10
72.545334419302435
 20
204.65901263884919
 30
0.0
  0
VERTEX
  5
2481C
  8
0
 10
72.703972830932344
 20
206.34646462722051
 30
0.0
  0
VERTEX
  5
2481D
  8
0
 10
72.815874318364877
 20
207.24498543827579
 30
0.0
  0
SEQEND
  5
2481E
  8
0
  0
POLYLINE
  5
23C5B
  8
0
 66
     1
 10
0.0
 20
0.0
 30
0.0
  0
VERTEX
  5
2481F
  8
0
 10
72.456797370378808
 20
194.74174367113801
 30
0.0
  0
VERTEX
  5
24820
  8
0
 10
72.466749625902139
 20
195.1432627562067
 30
0.0
  0
VERTEX
  5
24821
  8
0
 10
72.545334419302435
 20
195.9494056248522
 30
0.0
  0
VERTEX
  5
24822
  8
0
 10
72.703972830932344
 20
196.79313161903789
 30
0.0
  0
VERTEX
  5
24823
  8
0
 10
72.815874318364877
 20
197.2423920245655
 30
0.0
  0
SEQEND
  5
24824
  8
0
  0
LINE
  5
23C5C
  8
0
 10
80.347720422392726
 20
197.2423920245655
 30
0.0
 11
72.815874318364877
 21
197.2423920245655
 31
0.0
  0
POLYLINE
  5
23C5D
  8
0
 66
     1
 10
0.0
 20
0.0
 30
0.0
  0
VERTEX
  5
24825
  8
0
 10
80.347720422392726
 20
197.2423920245655
 30
0.0
  0
VERTEX
  5
24826
  8
0
 10
80.459621909825259
 20
196.79313161903789
 30
0.0
  0
VERTEX
  5
24827
  8
0
 10
80.618260321455182
 20
195.9494056248522
 30
0.0
  0
VERTEX
  5
24828
  8
0
 10
80.696845114855464
 20
195.1432627562067
 30
0.0
  0
VERTEX
  5
24829
  8
0
 10
80.706797370378808
 20
194.74174367113801
 30
0.0
  0
SEQEND
  5
2482A
  8
0
  0
POLYLINE
  5
23C5E
  8
0
 66
     1
 10
0.0
 20
0.0
 30
0.0
  0
VERTEX
  5
2482B
  8
0
 10
80.706797370378808
 20
194.74174367113801
 30
0.0
  0
VERTEX
  5
2482C
  8
0
 10
80.696845114855464
 20
194.3402245860693
 30
0.0
  0
VERTEX
  5
2482D
  8
0
 10
80.618260321455182
 20
193.5340817174237
 30
0.0
  0
VERTEX
  5
2482E
  8
0
 10
80.459621909825259
 20
192.6903557232381
 30
0.0
  0
VERTEX
  5
2482F
  8
0
 10
80.347720422392726
 20
192.2410953177104
 30
0.0
  0
SEQEND
  5
24830
  8
0
  0
LINE
  5
23C5F
  8
0
 10
80.347720422392726
 20
192.2410953177104
 30
0.0
 11
72.815874318364877
 21
192.2410953177104
 31
0.0
  0
POLYLINE
  5
23C60
  8
0
 66
     1
 10
0.0
 20
0.0
 30
0.0
  0
VERTEX
  5
24831
  8
0
 10
72.815874318364877
 20
192.2410953177104
 30
0.0
  0
VERTEX
  5
24832
  8
0
 10
72.703972830932344
 20
192.6903557232381
 30
0.0
  0
VERTEX
  5
24833
  8
0
 10
72.545334419302435
 20
193.5340817174237
 30
0.0
  0
VERTEX
  5
24834
  8
0
 10
72.466749625902139
 20
194.3402245860693
 30
0.0
  0
VERTEX
  5
24835
  8
0
 10
72.456797370378808
 20
194.74174367113801
 30
0.0
  0
SEQEND
  5
24836
  8
0
  0
ARC
  5
23C61
  8
0
 10
89.206797370378808
 20
144.18122236975111
 30
0.0
 40
2.0
 50
180.0
 51
253.6805965063968
  0
ARC
  5
23C62
  8
0
 10
89.206797370378808
 20
260.30615509309018
 30
0.0
 40
1.9999999999999829
 50
106.3194034936032
 51
180.0
  0
ARC
  5
23C63
  8
0
 10
106.20679737037879
 20
202.2436887314206
 30
0.0
 40
62.500000000000078
 50
253.6805965063968
 51
286.3194034936032
  0
ARC
  5
23C64
  8
0
 10
106.20679737037879
 20
202.2436887314206
 30
0.0
 40
62.500000000000071
 50
73.680596506396782
 51
78.236799009367516
  0
ARC
  5
23C65
  8
0
 10
123.20679737037879
 20
144.18122236975111
 30
0.0
 40
1.9999999999999829
 50
286.3194034936032
 51
0.0
  0
ARC
  5
23C66
  8
0
 10
123.20679737037879
 20
260.30615509309018
 30
0.0
 40
1.999999999999982
 50
0.0
 51
73.680596506396782
  0
LINE
  5
23C67
  8
0
 10
87.206797370378808
 20
144.18122236975111
 30
0.0
 11
87.206797370378808
 21
260.30615509309018
 31
0.0
  0
LINE
  5
23C68
  8
0
 10
125.20679737037879
 20
144.18122236975111
 30
0.0
 11
125.20679737037879
 21
260.30615509309018
 31
0.0
  0
LINE
  5
23C69
  8
0
 10
315.67492363408792
 20
409.37251748446079
 30
0.0
 11
315.67492363408792
 21
409.27251748446082
 31
0.0
  0
LINE
  5
23C6A
  8
0
 10
315.67492363408792
 20
460.27251748446082
 30
0.0
 11
315.67492363408792
 21
460.17251748446091
 31
0.0
  0
LINE
  5
23C6B
  8
0
 10
327.87492363408768
 20
460.27251748446082
 30
0.0
 11
327.87492363408768
 21
409.27251748446082
 31
0.0
  0
LINE
  5
23C6C
  8
0
 10
341.25979391968667
 20
409.27251748446082
 30
0.0
 11
315.67492363408792
 21
409.27251748446082
 31
0.0
  0
LINE
  5
23C6D
  8
0
 10
315.67492363408792
 20
460.27251748446082
 30
0.0
 11
341.25979391968667
 21
460.27251748446082
 31
0.0
  0
CIRCLE
  5
23C70
  8
0
 10
367.37492363408768
 20
434.77251748446082
 30
0.0
 40
11.0
  0
CIRCLE
  5
23C71
  8
0
 10
367.37492363408768
 20
434.77251748446082
 30
0.0
 40
28.025000000000009
  0
CIRCLE
  5
23C72
  8
0
 10
367.37492363408768
 20
434.77251748446082
 30
0.0
 40
31.025000000000009
  0
CIRCLE
  5
23C73
  8
0
 10
367.37492363408768
 20
434.77251748446082
 30
0.0
 40
32.5
  0
CIRCLE
  5
23C74
  8
0
 10
367.37492363408768
 20
434.77251748446082
 30
0.0
 40
36.5
  0
CIRCLE
  5
23C75
  8
0
 10
367.37492363408768
 20
434.77251748446082
 30
0.0
 40
6.0
  0
LINE
  5
23C76
  8
1
 10
241.7127550867412
 20
434.77251748446082
 30
0.0
 11
412.97709919820409
 21
434.77251748446082
 31
0.0
  0
LINE
  5
23C77
  8
1
 10
367.37492363408768
 20
389.17034192034407
 30
0.0
 11
367.37492363408768
 21
480.37469304857723
 31
0.0
  0
LINE
  5
23C78
  8
0
 10
322.05992363408768
 20
409.27251748446082
 30
0.0
 11
322.05992363408768
 21
408.6725174844604
 31
0.0
  0
LINE
  5
23C79
  8
0
 10
338.68992363408779
 20
408.6725174844604
 30
0.0
 11
338.68992363408779
 21
409.27251748446082
 31
0.0
  0
LINE
  5
23C7A
  8
0
 10
324.37492363408768
 20
474.19901748446091
 30
0.0
 11
324.37492363408768
 21
472.27251748446082
 31
0.0
  0
LINE
  5
23C7B
  8
0
 10
336.37492363408768
 20
472.27251748446082
 30
0.0
 11
336.37492363408768
 21
474.19901748446091
 31
0.0
  0
LINE
  5
23C7C
  8
0
 10
325.4484236340877
 20
475.27251748446082
 30
0.0
 11
324.37492363408768
 21
474.19901748446091
 31
0.0
  0
LINE
  5
23C7D
  8
0
 10
336.37492363408768
 20
474.19901748446091
 30
0.0
 11
335.30142363408783
 21
475.27251748446082
 31
0.0
  0
LINE
  5
23C7E
  8
0
 10
322.05992363408768
 20
472.27251748446082
 30
0.0
 11
322.05992363408768
 21
468.52251748446082
 31
0.0
  0
LINE
  5
23C7F
  8
0
 10
338.68992363408779
 20
468.52251748446082
 30
0.0
 11
338.68992363408779
 21
472.27251748446082
 31
0.0
  0
LINE
  5
23C82
  8
0
 10
336.37492363408768
 20
474.19901748446091
 30
0.0
 11
324.37492363408768
 21
474.19901748446091
 31
0.0
  0
LINE
  5
23C83
  8
0
 10
335.30142363408783
 20
475.27251748446082
 30
0.0
 11
325.4484236340877
 21
475.27251748446082
 31
0.0
  0
LINE
  5
23C84
  8
0
 10
339.0374236340877
 20
403.9725174844607
 30
0.0
 11
321.71242363408783
 21
403.9725174844607
 31
0.0
  0
LINE
  5
23C85
  8
0
 10
339.0374236340877
 20
408.6725174844604
 30
0.0
 11
321.71242363408783
 21
408.6725174844604
 31
0.0
  0
POLYLINE
  5
23C86
  8
0
 66
     1
 10
0.0
 20
0.0
 30
0.0
  0
VERTEX
  5
24837
  8
0
 10
339.0374236340877
 20
404.33159443244671
 30
0.0
  0
VERTEX
  5
24838
  8
0
 10
338.25928178588492
 20
404.21969294501417
 30
0.0
  0
VERTEX
  5
24839
  8
0
 10
336.79790549628888
 20
404.06105453338432
 30
0.0
  0
VERTEX
  5
2483A
  8
0
 10
335.40162508963522
 20
403.98246973998403
 30
0.0
  0
VERTEX
  5
2483B
  8
0
 10
334.70617363408792
 20
403.9725174844607
 30
0.0
  0
SEQEND
  5
2483C
  8
0
  0
POLYLINE
  5
23C87
  8
0
 66
     1
 10
0.0
 20
0.0
 30
0.0
  0
VERTEX
  5
2483D
  8
0
 10
334.70617363408792
 20
403.9725174844607
 30
0.0
  0
VERTEX
  5
2483E
  8
0
 10
334.01072217854022
 20
403.98246973998403
 30
0.0
  0
VERTEX
  5
2483F
  8
0
 10
332.6144417718865
 20
404.06105453338432
 30
0.0
  0
VERTEX
  5
24840
  8
0
 10
331.15306548229051
 20
404.21969294501417
 30
0.0
  0
VERTEX
  5
24841
  8
0
 10
330.37492363408768
 20
404.33159443244671
 30
0.0
  0
SEQEND
  5
24842
  8
0
  0
POLYLINE
  5
23C88
  8
0
 66
     1
 10
0.0
 20
0.0
 30
0.0
  0
VERTEX
  5
24843
  8
0
 10
330.37492363408768
 20
408.3134405364749
 30
0.0
  0
VERTEX
  5
24844
  8
0
 10
331.15306548229051
 20
408.42534202390738
 30
0.0
  0
VERTEX
  5
24845
  8
0
 10
332.6144417718865
 20
408.58398043553677
 30
0.0
  0
VERTEX
  5
24846
  8
0
 10
334.01072217854022
 20
408.66256522893758
 30
0.0
  0
VERTEX
  5
24847
  8
0
 10
334.70617363408792
 20
408.6725174844604
 30
0.0
  0
SEQEND
  5
24848
  8
0
  0
POLYLINE
  5
23C89
  8
0
 66
     1
 10
0.0
 20
0.0
 30
0.0
  0
VERTEX
  5
24849
  8
0
 10
334.70617363408792
 20
408.6725174844604
 30
0.0
  0
VERTEX
  5
2484A
  8
0
 10
335.40162508963522
 20
408.66256522893758
 30
0.0
  0
VERTEX
  5
2484B
  8
0
 10
336.79790549628888
 20
408.58398043553677
 30
0.0
  0
VERTEX
  5
2484C
  8
0
 10
338.25928178588492
 20
408.42534202390738
 30
0.0
  0
VERTEX
  5
2484D
  8
0
 10
339.0374236340877
 20
408.3134405364749
 30
0.0
  0
SEQEND
  5
2484E
  8
0
  0
LINE
  5
23C8A
  8
0
 10
330.37492363408768
 20
404.33159443244671
 30
0.0
 11
330.37492363408768
 21
408.3134405364749
 31
0.0
  0
POLYLINE
  5
23C8B
  8
0
 66
     1
 10
0.0
 20
0.0
 30
0.0
  0
VERTEX
  5
2484F
  8
0
 10
330.37492363408768
 20
404.33159443244671
 30
0.0
  0
VERTEX
  5
24850
  8
0
 10
329.59678178588501
 20
404.21969294501417
 30
0.0
  0
VERTEX
  5
24851
  8
0
 10
328.13540549628902
 20
404.06105453338432
 30
0.0
  0
VERTEX
  5
24852
  8
0
 10
326.73912508963531
 20
403.98246973998403
 30
0.0
  0
VERTEX
  5
24853
  8
0
 10
326.04367363408801
 20
403.9725174844607
 30
0.0
  0
SEQEND
  5
24854
  8
0
  0
POLYLINE
  5
23C8C
  8
0
 66
     1
 10
0.0
 20
0.0
 30
0.0
  0
VERTEX
  5
24855
  8
0
 10
326.04367363408801
 20
403.9725174844607
 30
0.0
  0
VERTEX
  5
24856
  8
0
 10
325.3482221785402
 20
403.98246973998403
 30
0.0
  0
VERTEX
  5
24857
  8
0
 10
323.9519417718866
 20
404.06105453338432
 30
0.0
  0
VERTEX
  5
24858
  8
0
 10
322.49056548229049
 20
404.21969294501417
 30
0.0
  0
VERTEX
  5
24859
  8
0
 10
321.71242363408783
 20
404.33159443244671
 30
0.0
  0
SEQEND
  5
2485A
  8
0
  0
POLYLINE
  5
23C8D
  8
0
 66
     1
 10
0.0
 20
0.0
 30
0.0
  0
VERTEX
  5
2485B
  8
0
 10
321.71242363408783
 20
408.3134405364749
 30
0.0
  0
VERTEX
  5
2485C
  8
0
 10
322.49056548229049
 20
408.42534202390738
 30
0.0
  0
VERTEX
  5
2485D
  8
0
 10
323.9519417718866
 20
408.58398043553677
 30
0.0
  0
VERTEX
  5
2485E
  8
0
 10
325.3482221785402
 20
408.66256522893758
 30
0.0
  0
VERTEX
  5
2485F
  8
0
 10
326.04367363408801
 20
408.6725174844604
 30
0.0
  0
SEQEND
  5
24860
  8
0
  0
POLYLINE
  5
23C8E
  8
0
 66
     1
 10
0.0
 20
0.0
 30
0.0
  0
VERTEX
  5
24861
  8
0
 10
326.04367363408801
 20
408.6725174844604
 30
0.0
  0
VERTEX
  5
24862
  8
0
 10
326.73912508963531
 20
408.66256522893758
 30
0.0
  0
VERTEX
  5
24863
  8
0
 10
328.13540549628902
 20
408.58398043553677
 30
0.0
  0
VERTEX
  5
24864
  8
0
 10
329.59678178588501
 20
408.42534202390738
 30
0.0
  0
VERTEX
  5
24865
  8
0
 10
330.37492363408768
 20
408.3134405364749
 30
0.0
  0
SEQEND
  5
24866
  8
0
  0
LINE
  5
23C8F
  8
0
 10
338.68992363408779
 20
472.27251748446082
 30
0.0
 11
322.05992363408768
 21
472.27251748446082
 31
0.0
  0
LINE
  5
23C90
  8
0
 10
339.0374236340877
 20
468.52251748446082
 30
0.0
 11
321.71242363408783
 21
468.52251748446082
 31
0.0
  0
POLYLINE
  5
23C91
  8
0
 66
     1
 10
0.0
 20
0.0
 30
0.0
  0
VERTEX
  5
24867
  8
0
 10
339.0374236340877
 20
460.63159443244649
 30
0.0
  0
VERTEX
  5
24868
  8
0
 10
338.25928178588953
 20
460.51969294501492
 30
0.0
  0
VERTEX
  5
24869
  8
0
 10
336.7979054963011
 20
460.36105453338541
 30
0.0
  0
VERTEX
  5
2486A
  8
0
 10
335.40162508965568
 20
460.28246973998409
 30
0.0
  0
VERTEX
  5
2486B
  8
0
 10
334.70617363411202
 20
460.27251748446082
 30
0.0
  0
SEQEND
  5
2486C
  8
0
  0
POLYLINE
  5
23C92
  8
0
 66
     1
 10
0.0
 20
0.0
 30
0.0
  0
VERTEX
  5
2486D
  8
0
 10
334.70617363408792
 20
460.27251748446082
 30
0.0
  0
VERTEX
  5
2486E
  8
0
 10
334.01072217854022
 20
460.2824697399837
 30
0.0
  0
VERTEX
  5
2486F
  8
0
 10
332.6144417718865
 20
460.3610545333845
 30
0.0
  0
VERTEX
  5
24870
  8
0
 10
331.15306548229051
 20
460.5196929450139
 30
0.0
  0
VERTEX
  5
24871
  8
0
 10
330.37492363408768
 20
460.63159443244649
 30
0.0
  0
SEQEND
  5
24872
  8
0
  0
POLYLINE
  5
23C93
  8
0
 66
     1
 10
0.0
 20
0.0
 30
0.0
  0
VERTEX
  5
24873
  8
0
 10
330.37492363408768
 20
468.1634405364747
 30
0.0
  0
VERTEX
  5
24874
  8
0
 10
331.15306548229051
 20
468.27534202390729
 30
0.0
  0
VERTEX
  5
24875
  8
0
 10
332.6144417718865
 20
468.43398043553668
 30
0.0
  0
VERTEX
  5
24876
  8
0
 10
334.01072217854022
 20
468.51256522893749
 30
0.0
  0
VERTEX
  5
24877
  8
0
 10
334.70617363408792
 20
468.52251748446082
 30
0.0
  0
SEQEND
  5
24878
  8
0
  0
POLYLINE
  5
23C94
  8
0
 66
     1
 10
0.0
 20
0.0
 30
0.0
  0
VERTEX
  5
24879
  8
0
 10
334.70617363408792
 20
468.52251748446082
 30
0.0
  0
VERTEX
  5
2487A
  8
0
 10
335.40162508963522
 20
468.51256522893749
 30
0.0
  0
VERTEX
  5
2487B
  8
0
 10
336.79790549628888
 20
468.43398043553668
 30
0.0
  0
VERTEX
  5
2487C
  8
0
 10
338.25928178588492
 20
468.27534202390729
 30
0.0
  0
VERTEX
  5
2487D
  8
0
 10
339.0374236340877
 20
468.1634405364747
 30
0.0
  0
SEQEND
  5
2487E
  8
0
  0
LINE
  5
23C95
  8
0
 10
330.37492363408768
 20
460.63159443244649
 30
0.0
 11
330.37492363408768
 21
468.1634405364747
 31
0.0
  0
POLYLINE
  5
23C96
  8
0
 66
     1
 10
0.0
 20
0.0
 30
0.0
  0
VERTEX
  5
2487F
  8
0
 10
330.37492363408768
 20
460.63159443244649
 30
0.0
  0
VERTEX
  5
24880
  8
0
 10
329.59678178588638
 20
460.5196929450143
 30
0.0
  0
VERTEX
  5
24881
  8
0
 10
328.135405496293
 20
460.3610545333849
 30
0.0
  0
VERTEX
  5
24882
  8
0
 10
326.73912508964207
 20
460.28246973998409
 30
0.0
  0
VERTEX
  5
24883
  8
0
 10
326.04367363409568
 20
460.27251748446082
 30
0.0
  0
SEQEND
  5
24884
  8
0
  0
POLYLINE
  5
23C97
  8
0
 66
     1
 10
0.0
 20
0.0
 30
0.0
  0
VERTEX
  5
24885
  8
0
 10
326.04367363408801
 20
460.27251748446082
 30
0.0
  0
VERTEX
  5
24886
  8
0
 10
325.3482221785402
 20
460.2824697399837
 30
0.0
  0
VERTEX
  5
24887
  8
0
 10
323.9519417718866
 20
460.3610545333845
 30
0.0
  0
VERTEX
  5
24888
  8
0
 10
322.49056548229049
 20
460.5196929450139
 30
0.0
  0
VERTEX
  5
24889
  8
0
 10
321.71242363408783
 20
460.63159443244649
 30
0.0
  0
SEQEND
  5
2488A
  8
0
  0
POLYLINE
  5
23C98
  8
0
 66
     1
 10
0.0
 20
0.0
 30
0.0
  0
VERTEX
  5
2488B
  8
0
 10
321.71242363408783
 20
468.1634405364747
 30
0.0
  0
VERTEX
  5
2488C
  8
0
 10
322.49056548229049
 20
468.27534202390729
 30
0.0
  0
VERTEX
  5
2488D
  8
0
 10
323.9519417718866
 20
468.43398043553668
 30
0.0
  0
VERTEX
  5
2488E
  8
0
 10
325.3482221785402
 20
468.51256522893749
 30
0.0
  0
VERTEX
  5
2488F
  8
0
 10
326.04367363408801
 20
468.52251748446082
 30
0.0
  0
SEQEND
  5
24890
  8
0
  0
POLYLINE
  5
23C99
  8
0
 66
     1
 10
0.0
 20
0.0
 30
0.0
  0
VERTEX
  5
24891
  8
0
 10
326.04367363408801
 20
468.52251748446082
 30
0.0
  0
VERTEX
  5
24892
  8
0
 10
326.73912508963531
 20
468.51256522893749
 30
0.0
  0
VERTEX
  5
24893
  8
0
 10
328.13540549628902
 20
468.43398043553668
 30
0.0
  0
VERTEX
  5
24894
  8
0
 10
329.59678178588501
 20
468.27534202390729
 30
0.0
  0
VERTEX
  5
24895
  8
0
 10
330.37492363408768
 20
468.1634405364747
 30
0.0
  0
SEQEND
  5
24896
  8
0
  0
LINE
  5
23C9A
  8
1
 10
330.37492363408768
 20
388.90068344351539
 30
0.0
 11
330.37492363408768
 21
480.64435152540722
 31
0.0
  0
LINE
  5
23CA0
  8
1
 10
330.37492363408768
 20
462.87469304857723
 30
0.0
 11
330.37492363408768
 21
406.67034192034401
 31
0.0
  0
LINE
  5
23CA4
  8
0
 10
334.37492363408768
 20
283.94368873142048
 30
0.0
 11
334.37492363408768
 21
281.94368873142048
 31
0.0
  0
LINE
  5
23CA5
  8
0
 10
378.37492363408768
 20
292.44368873142048
 30
0.0
 11
378.37492363408768
 21
295.74368873142021
 31
0.0
  0
LINE
  5
23CA6
  8
0
 10
356.37492363408779
 20
295.74368873142021
 30
0.0
 11
356.37492363408779
 21
292.44368873142048
 31
0.0
  0
ARC
  5
23CA7
  8
0
 10
339.34992363408759
 20
289.44368873142048
 30
0.0
 40
2.9999999999999849
 50
90.0
 51
180.0
  0
ARC
  5
23CA8
  8
0
 10
395.39992363408737
 20
289.44368873142048
 30
0.0
 40
3.0
 50
0.0
 51
90.0
  0
LINE
  5
23CA9
  8
0
 10
398.39992363408737
 20
288.94368873142048
 30
0.0
 11
398.39992363408737
 21
289.44368873142048
 31
0.0
  0
LINE
  5
23CAA
  8
0
 10
336.3499236340877
 20
289.44368873142048
 30
0.0
 11
336.3499236340877
 21
288.94368873142048
 31
0.0
  0
ARC
  5
23CAB
  8
0
 10
334.87492363408768
 20
284.94368873142048
 30
0.0
 40
4.0000000000000142
 50
90.0
 51
180.0
  0
ARC
  5
23CAC
  8
0
 10
399.87492363408768
 20
284.94368873142048
 30
0.0
 40
4.0000000000000284
 50
0.0
 51
90.0
  0
LINE
  5
23CAD
  8
0
 10
403.87492363408768
 20
283.94368873142048
 30
0.0
 11
403.87492363408768
 21
284.94368873142048
 31
0.0
  0
LINE
  5
23CAE
  8
0
 10
330.87492363408768
 20
284.94368873142048
 30
0.0
 11
330.87492363408768
 21
283.94368873142048
 31
0.0
  0
LINE
  5
23CAF
  8
2
 10
373.37492363408768
 20
281.74368873142021
 30
0.0
 11
373.37492363408768
 21
295.74368873142021
 31
0.0
  0
LINE
  5
23CB0
  8
2
 10
361.37492363408768
 20
295.74368873142021
 30
0.0
 11
361.37492363408768
 21
281.74368873142021
 31
0.0
  0
LINE
  5
23CB1
  8
0
 10
346.42856356843407
 20
281.94368873142048
 30
0.0
 11
327.87492363408768
 21
281.94368873142048
 31
0.0
  0
LINE
  5
23CB2
  8
0
 10
327.87492363408768
 20
281.94368873142048
 30
0.0
 11
327.87492363408768
 21
278.24368873142021
 31
0.0
  0
ARC
  5
23CB3
  8
0
 10
335.07492363408761
 20
202.24368873142021
 30
0.0
 40
10.0
 50
270.0
 51
326.8523928858346
  0
LINE
  5
23CB4
  8
0
 10
325.67492363408741
 20
192.24368873142021
 30
0.0
 11
330.37043170977631
 21
192.24368873142021
 31
0.0
  0
LINE
  5
23CB5
  8
0
 10
330.3794155583987
 20
192.24368873142021
 30
0.0
 11
335.07492363408761
 21
192.24368873142021
 31
0.0
  0
LINE
  5
23CB6
  8
0
 10
327.87492363408768
 20
278.24368873142021
 30
0.0
 11
315.80400107280371
 21
203.8452154371416
 31
0.0
  0
LINE
  5
23CB7
  8
0
 10
343.44757034297299
 20
196.77571039494291
 30
0.0
 11
346.42856356843407
 21
201.3402498979367
 31
0.0
  0
ARC
  5
23CB8
  8
0
 10
325.67492363408741
 20
202.24368873142021
 30
0.0
 40
9.9999999999999982
 50
170.78424212497441
 51
270.0
  0
LINE
  5
23CB9
  8
2
 10
336.87492363408768
 20
281.74368873142021
 30
0.0
 11
397.87492363408779
 21
281.74368873142021
 31
0.0
  0
LINE
  5
23CBA
  8
0
 10
346.42856356843407
 20
281.94368873142048
 30
0.0
 11
346.42856356843407
 21
201.3402498979367
 31
0.0
  0
POLYLINE
  5
23CBB
  8
0
 66
     1
 10
0.0
 20
0.0
 30
0.0
  0
VERTEX
  5
24897
  8
0
 10
346.42856356843407
 20
201.3402498979367
 30
0.0
  0
VERTEX
  5
24898
  8
0
 10
346.69632813644421
 20
201.75025483781519
 30
0.0
  0
VERTEX
  5
24899
  8
0
 10
347.23860975461821
 20
202.58060421491561
 30
0.0
  0
VERTEX
  5
2489A
  8
0
 10
347.7896966643421
 20
203.4244363804946
 30
0.0
  0
VERTEX
  5
2489B
  8
0
 10
348.06846694432528
 20
203.85129342410571
 30
0.0
  0
VERTEX
  5
2489C
  8
0
 10
348.34934788402728
 20
204.2813823400943
 30
0.0
  0
VERTEX
  5
2489D
  8
0
 10
348.91731868704801
 20
205.15106736480041
 30
0.0
  0
VERTEX
  5
2489E
  8
0
 10
349.49336070875552
 20
206.03311115510911
 30
0.0
  0
VERTEX
  5
2489F
  8
0
 10
350.07722205508622
 20
206.92712800722211
 30
0.0
  0
VERTEX
  5
248A0
  8
0
 10
350.66864741270768
 20
207.83272698171089
 30
0.0
  0
VERTEX
  5
248A1
  8
0
 10
351.26737816066679
 20
208.74951207446929
 30
0.0
  0
VERTEX
  5
248A2
  8
0
 10
351.56940136034882
 20
209.21197432161401
 30
0.0
  0
VERTEX
  5
248A3
  8
0
 10
351.8731524834779
 20
209.67708238987731
 30
0.0
  0
VERTEX
  5
248A4
  8
0
 10
352.48570548561111
 20
210.6150323161078
 30
0.0
  0
VERTEX
  5
248A5
  8
0
 10
353.10476930732779
 20
211.56295170249399
 30
0.0
  0
VERTEX
  5
248A6
  8
0
 10
353.73007324181123
 20
212.5204260388827
 30
0.0
  0
VERTEX
  5
248A7
  8
0
 10
354.36134385354171
 20
213.48703663689139
 30
0.0
  0
VERTEX
  5
248A8
  8
0
 10
354.9983050978658
 20
214.4623608129946
 30
0.0
  0
VERTEX
  5
248A9
  8
0
 10
355.31883275954442
 20
214.95315735726041
 30
0.0
  0
VERTEX
  5
248AA
  8
0
 10
355.64067844170631
 20
215.4459720733584
 30
0.0
  0
VERTEX
  5
248AB
  8
0
 10
356.28818298536129
 20
216.43744030033619
 30
0.0
  0
VERTEX
  5
248AC
  8
0
 10
356.94053558533551
 20
217.4363319405557
 30
0.0
  0
VERTEX
  5
248AD
  8
0
 10
357.26844084101413
 20
217.9384251623714
 30
0.0
  0
VERTEX
  5
248AE
  8
0
 10
357.5974509781559
 20
218.442210194502
 30
0.0
  0
VERTEX
  5
248AF
  8
0
 10
358.2586419051122
 20
219.4546352075258
 30
0.0
  0
VERTEX
  5
248B0
  8
0
 10
358.92381923786979
 20
220.4731642621837
 30
0.0
  0
VERTEX
  5
248B1
  8
0
 10
359.25781197369309
 20
220.98457872074599
 30
0.0
  0
VERTEX
  5
248B2
  8
0
 10
359.59269210490362
 20
221.4973519718296
 30
0.0
  0
VERTEX
  5
248B3
  8
0
 10
360.26496801868819
 20
222.5267504753792
 30
0.0
  0
VERTEX
  5
248B4
  8
0
 10
360.94035300360019
 20
223.56090963314909
 30
0.0
  0
VERTEX
  5
248B5
  8
0
 10
363.32440973310349
 20
227.21141142773561
 30
0.0
  0
VERTEX
  5
248B6
  8
0
 10
367.45469032863002
 20
233.53575620507539
 30
0.0
  0
VERTEX
  5
248B7
  8
0
 10
371.58371681925559
 20
239.85818067903671
 30
0.0
  0
VERTEX
  5
248B8
  8
0
 10
373.9658898945695
 20
243.5057981953619
 30
0.0
  0
VERTEX
  5
248B9
  8
0
 10
374.64058232592839
 20
244.53889690521601
 30
0.0
  0
VERTEX
  5
248BA
  8
0
 10
375.31209759966669
 20
245.56713070583729
 30
0.0
  0
VERTEX
  5
248BB
  8
0
 10
375.64657198120273
 20
246.07928266721089
 30
0.0
  0
VERTEX
  5
248BC
  8
0
 10
375.98014207277771
 20
246.59004996684959
 30
0.0
  0
VERTEX
  5
248BD
  8
0
 10
376.64442361997959
 20
247.60720738184
 30
0.0
  0
VERTEX
  5
248BE
  8
0
 10
377.30465176145941
 20
248.61815816395981
 30
0.0
  0
VERTEX
  5
248BF
  8
0
 10
377.96053778989472
 20
249.62246024042321
 30
0.0
  0
VERTEX
  5
248C0
  8
0
 10
378.61179489669888
 20
250.61967444581751
 30
0.0
  0
VERTEX
  5
248C1
  8
0
 10
379.25813829744129
 20
251.6093647141447
 30
0.0
  0
VERTEX
  5
248C2
  8
0
 10
379.57937894704941
 20
252.1012529957348
 30
0.0
  0
VERTEX
  5
248C3
  8
0
 10
379.89928535637591
 20
252.5910982695045
 30
0.0
  0
VERTEX
  5
248C4
  8
0
 10
380.53495571003577
 20
253.5644458153424
 30
0.0
  0
VERTEX
  5
248C5
  8
0
 10
381.16487138982939
 20
254.5289817221724
 30
0.0
  0
VERTEX
  5
248C6
  8
0
 10
381.4775850466267
 20
255.007813350297
 30
0.0
  0
VERTEX
  5
248C7
  8
0
 10
381.78875694359471
 20
255.48428421369911
 30
0.0
  0
VERTEX
  5
248C8
  8
0
 10
382.40633955604648
 20
256.42993555125389
 30
0.0
  0
VERTEX
  5
248C9
  8
0
 10
383.0173491680776
 20
257.3655222164648
 30
0.0
  0
VERTEX
  5
248CA
  8
0
 10
383.32030548819381
 20
257.8294132709766
 30
0.0
  0
VERTEX
  5
248CB
  8
0
 10
383.62151859484948
 20
258.29063509208208
 30
0.0
  0
VERTEX
  5
248CC
  8
0
 10
384.21858364262829
 20
259.2048696408774
 30
0.0
  0
VERTEX
  5
248CD
  8
0
 10
384.80828322431222
 20
260.10782608254482
 30
0.0
  0
VERTEX
  5
248CE
  8
0
 10
385.39035947360298
 20
260.99910956851448
 30
0.0
  0
VERTEX
  5
248CF
  8
0
 10
385.96455785776288
 20
261.87833035461608
 30
0.0
  0
VERTEX
  5
248D0
  8
0
 10
386.53062728892149
 20
262.74510397150698
 30
0.0
  0
VERTEX
  5
248D1
  8
0
 10
386.81053615117298
 20
263.17370442858692
 30
0.0
  0
VERTEX
  5
248D2
  8
0
 10
387.08832023387009
 20
263.59905139279499
 30
0.0
  0
VERTEX
  5
248D3
  8
0
 10
387.63739282230563
 20
264.43979920078033
 30
0.0
  0
VERTEX
  5
248D4
  8
0
 10
388.17760495347011
 20
265.26697974974468
 30
0.0
  0
VERTEX
  5
248D5
  8
0
 10
388.70872040114358
 20
266.08023132671912
 30
0.0
  0
VERTEX
  5
248D6
  8
0
 10
389.23050691694152
 20
266.87919830965171
 30
0.0
  0
VERTEX
  5
248D7
  8
0
 10
389.74273633187391
 20
267.66353132291903
 30
0.0
  0
VERTEX
  5
248D8
  8
0
 10
389.99519696375728
 20
268.05010265670722
 30
0.0
  0
VERTEX
  5
248D9
  8
0
 10
390.24518465612027
 20
268.4328873901004
 30
0.0
  0
VERTEX
  5
248DA
  8
0
 10
390.73763217697621
 20
269.18693008395758
 30
0.0
  0
VERTEX
  5
248DB
  8
0
 10
391.21986355492942
 20
269.92532967354742
 30
0.0
  0
VERTEX
  5
248DC
  8
0
 10
391.69166791782618
 20
270.64776326840962
 30
0.0
  0
VERTEX
  5
248DD
  8
0
 10
392.15283895308221
 20
271.35391495975909
 30
0.0
  0
VERTEX
  5
248DE
  8
0
 10
392.6031749978979
 20
272.04347595863243
 30
0.0
  0
VERTEX
  5
248DF
  8
0
 10
392.82421817243539
 20
272.38194043195881
 30
0.0
  0
VERTEX
  5
248E0
  8
0
 10
393.04247912744398
 20
272.71614473091131
 30
0.0
  0
VERTEX
  5
248E1
  8
0
 10
393.47055924097413
 20
273.37162712918149
 30
0.0
  0
VERTEX
  5
248E2
  8
0
 10
393.88722814582479
 20
274.00963652135903
 30
0.0
  0
VERTEX
  5
248E3
  8
0
 10
394.29230363927542
 20
274.62989391602792
 30
0.0
  0
VERTEX
  5
248E4
  8
0
 10
394.68560858822002
 20
275.23212808444077
 30
0.0
  0
VERTEX
  5
248E5
  8
0
 10
395.06697100662501
 20
275.81607567912118
 30
0.0
  0
VERTEX
  5
248E6
  8
0
 10
395.25312144719737
 20
276.10111189867263
 30
0.0
  0
VERTEX
  5
248E7
  8
0
 10
395.43622413073763
 20
276.381481349024
 30
0.0
  0
VERTEX
  5
248E8
  8
0
 10
395.79320649200741
 20
276.92809785119198
 30
0.0
  0
VERTEX
  5
248E9
  8
0
 10
396.13776198769438
 20
277.45568615887493
 30
0.0
  0
VERTEX
  5
248EA
  8
0
 10
396.46973994913009
 20
277.96401556605178
 30
0.0
  0
VERTEX
  5
248EB
  8
0
 10
396.78899520760342
 20
278.4528637883131
 30
0.0
  0
VERTEX
  5
248EC
  8
0
 10
397.09538815783941
 20
278.9220170600633
 30
0.0
  0
VERTEX
  5
248ED
  8
0
 10
397.24371917704588
 20
279.14914364019302
 30
0.0
  0
VERTEX
  5
248EE
  8
0
 10
397.38878481904749
 20
279.37127022799808
 30
0.0
  0
VERTEX
  5
248EF
  8
0
 10
397.6690568935083
 20
279.80042684081309
 30
0.0
  0
VERTEX
  5
248F0
  8
0
 10
397.93608182267741
 20
280.20929923510988
 30
0.0
  0
VERTEX
  5
248F1
  8
0
 10
398.06458989077828
 20
280.40607262871941
 30
0.0
  0
VERTEX
  5
248F2
  8
0
 10
398.189742840777
 20
280.5977086174575
 30
0.0
  0
VERTEX
  5
248F3
  8
0
 10
398.42992902585547
 20
280.96548514257762
 30
0.0
  0
VERTEX
  5
248F4
  8
0
 10
398.65653534829431
 20
281.31246798761191
 30
0.0
  0
VERTEX
  5
248F5
  8
0
 10
398.76471486180759
 20
281.47811400741102
 30
0.0
  0
VERTEX
  5
248F6
  8
0
 10
398.8694627167319
 20
281.63850542245149
 30
0.0
  0
VERTEX
  5
248F7
  8
0
 10
399.06861802139929
 20
281.94345487608331
 30
0.0
  0
VERTEX
  5
248F8
  8
0
 10
399.2539141748311
 20
282.2271829989345
 30
0.0
  0
VERTEX
  5
248F9
  8
0
 10
399.42527014995039
 20
282.48956572118499
 30
0.0
  0
VERTEX
  5
248FA
  8
0
 10
399.58261101550028
 20
282.73048830702061
 30
0.0
  0
VERTEX
  5
248FB
  8
0
 10
399.72586796880842
 20
282.94984540480573
 30
0.0
  0
VERTEX
  5
248FC
  8
0
 10
399.79219516078138
 20
283.0514065507009
 30
0.0
  0
VERTEX
  5
248FD
  8
0
 10
399.85497836587552
 20
283.14754109315072
 30
0.0
  0
VERTEX
  5
248FE
  8
0
 10
399.96988574876701
 20
283.32348892285842
 30
0.0
  0
VERTEX
  5
248FF
  8
0
 10
400.07053987030167
 20
283.47761195472589
 30
0.0
  0
VERTEX
  5
24900
  8
0
 10
400.15689671602462
 20
283.60984279318927
 30
0.0
  0
VERTEX
  5
24901
  8
0
 10
400.2289185234531
 20
283.72012361579442
 30
0.0
  0
VERTEX
  5
24902
  8
0
 10
400.28657379858981
 20
283.80840619848192
 30
0.0
  0
VERTEX
  5
24903
  8
0
 10
400.3100058621589
 20
283.8442857096752
 30
0.0
  0
VERTEX
  5
24904
  8
0
 10
400.32983732969518
 20
283.87465193667498
 30
0.0
  0
VERTEX
  5
24905
  8
0
 10
400.3586901983108
 20
283.91883186216
 30
0.0
  0
VERTEX
  5
24906
  8
0
 10
400.37311978753439
 20
283.94092665575448
 30
0.0
  0
VERTEX
  5
24907
  8
0
 10
400.37492363408768
 20
283.94368873142048
 30
0.0
  0
SEQEND
  5
24908
  8
0
  0
LINE
  5
23CBC
  8
0
 10
356.37492363408779
 20
295.74368873142021
 30
0.0
 11
378.37492363408779
 21
295.74368873142021
 31
0.0
  0
LINE
  5
23CBD
  8
0
 10
339.34992363408759
 20
292.44368873142048
 30
0.0
 11
395.39992363408737
 21
292.44368873142048
 31
0.0
  0
LINE
  5
23CBE
  8
0
 10
334.87492363408768
 20
288.94368873142048
 30
0.0
 11
399.87492363408768
 21
288.94368873142048
 31
0.0
  0
LINE
  5
23CBF
  8
0
 10
330.87492363408768
 20
283.94368873142048
 30
0.0
 11
403.87492363408768
 21
283.94368873142048
 31
0.0
  0
LINE
  5
23CC0
  8
1
 10
367.37492363408768
 20
308.22400870810998
 30
0.0
 11
367.37492363408768
 21
243.99368873142021
 31
0.0
  0
LINE
  5
23CC1
  8
2
 10
590.5565225960745
 20
233.413616300445
 30
0.0
 11
590.5565225960745
 21
281.74368873142072
 31
0.0
  0
LINE
  5
23CC2
  8
2
 10
529.5565225960745
 20
281.74368873142072
 30
0.0
 11
529.5565225960745
 21
233.413616300445
 31
0.0
  0
LINE
  5
23CC3
  8
0
 10
593.05652259607439
 20
233.413616300445
 30
0.0
 11
593.05652259607439
 21
283.94368873142048
 31
0.0
  0
LINE
  5
23CC4
  8
0
 10
527.05652259607439
 20
283.94368873142048
 30
0.0
 11
527.05652259607439
 21
233.413616300445
 31
0.0
  0
ARC
  5
23CC7
  8
0
 10
532.03152259607475
 20
289.44368873142048
 30
0.0
 40
2.9999999999999849
 50
90.0
 51
180.0
  0
ARC
  5
23CC8
  8
0
 10
588.08152259607459
 20
289.44368873142048
 30
0.0
 40
2.9999999999999849
 50
0.0
 51
90.0
  0
LINE
  5
23CC9
  8
0
 10
591.08152259607448
 20
288.94368873142048
 30
0.0
 11
591.08152259607448
 21
289.44368873142048
 31
0.0
  0
LINE
  5
23CCA
  8
0
 10
529.03152259607475
 20
289.44368873142048
 30
0.0
 11
529.03152259607475
 21
288.94368873142048
 31
0.0
  0
ARC
  5
23CCB
  8
0
 10
527.5565225960745
 20
284.94368873142048
 30
0.0
 40
4.0000000000000142
 50
90.0
 51
180.0
  0
ARC
  5
23CCC
  8
0
 10
592.55652259607439
 20
284.94368873142048
 30
0.0
 40
4.0000000000000142
 50
0.0
 51
90.0
  0
LINE
  5
23CCD
  8
0
 10
596.5565225960745
 20
283.94368873142048
 30
0.0
 11
596.5565225960745
 21
284.94368873142048
 31
0.0
  0
LINE
  5
23CCE
  8
0
 10
523.5565225960745
 20
284.94368873142048
 30
0.0
 11
523.5565225960745
 21
283.94368873142048
 31
0.0
  0
LINE
  5
23CCF
  8
2
 10
566.0565225960745
 20
281.74368873142072
 30
0.0
 11
566.0565225960745
 21
295.74368873142072
 31
0.0
  0
LINE
  5
23CD0
  8
2
 10
554.0565225960745
 20
295.74368873142072
 30
0.0
 11
554.0565225960745
 21
281.74368873142072
 31
0.0
  0
LINE
  5
23CD1
  8
0
 10
534.55652259607439
 20
192.2436887314206
 30
0.0
 11
534.55652259607439
 21
201.3402498979367
 31
0.0
  0
LINE
  5
23CD2
  8
0
 10
534.55652259607439
 20
192.2436887314206
 30
0.0
 11
537.5565225960745
 21
192.2436887314206
 31
0.0
  0
LINE
  5
23CD3
  8
0
 10
585.55652259607439
 20
201.3402498979367
 30
0.0
 11
585.55652259607439
 21
192.2436887314206
 31
0.0
  0
LINE
  5
23CD4
  8
0
 10
582.5565225960745
 20
192.2436887314206
 30
0.0
 11
585.55652259607439
 21
192.2436887314206
 31
0.0
  0
POLYLINE
  5
23CD5
  8
0
 66
     1
 10
0.0
 20
0.0
 30
0.0
  0
VERTEX
  5
24909
  8
0
 10
537.5565225960745
 20
201.88398377034721
 30
0.0
  0
VERTEX
  5
2490A
  8
0
 10
537.13740822658428
 20
202.5998847239762
 30
0.0
  0
VERTEX
  5
2490B
  8
0
 10
536.32849300300404
 20
204.07055513712481
 30
0.0
  0
VERTEX
  5
2490C
  8
0
 10
535.55979816418585
 20
205.59096373883449
 30
0.0
  0
VERTEX
  5
2490D
  8
0
 10
535.19094329534516
 20
206.36901766626261
 30
0.0
  0
VERTEX
  5
2490E
  8
0
 10
534.8326266924131
 20
207.1585333484463
 30
0.0
  0
VERTEX
  5
2490F
  8
0
 10
534.14821118545706
 20
208.77060684465911
 30
0.0
  0
VERTEX
  5
24910
  8
0
 10
533.50771176725118
 20
210.4244516695085
 30
0.0
  0
VERTEX
  5
24911
  8
0
 10
532.91221412141431
 20
212.11726446020469
 30
0.0
  0
VERTEX
  5
24912
  8
0
 10
532.36272765095407
 20
213.84617580100161
 30
0.0
  0
VERTEX
  5
24913
  8
0
 10
531.86018376727043
 20
215.60825508701731
 30
0.0
  0
VERTEX
  5
24914
  8
0
 10
531.62678464441569
 20
216.50080138454359
 30
0.0
  0
VERTEX
  5
24915
  8
0
 10
531.40543431136018
 20
217.4005154917827
 30
0.0
  0
VERTEX
  5
24916
  8
0
 10
530.99925010989455
 20
219.21991903008211
 30
0.0
  0
VERTEX
  5
24917
  8
0
 10
530.64231966862644
 20
221.06338170751809
 30
0.0
  0
VERTEX
  5
24918
  8
0
 10
530.33524800533075
 20
222.92777874805779
 30
0.0
  0
VERTEX
  5
24919
  8
0
 10
530.07855562426676
 20
224.8099498907095
 30
0.0
  0
VERTEX
  5
2491A
  8
0
 10
529.87267763389025
 20
226.70670474634969
 30
0.0
  0
VERTEX
  5
2491B
  8
0
 10
529.78890647169635
 20
227.65954716172701
 30
0.0
  0
VERTEX
  5
2491C
  8
0
 10
529.71796300932226
 20
228.61482820561559
 30
0.0
  0
VERTEX
  5
2491D
  8
0
 10
529.61467400081392
 20
230.53108588870421
 30
0.0
  0
VERTEX
  5
2491E
  8
0
 10
529.56298568921875
 20
232.45222962782961
 30
0.0
  0
VERTEX
  5
2491F
  8
0
 10
529.5565225960745
 20
233.413616300445
 30
0.0
  0
SEQEND
  5
24920
  8
0
  0
POLYLINE
  5
23CD6
  8
0
 66
     1
 10
0.0
 20
0.0
 30
0.0
  0
VERTEX
  5
24921
  8
0
 10
529.5565225960745
 20
233.413616300445
 30
0.0
  0
VERTEX
  5
24922
  8
0
 10
529.55974852229792
 20
234.0928459414686
 30
0.0
  0
VERTEX
  5
24923
  8
0
 10
529.58555183782801
 20
235.45073052742779
 30
0.0
  0
VERTEX
  5
24924
  8
0
 10
529.63713663670706
 20
236.80689151137489
 30
0.0
  0
VERTEX
  5
24925
  8
0
 10
529.67258430427626
 20
237.4839669916978
 30
0.0
  0
VERTEX
  5
24926
  8
0
 10
529.71445927304558
 20
238.16018144572351
 30
0.0
  0
VERTEX
  5
24927
  8
0
 10
529.81745432417335
 20
239.50945531208339
 30
0.0
  0
VERTEX
  5
24928
  8
0
 10
529.94603464599447
 20
240.85357149005719
 30
0.0
  0
VERTEX
  5
24929
  8
0
 10
530.1000914467204
 20
242.191392723169
 30
0.0
  0
VERTEX
  5
2492A
  8
0
 10
530.27949437891675
 20
243.52178708109199
 30
0.0
  0
VERTEX
  5
2492B
  8
0
 10
530.48409164979194
 20
244.84362891737959
 30
0.0
  0
VERTEX
  5
2492C
  8
0
 10
530.59578489425803
 20
245.50099282814699
 30
0.0
  0
VERTEX
  5
2492D
  8
0
 10
530.71371014962949
 20
246.15579982187089
 30
0.0
  0
VERTEX
  5
2492E
  8
0
 10
530.96815559825382
 20
247.45718956697971
 30
0.0
  0
VERTEX
  5
2492F
  8
0
 10
531.24721270941291
 20
248.74669704705639
 30
0.0
  0
VERTEX
  5
24930
  8
0
 10
531.55064537293026
 20
250.0232312100338
 30
0.0
  0
VERTEX
  5
24931
  8
0
 10
531.87819685448028
 20
251.2857119805671
 30
0.0
  0
VERTEX
  5
24932
  8
0
 10
532.22959001280788
 20
252.5330711738838
 30
0.0
  0
VERTEX
  5
24933
  8
0
 10
532.41413509145696
 20
253.15074984530929
 30
0.0
  0
VERTEX
  5
24934
  8
0
 10
532.60452753421885
 20
253.76425339957541
 30
0.0
  0
VERTEX
  5
24935
  8
0
 10
533.00269218413905
 20
254.9782169545629
 30
0.0
  0
VERTEX
  5
24936
  8
0
 10
533.42374707552244
 20
256.17393470448218
 30
0.0
  0
VERTEX
  5
24937
  8
0
 10
533.64274778064907
 20
256.76463462081978
 30
0.0
  0
VERTEX
  5
24938
  8
0
 10
533.86733595389614
 20
257.35039495274208
 30
0.0
  0
VERTEX
  5
24939
  8
0
 10
534.33308349878189
 20
258.50660229651891
 30
0.0
  0
VERTEX
  5
2493A
  8
0
 10
534.82059564125836
 20
259.64157846897018
 30
0.0
  0
VERTEX
  5
2493B
  8
0
 10
535.07238524526019
 20
260.20080404718237
 30
0.0
  0
VERTEX
  5
2493C
  8
0
 10
535.329459897383
 20
260.75436316694231
 30
0.0
  0
VERTEX
  5
2493D
  8
0
 10
535.85924571719215
 20
261.84401486348543
 30
0.0
  0
VERTEX
  5
2493E
  8
0
 10
536.40950484898985
 20
262.90961160447881
 30
0.0
  0
VERTEX
  5
2493F
  8
0
 10
536.97977171861612
 20
263.95025178869452
 30
0.0
  0
VERTEX
  5
24940
  8
0
 10
537.56956382336602
 20
264.96505493064342
 30
0.0
  0
VERTEX
  5
24941
  8
0
 10
538.17838214023641
 20
265.95316240555479
 30
0.0
  0
VERTEX
  5
24942
  8
0
 10
538.48976576988468
 20
266.43694310434188
 30
0.0
  0
VERTEX
  5
24943
  8
0
 10
538.8057115481497
 20
266.913738175856
 30
0.0
  0
VERTEX
  5
24944
  8
0
 10
539.45102126379686
 20
267.84596949854591
 30
0.0
  0
VERTEX
  5
24945
  8
0
 10
540.11376529073414
 20
268.74906761285592
 30
0.0
  0
VERTEX
  5
24946
  8
0
 10
540.79338288134841
 20
269.62226840761917
 30
0.0
  0
VERTEX
  5
24947
  8
0
 10
541.48929901130839
 20
270.46483306778782
 30
0.0
  0
VERTEX
  5
24948
  8
0
 10
542.20092486609155
 20
271.27604869954069
 30
0.0
  0
VERTEX
  5
24949
  8
0
 10
542.56244128736762
 20
271.66968508717491
 30
0.0
  0
VERTEX
  5
2494A
  8
0
 10
542.92765833917827
 20
272.055228933465
 30
0.0
  0
VERTEX
  5
2494B
  8
0
 10
543.66888454149637
 20
272.8017145052936
 30
0.0
  0
VERTEX
  5
2494C
  8
0
 10
544.42397632167877
 20
273.5148738137064
 30
0.0
  0
VERTEX
  5
2494D
  8
0
 10
545.19229479669355
 20
274.19410345472988
 30
0.0
  0
VERTEX
  5
2494E
  8
0
 10
545.97318989240603
 20
274.8388287322768
 30
0.0
  0
VERTEX
  5
2494F
  8
0
 10
546.76600089360363
 20
275.44850414439497
 30
0.0
  0
VERTEX
  5
24950
  8
0
 10
547.16666561298325
 20
275.74003577842768
 30
0.0
  0
VERTEX
  5
24951
  8
0
 10
547.57005700302898
 20
276.02261384481932
 30
0.0
  0
VERTEX
  5
24952
  8
0
 10
548.38467790893935
 20
276.56067207942618
 30
0.0
  0
VERTEX
  5
24953
  8
0
 10
549.20917436072068
 20
277.06222359723188
 30
0.0
  0
VERTEX
  5
24954
  8
0
 10
550.04284875206122
 20
277.52684403557993
 30
0.0
  0
VERTEX
  5
24955
  8
0
 10
550.88499571119428
 20
277.95414027919333
 30
0.0
  0
VERTEX
  5
24956
  8
0
 10
551.73490269771708
 20
278.34375079279062
 30
0.0
  0
VERTEX
  5
24957
  8
0
 10
552.16254172044773
 20
278.5243196320439
 30
0.0
  0
VERTEX
  5
24958
  8
0
 10
552.5918506054677
 20
278.69534592698068
 30
0.0
  0
VERTEX
  5
24959
  8
0
 10
553.45511437096229
 20
279.0086281971781
 30
0.0
  0
VERTEX
  5
2495A
  8
0
 10
554.32396358687129
 20
279.28333253530582
 30
0.0
  0
VERTEX
  5
2495B
  8
0
 10
555.19766312001502
 20
279.51922651406773
 30
0.0
  0
VERTEX
  5
2495C
  8
0
 10
556.07547373336308
 20
279.71611054360801
 30
0.0
  0
VERTEX
  5
2495D
  8
0
 10
556.95665271149926
 20
279.87381804038159
 30
0.0
  0
VERTEX
  5
2495E
  8
0
 10
557.39827244227115
 20
279.93793759204658
 30
0.0
  0
VERTEX
  5
2495F
  8
0
 10
557.84045448903487
 20
279.99221556810062
 30
0.0
  0
VERTEX
  5
24960
  8
0
 10
558.72613128143155
 20
280.07120295063709
 30
0.0
  0
VERTEX
  5
24961
  8
0
 10
559.61293371770125
 20
280.11071335677929
 30
0.0
  0
VERTEX
  5
24962
  8
0
 10
560.05652259607439
 20
280.11565294119509
 30
0.0
  0
VERTEX
  5
24963
  8
0
 10
560.50011147444775
 20
280.11071335677929
 30
0.0
  0
VERTEX
  5
24964
  8
0
 10
561.38691391071734
 20
280.07120295063709
 30
0.0
  0
VERTEX
  5
24965
  8
0
 10
562.27259070311447
 20
279.99221556810062
 30
0.0
  0
VERTEX
  5
24966
  8
0
 10
562.71477274987819
 20
279.93793759204658
 30
0.0
  0
VERTEX
  5
24967
  8
0
 10
563.15639248064997
 20
279.87381804038159
 30
0.0
  0
VERTEX
  5
24968
  8
0
 10
564.03757145878615
 20
279.71611054360801
 30
0.0
  0
VERTEX
  5
24969
  8
0
 10
564.91538207213387
 20
279.51922651406773
 30
0.0
  0
VERTEX
  5
2496A
  8
0
 10
565.78908160527806
 20
279.28333253530582
 30
0.0
  0
VERTEX
  5
2496B
  8
0
 10
566.65793082118671
 20
279.0086281971781
 30
0.0
  0
VERTEX
  5
2496C
  8
0
 10
567.5211945866813
 20
278.69534592698068
 30
0.0
  0
VERTEX
  5
2496D
  8
0
 10
567.95050347170172
 20
278.5243196320439
 30
0.0
  0
VERTEX
  5
2496E
  8
0
 10
568.37814249443227
 20
278.34375079279062
 30
0.0
  0
VERTEX
  5
2496F
  8
0
 10
569.22804948095506
 20
277.95414027919333
 30
0.0
  0
VERTEX
  5
24970
  8
0
 10
570.07019644008824
 20
277.52684403557993
 30
0.0
  0
VERTEX
  5
24971
  8
0
 10
570.90387083142832
 20
277.06222359723188
 30
0.0
  0
VERTEX
  5
24972
  8
0
 10
571.72836728320999
 20
276.56067207942618
 30
0.0
  0
VERTEX
  5
24973
  8
0
 10
572.54298818912036
 20
276.02261384481932
 30
0.0
  0
VERTEX
  5
24974
  8
0
 10
572.94637957916609
 20
275.74003577842768
 30
0.0
  0
VERTEX
  5
24975
  8
0
 10
573.34704429854537
 20
275.44850414439497
 30
0.0
  0
VERTEX
  5
24976
  8
0
 10
574.13985529974343
 20
274.8388287322768
 30
0.0
  0
VERTEX
  5
24977
  8
0
 10
574.9207503954558
 20
274.19410345472988
 30
0.0
  0
VERTEX
  5
24978
  8
0
 10
575.68906887047058
 20
273.5148738137064
 30
0.0
  0
VERTEX
  5
24979
  8
0
 10
576.44416065065298
 20
272.8017145052936
 30
0.0
  0
VERTEX
  5
2497A
  8
0
 10
577.18538685297096
 20
272.055228933465
 30
0.0
  0
VERTEX
  5
2497B
  8
0
 10
577.55060390478127
 20
271.66968508717491
 30
0.0
  0
VERTEX
  5
2497C
  8
0
 10
577.91212032605779
 20
271.27604869954069
 30
0.0
  0
VERTEX
  5
2497D
  8
0
 10
578.62374618084039
 20
270.46483306778782
 30
0.0
  0
VERTEX
  5
2497E
  8
0
 10
579.3196623108006
 20
269.62226840761917
 30
0.0
  0
VERTEX
  5
2497F
  8
0
 10
579.99927990141532
 20
268.74906761285592
 30
0.0
  0
VERTEX
  5
24980
  8
0
 10
580.66202392835248
 20
267.84596949854591
 30
0.0
  0
VERTEX
  5
24981
  8
0
 10
581.30733364399975
 20
266.913738175856
 30
0.0
  0
VERTEX
  5
24982
  8
0
 10
581.62327942226409
 20
266.43694310434188
 30
0.0
  0
VERTEX
  5
24983
  8
0
 10
581.93466305191305
 20
265.95316240555479
 30
0.0
  0
VERTEX
  5
24984
  8
0
 10
582.54348136878343
 20
264.96505493064342
 30
0.0
  0
VERTEX
  5
24985
  8
0
 10
583.13327347353334
 20
263.95025178869452
 30
0.0
  0
VERTEX
  5
24986
  8
0
 10
583.70354034315915
 20
262.90961160447881
 30
0.0
  0
VERTEX
  5
24987
  8
0
 10
584.2537994749573
 20
261.84401486348543
 30
0.0
  0
VERTEX
  5
24988
  8
0
 10
584.78358529476589
 20
260.75436316694231
 30
0.0
  0
VERTEX
  5
24989
  8
0
 10
585.04065994688881
 20
260.20080404718237
 30
0.0
  0
VERTEX
  5
2498A
  8
0
 10
585.29244955089052
 20
259.64157846897018
 30
0.0
  0
VERTEX
  5
2498B
  8
0
 10
585.77996169336745
 20
258.50660229651891
 30
0.0
  0
VERTEX
  5
2498C
  8
0
 10
586.24570923825331
 20
257.35039495274208
 30
0.0
  0
VERTEX
  5
2498D
  8
0
 10
586.4702974114997
 20
256.76463462081978
 30
0.0
  0
VERTEX
  5
2498E
  8
0
 10
586.68929811662645
 20
256.17393470448218
 30
0.0
  0
VERTEX
  5
2498F
  8
0
 10
587.11035300801029
 20
254.9782169545629
 30
0.0
  0
VERTEX
  5
24990
  8
0
 10
587.5085176579305
 20
253.76425339957541
 30
0.0
  0
VERTEX
  5
24991
  8
0
 10
587.6989101006925
 20
253.15074984530929
 30
0.0
  0
VERTEX
  5
24992
  8
0
 10
587.88345517934147
 20
252.5330711738838
 30
0.0
  0
VERTEX
  5
24993
  8
0
 10
588.23484833766906
 20
251.28571198056761
 30
0.0
  0
VERTEX
  5
24994
  8
0
 10
588.56239981921863
 20
250.0232312100338
 30
0.0
  0
VERTEX
  5
24995
  8
0
 10
588.86583248273655
 20
248.74669704705639
 30
0.0
  0
VERTEX
  5
24996
  8
0
 10
589.14488959389564
 20
247.45718956697971
 30
0.0
  0
VERTEX
  5
24997
  8
0
 10
589.39933504251985
 20
246.15579982187089
 30
0.0
  0
VERTEX
  5
24998
  8
0
 10
589.51726029789143
 20
245.50099282814699
 30
0.0
  0
VERTEX
  5
24999
  8
0
 10
589.62895354235695
 20
244.84362891737959
 30
0.0
  0
VERTEX
  5
2499A
  8
0
 10
589.83355081323259
 20
243.52178708109199
 30
0.0
  0
VERTEX
  5
2499B
  8
0
 10
590.01295374542894
 20
242.191392723169
 30
0.0
  0
VERTEX
  5
2499C
  8
0
 10
590.16701054615442
 20
240.8535714900577
 30
0.0
  0
VERTEX
  5
2499D
  8
0
 10
590.29559086797599
 20
239.50945531208339
 30
0.0
  0
VERTEX
  5
2499E
  8
0
 10
590.39858591910343
 20
238.16018144572351
 30
0.0
  0
VERTEX
  5
2499F
  8
0
 10
590.44046088787297
 20
237.4839669916978
 30
0.0
  0
VERTEX
  5
249A0
  8
0
 10
590.47590855544195
 20
236.80689151137489
 30
0.0
  0
VERTEX
  5
249A1
  8
0
 10
590.52749335432145
 20
235.45073052742779
 30
0.0
  0
VERTEX
  5
249A2
  8
0
 10
590.55329666985153
 20
234.0928459414686
 30
0.0
  0
VERTEX
  5
249A3
  8
0
 10
590.5565225960745
 20
233.413616300445
 30
0.0
  0
SEQEND
  5
249A4
  8
0
  0
POLYLINE
  5
23CD7
  8
0
 66
     1
 10
0.0
 20
0.0
 30
0.0
  0
VERTEX
  5
249A5
  8
0
 10
590.5565225960745
 20
233.413616300445
 30
0.0
  0
VERTEX
  5
249A6
  8
0
 10
590.55005950293071
 20
232.45222962782961
 30
0.0
  0
VERTEX
  5
249A7
  8
0
 10
590.49837119133508
 20
230.53108588870421
 30
0.0
  0
VERTEX
  5
249A8
  8
0
 10
590.39508218282708
 20
228.61482820561559
 30
0.0
  0
VERTEX
  5
249A9
  8
0
 10
590.32413872045299
 20
227.65954716172701
 30
0.0
  0
VERTEX
  5
249AA
  8
0
 10
590.24036755825864
 20
226.70670474634969
 30
0.0
  0
VERTEX
  5
249AB
  8
0
 10
590.03448956788259
 20
224.8099498907095
 30
0.0
  0
VERTEX
  5
249AC
  8
0
 10
589.77779718681813
 20
222.92777874805779
 30
0.0
  0
VERTEX
  5
249AD
  8
0
 10
589.47072552352301
 20
221.06338170751809
 30
0.0
  0
VERTEX
  5
249AE
  8
0
 10
589.11379508225491
 20
219.21991903008211
 30
0.0
  0
VERTEX
  5
249AF
  8
0
 10
588.70761088078916
 20
217.4005154917827
 30
0.0
  0
VERTEX
  5
249B0
  8
0
 10
588.48626054773365
 20
216.50080138454359
 30
0.0
  0
VERTEX
  5
249B1
  8
0
 10
588.25286142487846
 20
215.60825508701731
 30
0.0
  0
VERTEX
  5
249B2
  8
0
 10
587.75031754119516
 20
213.84617580100161
 30
0.0
  0
VERTEX
  5
249B3
  8
0
 10
587.20083107073515
 20
212.11726446020469
 30
0.0
  0
VERTEX
  5
249B4
  8
0
 10
586.60533342489805
 20
210.42445166950799
 30
0.0
  0
VERTEX
  5
249B5
  8
0
 10
585.96483400669194
 20
208.77060684465911
 30
0.0
  0
VERTEX
  5
249B6
  8
0
 10
585.28041849973567
 20
207.1585333484459
 30
0.0
  0
VERTEX
  5
249B7
  8
0
 10
584.92210189680361
 20
206.36901766626261
 30
0.0
  0
VERTEX
  5
249B8
  8
0
 10
584.55324702796361
 20
205.59096373883449
 30
0.0
  0
VERTEX
  5
249B9
  8
0
 10
583.78455218914542
 20
204.07055513712481
 30
0.0
  0
VERTEX
  5
249BA
  8
0
 10
582.97563696556506
 20
202.5998847239762
 30
0.0
  0
VERTEX
  5
249BB
  8
0
 10
582.5565225960745
 20
201.88398377034721
 30
0.0
  0
SEQEND
  5
249BC
  8
0
  0
LINE
  5
23CD8
  8
2
 10
529.5565225960745
 20
281.74368873142072
 30
0.0
 11
590.5565225960745
 21
281.74368873142072
 31
0.0
  0
LINE
  5
23CD9
  8
0
 10
537.5565225960745
 20
192.2436887314206
 30
0.0
 11
537.5565225960745
 21
264.94309601091851
 31
0.0
  0
LINE
  5
23CDA
  8
0
 10
582.5565225960745
 20
264.94309601091851
 30
0.0
 11
582.5565225960745
 21
192.2436887314206
 31
0.0
  0
POLYLINE
  5
23CDC
  8
0
 66
     1
 10
0.0
 20
0.0
 30
0.0
  0
VERTEX
  5
249BD
  8
0
 10
560.05652259607439
 20
283.94368873142048
 30
0.0
  0
VERTEX
  5
249BE
  8
0
 10
560.29650325298269
 20
283.94235259665948
 30
0.0
  0
VERTEX
  5
249BF
  8
0
 10
560.7764138022153
 20
283.93166394253188
 30
0.0
  0
VERTEX
  5
249C0
  8
0
 10
561.25617206843663
 20
283.9102888953135
 30
0.0
  0
VERTEX
  5
249C1
  8
0
 10
561.49596237913045
 20
283.89559529901362
 30
0.0
  0
VERTEX
  5
249C2
  8
0
 10
561.73567656543264
 20
283.87823197659958
 30
0.0
  0
VERTEX
  5
249C3
  8
0
 10
562.21482586066941
 20
283.83549996758711
 30
0.0
  0
VERTEX
  5
249C4
  8
0
 10
562.69351859675226
 20
283.78210190764003
 30
0.0
  0
VERTEX
  5
249C5
  8
0
 10
563.17165351286485
 20
283.71804909237932
 30
0.0
  0
VERTEX
  5
249C6
  8
0
 10
563.64912946618961
 20
283.64335507128908
 30
0.0
  0
VERTEX
  5
249C7
  8
0
 10
564.12584545330355
 20
283.55803564485592
 30
0.0
  0
VERTEX
  5
249C8
  8
0
 10
564.36388693933623
 20
283.51139695698203
 30
0.0
  0
VERTEX
  5
249C9
  8
0
 10
564.60170063154465
 20
283.46210886122208
 30
0.0
  0
VERTEX
  5
249CA
  8
0
 10
565.07659434034201
 20
283.35559501236958
 30
0.0
  0
VERTEX
  5
249CB
  8
0
 10
565.550426122511
 20
283.23851662982719
 30
0.0
  0
VERTEX
  5
249CC
  8
0
 10
566.02309574550281
 20
283.1108984799053
 30
0.0
  0
VERTEX
  5
249CD
  8
0
 10
566.49450322260691
 20
282.97276755845502
 30
0.0
  0
VERTEX
  5
249CE
  8
0
 10
566.96454883410252
 20
282.8241530851592
 30
0.0
  0
VERTEX
  5
249CF
  8
0
 10
567.19902985603221
 20
282.74592425428767
 30
0.0
  0
VERTEX
  5
249D0
  8
0
 10
567.43313314835314
 20
282.66508649735079
 30
0.0
  0
VERTEX
  5
249D1
  8
0
 10
567.90015704283815
 20
282.49560144336277
 30
0.0
  0
VERTEX
  5
249D2
  8
0
 10
568.36552172512393
 20
282.31573377541008
 30
0.0
  0
VERTEX
  5
249D3
  8
0
 10
568.59755108445779
 20
282.22191826578182
 30
0.0
  0
VERTEX
  5
249D4
  8
0
 10
568.82912875375814
 20
282.12552154200603
 30
0.0
  0
VERTEX
  5
249D5
  8
0
 10
569.29088005909762
 20
281.92500497991341
 30
0.0
  0
VERTEX
  5
249D6
  8
0
 10
569.75067796405028
 20
281.71422650563318
 30
0.0
  0
VERTEX
  5
249D7
  8
0
 10
569.9798139797158
 20
281.60500290040233
 30
0.0
  0
VERTEX
  5
249D8
  8
0
 10
570.2084252047398
 20
281.4932307064305
 30
0.0
  0
VERTEX
  5
249D9
  8
0
 10
570.66402495107923
 20
281.26206433090601
 30
0.0
  0
VERTEX
  5
249DA
  8
0
 10
571.11738082725378
 20
281.0207762791029
 30
0.0
  0
VERTEX
  5
249DB
  8
0
 10
571.56839693210895
 20
280.76941759216652
 30
0.0
  0
VERTEX
  5
249DC
  8
0
 10
572.01697785943668
 20
280.50804144154432
 30
0.0
  0
VERTEX
  5
249DD
  8
0
 10
572.46302871815624
 20
280.23670311773958
 30
0.0
  0
VERTEX
  5
249DE
  8
0
 10
572.68507586412261
 20
280.0973159957361
 30
0.0
  0
VERTEX
  5
249DF
  8
0
 10
572.90645515238793
 20
279.95546001861572
 30
0.0
  0
VERTEX
  5
249E0
  8
0
 10
573.34716336141298
 20
279.66437163725408
 30
0.0
  0
VERTEX
  5
249E1
  8
0
 10
573.78506011951538
 20
279.36349954936901
 30
0.0
  0
VERTEX
  5
249E2
  8
0
 10
574.2200527957034
 20
279.05290740028209
 30
0.0
  0
VERTEX
  5
249E3
  8
0
 10
574.65204937330145
 20
278.73266089145949
 30
0.0
  0
VERTEX
  5
249E4
  8
0
 10
575.08095846941978
 20
278.40282776661343
 30
0.0
  0
VERTEX
  5
249E5
  8
0
 10
575.29422683283065
 20
278.2343379480007
 30
0.0
  0
VERTEX
  5
249E6
  8
0
 10
575.50668935428121
 20
278.06347779737189
 30
0.0
  0
VERTEX
  5
249E7
  8
0
 10
575.92915197041418
 20
277.71468276851959
 30
0.0
  0
VERTEX
  5
249E8
  8
0
 10
576.34825695170639
 20
277.35651646281258
 30
0.0
  0
VERTEX
  5
249E9
  8
0
 10
576.7639156423046
 20
276.98905464537029
 30
0.0
  0
VERTEX
  5
249EA
  8
0
 10
577.17604011537185
 20
276.61237504764989
 30
0.0
  0
VERTEX
  5
249EB
  8
0
 10
577.58454319168504
 20
276.2265573510013
 30
0.0
  0
VERTEX
  5
249EC
  8
0
 10
577.78740967151998
 20
276.0302471450355
 30
0.0
  0
VERTEX
  5
249ED
  8
0
 10
577.98933845807869
 20
275.831683169813
 30
0.0
  0
VERTEX
  5
249EE
  8
0
 10
578.39034028572121
 20
275.42783603424778
 30
0.0
  0
VERTEX
  5
249EF
  8
0
 10
578.78746384823262
 20
275.01510137257168
 30
0.0
  0
VERTEX
  5
249F0
  8
0
 10
579.18062513962468
 20
274.59356649308478
 30
0.0
  0
VERTEX
  5
249F1
  8
0
 10
579.56974099207298
 20
274.16332056565039
 30
0.0
  0
VERTEX
  5
249F2
  8
0
 10
579.95472909350974
 20
273.7244546028337
 30
0.0
  0
VERTEX
  5
249F3
  8
0
 10
580.14564975336225
 20
273.50181804871772
 30
0.0
  0
VERTEX
  5
249F4
  8
0
 10
580.33550800503588
 20
273.2770614406495
 30
0.0
  0
VERTEX
  5
249F5
  8
0
 10
580.71199717814852
 20
272.82123571892231
 30
0.0
  0
VERTEX
  5
249F6
  8
0
 10
581.08411697177871
 20
272.35707386126887
 30
0.0
  0
VERTEX
  5
249F7
  8
0
 10
581.45178866913909
 20
271.8846740546997
 30
0.0
  0
VERTEX
  5
249F8
  8
0
 10
581.81493449437664
 20
271.40413622884847
 30
0.0
  0
VERTEX
  5
249F9
  8
0
 10
582.17347762902318
 20
270.9155620348356
 30
0.0
  0
VERTEX
  5
249FA
  8
0
 10
582.35099944739159
 20
270.66829353117743
 30
0.0
  0
VERTEX
  5
249FB
  8
0
 10
582.52734222824517
 20
270.41905482376251
 30
0.0
  0
VERTEX
  5
249FC
  8
0
 10
582.87645343688973
 20
269.91471962485087
 30
0.0
  0
VERTEX
  5
249FD
  8
0
 10
583.22073740531675
 20
269.40266312322541
 30
0.0
  0
VERTEX
  5
249FE
  8
0
 10
583.39104637523076
 20
269.14377317023542
 30
0.0
  0
VERTEX
  5
249FF
  8
0
 10
583.56012130502313
 20
268.8829936373445
 30
0.0
  0
VERTEX
  5
24A00
  8
0
 10
583.89453334404652
 20
268.35582109608822
 30
0.0
  0
VERTEX
  5
24A01
  8
0
 10
584.22390278215335
 20
267.82125701550461
 30
0.0
  0
VERTEX
  5
24A02
  8
0
 10
584.38667471080862
 20
267.5512384249223
 30
0.0
  0
VERTEX
  5
24A03
  8
0
 10
584.54815994580156
 20
267.2794144752184
 30
0.0
  0
VERTEX
  5
24A04
  8
0
 10
584.86723624288106
 20
266.73040809451231
 30
0.0
  0
VERTEX
  5
24A05
  8
0
 10
585.18106417722117
 20
266.17435400808017
 30
0.0
  0
VERTEX
  5
24A06
  8
0
 10
586.23718282568552
 20
264.1743754014397
 30
0.0
  0
VERTEX
  5
24A07
  8
0
 10
587.88844030790005
 20
260.56340442734472
 30
0.0
  0
VERTEX
  5
24A08
  8
0
 10
589.32788009095611
 20
256.74580717211393
 30
0.0
  0
VERTEX
  5
24A09
  8
0
 10
590.54454716894725
 20
252.75063785598741
 30
0.0
  0
VERTEX
  5
24A0A
  8
0
 10
591.52918197076633
 20
248.6083021298104
 30
0.0
  0
VERTEX
  5
24A0B
  8
0
 10
591.93207486361359
 20
246.49176139599101
 30
0.0
  0
VERTEX
  5
24A0C
  8
0
 10
592.27429083103243
 20
244.3503256696695
 30
0.0
  0
VERTEX
  5
24A0D
  8
0
 10
592.77420302141024
 20
240.0091142474634
 30
0.0
  0
VERTEX
  5
24A0E
  8
0
 10
593.02511390827613
 20
235.61770710340991
 30
0.0
  0
VERTEX
  5
24A0F
  8
0
 10
593.05652259607439
 20
233.413616300445
 30
0.0
  0
SEQEND
  5
24A10
  8
0
  0
POLYLINE
  5
23CDD
  8
0
 66
     1
 10
0.0
 20
0.0
 30
0.0
  0
VERTEX
  5
24A11
  8
0
 10
593.05652259607439
 20
233.413616300445
 30
0.0
  0
VERTEX
  5
24A12
  8
0
 10
593.05050219458963
 20
232.4484528506114
 30
0.0
  0
VERTEX
  5
24A13
  8
0
 10
593.00235216199314
 20
230.5195344700783
 30
0.0
  0
VERTEX
  5
24A14
  8
0
 10
592.90612236494235
 20
228.59483959141329
 30
0.0
  0
VERTEX
  5
24A15
  8
0
 10
592.84001870435065
 20
227.63495407419811
 30
0.0
  0
VERTEX
  5
24A16
  8
0
 10
592.76195323717411
 20
226.67717703374871
 30
0.0
  0
VERTEX
  5
24A17
  8
0
 10
592.5700551730788
 20
224.76934535354209
 30
0.0
  0
VERTEX
  5
24A18
  8
0
 10
592.3307082206569
 20
222.8741287604789
 30
0.0
  0
VERTEX
  5
24A19
  8
0
 10
592.04426167283145
 20
220.99429305431661
 30
0.0
  0
VERTEX
  5
24A1A
  8
0
 10
591.71113355770285
 20
219.13258158858849
 30
0.0
  0
VERTEX
  5
24A1B
  8
0
 10
591.33181002849597
 20
217.2917112670707
 30
0.0
  0
VERTEX
  5
24A1C
  8
0
 10
591.1249953618867
 20
216.37993235883411
 30
0.0
  0
VERTEX
  5
24A1D
  8
0
 10
590.90684465409049
 20
215.4743685788458
 30
0.0
  0
VERTEX
  5
24A1E
  8
0
 10
590.43685761116319
 20
213.6832056777539
 30
0.0
  0
VERTEX
  5
24A1F
  8
0
 10
589.92253477912925
 20
211.92083651194889
 30
0.0
  0
VERTEX
  5
24A20
  8
0
 10
589.36462673919868
 20
210.18983300921309
 30
0.0
  0
VERTEX
  5
24A21
  8
0
 10
588.76394767900911
 20
208.49272132359329
 30
0.0
  0
VERTEX
  5
24A22
  8
0
 10
588.12137420443514
 20
206.83197814883721
 30
0.0
  0
VERTEX
  5
24A23
  8
0
 10
587.78466775559082
 20
206.01600430448619
 30
0.0
  0
VERTEX
  5
24A24
  8
0
 10
587.437844060305
 20
205.21002710401029
 30
0.0
  0
VERTEX
  5
24A25
  8
0
 10
586.71435476189617
 20
203.62923519656761
 30
0.0
  0
VERTEX
  5
24A26
  8
0
 10
585.95196213920372
 20
202.09190936804231
 30
0.0
  0
VERTEX
  5
24A27
  8
0
 10
585.55652259607439
 20
201.3402498979367
 30
0.0
  0
SEQEND
  5
24A28
  8
0
  0
POLYLINE
  5
23CDE
  8
0
 66
     1
 10
0.0
 20
0.0
 30
0.0
  0
VERTEX
  5
24A29
  8
0
 10
534.55652259607439
 20
201.3402498979367
 30
0.0
  0
VERTEX
  5
24A2A
  8
0
 10
534.16108305294529
 20
202.09190936804231
 30
0.0
  0
VERTEX
  5
24A2B
  8
0
 10
533.39869043025283
 20
203.62923519656761
 30
0.0
  0
VERTEX
  5
24A2C
  8
0
 10
532.67520113184435
 20
205.21002710401029
 30
0.0
  0
VERTEX
  5
24A2D
  8
0
 10
532.32837743655818
 20
206.01600430448619
 30
0.0
  0
VERTEX
  5
24A2E
  8
0
 10
531.9916709877142
 20
206.83197814883721
 30
0.0
  0
VERTEX
  5
24A2F
  8
0
 10
531.3490975131399
 20
208.49272132359329
 30
0.0
  0
VERTEX
  5
24A30
  8
0
 10
530.74841845295032
 20
210.18983300921261
 30
0.0
  0
VERTEX
  5
24A31
  8
0
 10
530.19051041301998
 20
211.92083651194889
 30
0.0
  0
VERTEX
  5
24A32
  8
0
 10
529.67618758098615
 20
213.6832056777539
 30
0.0
  0
VERTEX
  5
24A33
  8
0
 10
529.20620053805851
 20
215.4743685788458
 30
0.0
  0
VERTEX
  5
24A34
  8
0
 10
528.98804983026275
 20
216.37993235883411
 30
0.0
  0
VERTEX
  5
24A35
  8
0
 10
528.78123516365304
 20
217.2917112670707
 30
0.0
  0
VERTEX
  5
24A36
  8
0
 10
528.40191163444661
 20
219.13258158858849
 30
0.0
  0
VERTEX
  5
24A37
  8
0
 10
528.06878351931789
 20
220.99429305431661
 30
0.0
  0
VERTEX
  5
24A38
  8
0
 10
527.78233697149244
 20
222.8741287604789
 30
0.0
  0
VERTEX
  5
24A39
  8
0
 10
527.54299001907054
 20
224.76934535354209
 30
0.0
  0
VERTEX
  5
24A3A
  8
0
 10
527.35109195497489
 20
226.67717703374871
 30
0.0
  0
VERTEX
  5
24A3B
  8
0
 10
527.27302648779869
 20
227.63495407419811
 30
0.0
  0
VERTEX
  5
24A3C
  8
0
 10
527.20692282720711
 20
228.59483959141329
 30
0.0
  0
VERTEX
  5
24A3D
  8
0
 10
527.1106930301562
 20
230.5195344700783
 30
0.0
  0
VERTEX
  5
24A3E
  8
0
 10
527.06254299755983
 20
232.4484528506114
 30
0.0
  0
VERTEX
  5
24A3F
  8
0
 10
527.05652259607439
 20
233.413616300445
 30
0.0
  0
SEQEND
  5
24A40
  8
0
  0
POLYLINE
  5
23CDF
  8
0
 66
     1
 10
0.0
 20
0.0
 30
0.0
  0
VERTEX
  5
24A41
  8
0
 10
527.05652259607439
 20
233.413616300445
 30
0.0
  0
VERTEX
  5
24A42
  8
0
 10
527.08793128387333
 20
235.61770710340491
 30
0.0
  0
VERTEX
  5
24A43
  8
0
 10
527.33884217073773
 20
240.009114247448
 30
0.0
  0
VERTEX
  5
24A44
  8
0
 10
527.83875436111339
 20
244.35032566964401
 30
0.0
  0
VERTEX
  5
24A45
  8
0
 10
528.18097032853018
 20
246.49176139596099
 30
0.0
  0
VERTEX
  5
24A46
  8
0
 10
528.58386322137585
 20
248.60830212977541
 30
0.0
  0
VERTEX
  5
24A47
  8
0
 10
529.56849802319039
 20
252.75063785594369
 30
0.0
  0
VERTEX
  5
24A48
  8
0
 10
530.78516510117595
 20
256.745807172063
 30
0.0
  0
VERTEX
  5
24A49
  8
0
 10
532.22460488422576
 20
260.56340442728742
 30
0.0
  0
VERTEX
  5
24A4A
  8
0
 10
533.87586236643244
 20
264.1743754013778
 30
0.0
  0
VERTEX
  5
24A4B
  8
0
 10
535.72637048130116
 20
267.55123842485682
 30
0.0
  0
VERTEX
  5
24A4C
  8
0
 10
536.72199881687538
 20
269.14377317016891
 30
0.0
  0
VERTEX
  5
24A4D
  8
0
 10
536.89230778678848
 20
269.40266312315907
 30
0.0
  0
VERTEX
  5
24A4E
  8
0
 10
537.23659175521425
 20
269.91471962478408
 30
0.0
  0
VERTEX
  5
24A4F
  8
0
 10
537.58570296385733
 20
270.41905482369572
 30
0.0
  0
VERTEX
  5
24A50
  8
0
 10
537.76204574471001
 20
270.66829353111052
 30
0.0
  0
VERTEX
  5
24A51
  8
0
 10
537.9395675630775
 20
270.9155620347683
 30
0.0
  0
VERTEX
  5
24A52
  8
0
 10
538.29811069772222
 20
271.40413622878123
 30
0.0
  0
VERTEX
  5
24A53
  8
0
 10
538.66125652295841
 20
271.88467405463228
 30
0.0
  0
VERTEX
  5
24A54
  8
0
 10
539.02892822031754
 20
272.35707386120163
 30
0.0
  0
VERTEX
  5
24A55
  8
0
 10
539.40104801394625
 20
272.82123571885541
 30
0.0
  0
VERTEX
  5
24A56
  8
0
 10
539.77753718705696
 20
273.27706144058271
 30
0.0
  0
VERTEX
  5
24A57
  8
0
 10
539.9673954387298
 20
273.50181804865088
 30
0.0
  0
VERTEX
  5
24A58
  8
0
 10
540.15831609858185
 20
273.72445460276731
 30
0.0
  0
VERTEX
  5
24A59
  8
0
 10
540.54330420001725
 20
274.163320565584
 30
0.0
  0
VERTEX
  5
24A5A
  8
0
 10
540.93242005246384
 20
274.5935664930189
 30
0.0
  0
VERTEX
  5
24A5B
  8
0
 10
541.32558134385454
 20
275.01510137250631
 30
0.0
  0
VERTEX
  5
24A5C
  8
0
 10
541.7227049063639
 20
275.4278360341828
 30
0.0
  0
VERTEX
  5
24A5D
  8
0
 10
542.12370673400528
 20
275.83168316974837
 30
0.0
  0
VERTEX
  5
24A5E
  8
0
 10
542.32563552056354
 20
276.03024714497087
 30
0.0
  0
VERTEX
  5
24A5F
  8
0
 10
542.52850200039711
 20
276.22655735093713
 30
0.0
  0
VERTEX
  5
24A60
  8
0
 10
542.93700507670883
 20
276.61237504758628
 30
0.0
  0
VERTEX
  5
24A61
  8
0
 10
543.34912954977472
 20
276.98905464530748
 30
0.0
  0
VERTEX
  5
24A62
  8
0
 10
543.7647882403711
 20
277.35651646275028
 30
0.0
  0
VERTEX
  5
24A63
  8
0
 10
544.18389322166138
 20
277.71468276845832
 30
0.0
  0
VERTEX
  5
24A64
  8
0
 10
544.60635583779356
 20
278.06347779731141
 30
0.0
  0
VERTEX
  5
24A65
  8
0
 10
544.81881835924275
 20
278.23433794794028
 30
0.0
  0
VERTEX
  5
24A66
  8
0
 10
545.03208672265282
 20
278.40282776655391
 30
0.0
  0
VERTEX
  5
24A67
  8
0
 10
545.46099581876967
 20
278.73266089140043
 30
0.0
  0
VERTEX
  5
24A68
  8
0
 10
545.89299239636648
 20
279.05290740022429
 30
0.0
  0
VERTEX
  5
24A69
  8
0
 10
546.32798507255245
 20
279.36349954931211
 30
0.0
  0
VERTEX
  5
24A6A
  8
0
 10
546.7658818306536
 20
279.6643716371982
 30
0.0
  0
VERTEX
  5
24A6B
  8
0
 10
547.20659003967728
 20
279.9554600185611
 30
0.0
  0
VERTEX
  5
24A6C
  8
0
 10
547.4279693279417
 20
280.09731599568249
 30
0.0
  0
VERTEX
  5
24A6D
  8
0
 10
547.65001647390716
 20
280.23670311768592
 30
0.0
  0
VERTEX
  5
24A6E
  8
0
 10
548.09606733262535
 20
280.50804144149203
 30
0.0
  0
VERTEX
  5
24A6F
  8
0
 10
548.54464825995126
 20
280.76941759211559
 30
0.0
  0
VERTEX
  5
24A70
  8
0
 10
548.99566436480507
 20
281.02077627905379
 30
0.0
  0
VERTEX
  5
24A71
  8
0
 10
549.44902024097826
 20
281.26206433085781
 30
0.0
  0
VERTEX
  5
24A72
  8
0
 10
549.90461998731587
 20
281.49323070638411
 30
0.0
  0
VERTEX
  5
24A73
  8
0
 10
550.13323121233952
 20
281.60500290035679
 30
0.0
  0
VERTEX
  5
24A74
  8
0
 10
550.36236722800413
 20
281.71422650558821
 30
0.0
  0
VERTEX
  5
24A75
  8
0
 10
550.82216513295543
 20
281.92500497987072
 30
0.0
  0
VERTEX
  5
24A76
  8
0
 10
551.28391643829298
 20
282.12552154196459
 30
0.0
  0
VERTEX
  5
24A77
  8
0
 10
551.51549410759253
 20
282.2219182657409
 30
0.0
  0
VERTEX
  5
24A78
  8
0
 10
551.74752346692594
 20
282.31573377537052
 30
0.0
  0
VERTEX
  5
24A79
  8
0
 10
552.2128881492099
 20
282.49560144332509
 30
0.0
  0
VERTEX
  5
24A7A
  8
0
 10
552.67991204369355
 20
282.6650864973148
 30
0.0
  0
VERTEX
  5
24A7B
  8
0
 10
552.91401533601402
 20
282.74592425425271
 30
0.0
  0
VERTEX
  5
24A7C
  8
0
 10
553.1484963579428
 20
282.82415308512509
 30
0.0
  0
VERTEX
  5
24A7D
  8
0
 10
553.61854196943705
 20
282.97276755842267
 30
0.0
  0
VERTEX
  5
24A7E
  8
0
 10
554.08994944653966
 20
283.11089847987517
 30
0.0
  0
VERTEX
  5
24A7F
  8
0
 10
554.56261906953023
 20
283.23851662979899
 30
0.0
  0
VERTEX
  5
24A80
  8
0
 10
555.03645085169774
 20
283.3555950123436
 30
0.0
  0
VERTEX
  5
24A81
  8
0
 10
555.51134456049385
 20
283.46210886119837
 30
0.0
  0
VERTEX
  5
24A82
  8
0
 10
555.74915825270125
 20
283.51139695695969
 30
0.0
  0
VERTEX
  5
24A83
  8
0
 10
555.98719973873347
 20
283.55803564483449
 30
0.0
  0
VERTEX
  5
24A84
  8
0
 10
556.46391572584605
 20
283.64335507126998
 30
0.0
  0
VERTEX
  5
24A85
  8
0
 10
556.94139167917001
 20
283.71804909236238
 30
0.0
  0
VERTEX
  5
24A86
  8
0
 10
557.41952659528124
 20
283.78210190762587
 30
0.0
  0
VERTEX
  5
24A87
  8
0
 10
557.89821933136272
 20
283.83549996757529
 30
0.0
  0
VERTEX
  5
24A88
  8
0
 10
558.37736862659858
 20
283.87823197659048
 30
0.0
  0
VERTEX
  5
24A89
  8
0
 10
558.6170828128993
 20
283.89559529900589
 30
0.0
  0
VERTEX
  5
24A8A
  8
0
 10
558.85687312359278
 20
283.91028889530708
 30
0.0
  0
VERTEX
  5
24A8B
  8
0
 10
559.33663138981308
 20
283.9316639425279
 30
0.0
  0
VERTEX
  5
24A8C
  8
0
 10
559.81654193904467
 20
283.94235259665811
 30
0.0
  0
VERTEX
  5
24A8D
  8
0
 10
560.05652259595206
 20
283.94368873142048
 30
0.0
  0
SEQEND
  5
24A8E
  8
0
  0
LINE
  5
23CE1
  8
0
 10
532.03152259607475
 20
292.44368873142048
 30
0.0
 11
588.08152259607459
 21
292.44368873142048
 31
0.0
  0
LINE
  5
23CE2
  8
0
 10
527.5565225960745
 20
288.94368873142048
 30
0.0
 11
592.55652259607439
 21
288.94368873142048
 31
0.0
  0
LINE
  5
23CE3
  8
0
 10
523.5565225960745
 20
283.94368873142048
 30
0.0
 11
596.5565225960745
 21
283.94368873142048
 31
0.0
  0
LINE
  5
23CE4
  8
0
 10
533.95652259607459
 20
193.92868873142061
 30
0.0
 11
534.55652259607439
 21
193.92868873142061
 31
0.0
  0
LINE
  5
23CE5
  8
0
 10
599.48302259607453
 20
208.2436887314206
 30
0.0
 11
597.55652259607439
 21
208.2436887314206
 31
0.0
  0
LINE
  5
23CE6
  8
0
 10
597.55652259607439
 20
196.2436887314206
 30
0.0
 11
599.48302259607453
 21
196.2436887314206
 31
0.0
  0
LINE
  5
23CE7
  8
0
 10
600.5565225960745
 20
207.17018873142069
 30
0.0
 11
599.48302259607453
 21
208.2436887314206
 31
0.0
  0
LINE
  5
23CE8
  8
0
 10
599.48302259607453
 20
196.2436887314206
 30
0.0
 11
600.5565225960745
 21
197.3171887314206
 31
0.0
  0
LINE
  5
23CE9
  8
0
 10
529.25652259607466
 20
193.5811887314207
 30
0.0
 11
529.61559954406039
 21
192.2410953177104
 31
0.0
  0
LINE
  5
23CEA
  8
0
 10
529.61559954406039
 20
212.24628214513089
 30
0.0
 11
529.25652259607466
 21
210.9061887314206
 31
0.0
  0
LINE
  5
23CEB
  8
0
 10
533.59744564808852
 20
192.2410953177104
 30
0.0
 11
533.95652259607459
 21
193.5811887314207
 31
0.0
  0
LINE
  5
23CEC
  8
0
 10
597.55652259607439
 20
210.55868873142069
 30
0.0
 11
593.8065225960745
 21
210.55868873142069
 31
0.0
  0
LINE
  5
23CED
  8
0
 10
593.8065225960745
 20
193.92868873142061
 30
0.0
 11
597.55652259607439
 21
193.92868873142061
 31
0.0
  0
LINE
  5
23CEE
  8
0
 10
585.55652259607439
 20
193.5811887314207
 30
0.0
 11
585.91559954406046
 21
192.2410953177104
 31
0.0
  0
LINE
  5
23CEF
  8
0
 10
593.44744564808889
 20
192.2410953177104
 30
0.0
 11
593.8065225960745
 21
193.5811887314207
 31
0.0
  0
LINE
  5
23CF0
  8
0
 10
593.8065225960745
 20
210.9061887314206
 30
0.0
 11
593.44744564808889
 21
212.24628214513089
 31
0.0
  0
LINE
  5
23CF1
  8
0
 10
582.5565225960745
 20
209.74368873142069
 30
0.0
 11
579.0565225960745
 21
209.74368873142069
 31
0.0
  0
LINE
  5
23CF2
  8
0
 10
541.0565225960745
 20
209.74368873142069
 30
0.0
 11
537.5565225960745
 21
209.74368873142069
 31
0.0
  0
LINE
  5
23CF3
  8
0
 10
537.5565225960745
 20
194.7436887314206
 30
0.0
 11
541.0565225960745
 21
194.7436887314206
 31
0.0
  0
LINE
  5
23CF4
  8
0
 10
579.0565225960745
 20
194.7436887314206
 30
0.0
 11
582.5565225960745
 21
194.7436887314206
 31
0.0
  0
LINE
  5
23CF5
  8
0
 10
599.48302259607453
 20
196.2436887314206
 30
0.0
 11
599.48302259607453
 21
208.2436887314206
 31
0.0
  0
LINE
  5
23CF6
  8
0
 10
600.5565225960745
 20
197.3171887314206
 30
0.0
 11
600.5565225960745
 21
207.17018873142069
 31
0.0
  0
LINE
  5
23CF7
  8
0
 10
529.25652259607466
 20
193.5811887314207
 30
0.0
 11
529.25652259607466
 21
210.9061887314206
 31
0.0
  0
LINE
  5
23CF8
  8
0
 10
533.95652259607459
 20
193.5811887314207
 30
0.0
 11
533.95652259607459
 21
202.47905576277839
 31
0.0
  0
POLYLINE
  5
23CF9
  8
0
 66
     1
 10
0.0
 20
0.0
 30
0.0
  0
VERTEX
  5
24A8F
  8
0
 10
529.61559954406039
 20
207.24498543827579
 30
0.0
  0
VERTEX
  5
24A90
  8
0
 10
529.50369805662785
 20
207.6942458438034
 30
0.0
  0
VERTEX
  5
24A91
  8
0
 10
529.3450596449984
 20
208.53797183798909
 30
0.0
  0
VERTEX
  5
24A92
  8
0
 10
529.26647485159765
 20
209.3441147066346
 30
0.0
  0
VERTEX
  5
24A93
  8
0
 10
529.25652259607466
 20
209.74563379170331
 30
0.0
  0
SEQEND
  5
24A94
  8
0
  0
POLYLINE
  5
23CFA
  8
0
 66
     1
 10
0.0
 20
0.0
 30
0.0
  0
VERTEX
  5
24A95
  8
0
 10
529.25652259607466
 20
209.74563379170331
 30
0.0
  0
VERTEX
  5
24A96
  8
0
 10
529.26647485159765
 20
210.147152876772
 30
0.0
  0
VERTEX
  5
24A97
  8
0
 10
529.3450596449984
 20
210.95329574541759
 30
0.0
  0
VERTEX
  5
24A98
  8
0
 10
529.50369805662785
 20
211.7970217396032
 30
0.0
  0
VERTEX
  5
24A99
  8
0
 10
529.61559954406039
 20
212.24628214513089
 30
0.0
  0
SEQEND
  5
24A9A
  8
0
  0
LINE
  5
23CFB
  8
0
 10
529.61559954406039
 20
212.24628214513089
 30
0.0
 11
530.091438322057
 21
212.24628214513089
 31
0.0
  0
POLYLINE
  5
23CFC
  8
0
 66
     1
 10
0.0
 20
0.0
 30
0.0
  0
VERTEX
  5
24A9B
  8
0
 10
533.95652259607459
 20
194.74174367113801
 30
0.0
  0
VERTEX
  5
24A9C
  8
0
 10
533.94657034055126
 20
194.3402245860693
 30
0.0
  0
VERTEX
  5
24A9D
  8
0
 10
533.86798554715085
 20
193.53408171742331
 30
0.0
  0
VERTEX
  5
24A9E
  8
0
 10
533.70934713552106
 20
192.6903557232381
 30
0.0
  0
VERTEX
  5
24A9F
  8
0
 10
533.59744564808852
 20
192.2410953177104
 30
0.0
  0
SEQEND
  5
24AA0
  8
0
  0
POLYLINE
  5
23CFD
  8
0
 66
     1
 10
0.0
 20
0.0
 30
0.0
  0
VERTEX
  5
24AA1
  8
0
 10
529.61559954406039
 20
192.2410953177104
 30
0.0
  0
VERTEX
  5
24AA2
  8
0
 10
529.50369805662785
 20
192.6903557232381
 30
0.0
  0
VERTEX
  5
24AA3
  8
0
 10
529.3450596449984
 20
193.5340817174237
 30
0.0
  0
VERTEX
  5
24AA4
  8
0
 10
529.26647485159765
 20
194.3402245860693
 30
0.0
  0
VERTEX
  5
24AA5
  8
0
 10
529.25652259607466
 20
194.74174367113801
 30
0.0
  0
SEQEND
  5
24AA6
  8
0
  0
POLYLINE
  5
23CFE
  8
0
 66
     1
 10
0.0
 20
0.0
 30
0.0
  0
VERTEX
  5
24AA7
  8
0
 10
529.25652259607466
 20
194.74174367113801
 30
0.0
  0
VERTEX
  5
24AA8
  8
0
 10
529.26647485159765
 20
195.1432627562067
 30
0.0
  0
VERTEX
  5
24AA9
  8
0
 10
529.3450596449984
 20
195.9494056248522
 30
0.0
  0
VERTEX
  5
24AAA
  8
0
 10
529.50369805662785
 20
196.79313161903789
 30
0.0
  0
VERTEX
  5
24AAB
  8
0
 10
529.61559954406039
 20
197.2423920245655
 30
0.0
  0
SEQEND
  5
24AAC
  8
0
  0
POLYLINE
  5
23CFF
  8
0
 66
     1
 10
0.0
 20
0.0
 30
0.0
  0
VERTEX
  5
24AAD
  8
0
 10
533.59744564808852
 20
197.2423920245655
 30
0.0
  0
VERTEX
  5
24AAE
  8
0
 10
533.70934713552106
 20
196.79313161903789
 30
0.0
  0
VERTEX
  5
24AAF
  8
0
 10
533.86798554715085
 20
195.9494056248522
 30
0.0
  0
VERTEX
  5
24AB0
  8
0
 10
533.94657034055126
 20
195.1432627562067
 30
0.0
  0
VERTEX
  5
24AB1
  8
0
 10
533.95652259607459
 20
194.74174367113801
 30
0.0
  0
SEQEND
  5
24AB2
  8
0
  0
LINE
  5
23D00
  8
0
 10
529.61559954406039
 20
192.2410953177104
 30
0.0
 11
533.59744564808852
 21
192.2410953177104
 31
0.0
  0
POLYLINE
  5
23D01
  8
0
 66
     1
 10
0.0
 20
0.0
 30
0.0
  0
VERTEX
  5
24AB3
  8
0
 10
533.95652259607459
 20
202.2436887314206
 30
0.0
  0
VERTEX
  5
24AB4
  8
0
 10
533.94657034055126
 20
201.44065056128329
 30
0.0
  0
VERTEX
  5
24AB5
  8
0
 10
533.86798554715085
 20
199.82836482399171
 30
0.0
  0
VERTEX
  5
24AB6
  8
0
 10
533.70934713552106
 20
198.14091283562081
 30
0.0
  0
VERTEX
  5
24AB7
  8
0
 10
533.59744564808852
 20
197.2423920245655
 30
0.0
  0
SEQEND
  5
24AB8
  8
0
  0
LINE
  5
23D02
  8
0
 10
529.61559954406039
 20
197.2423920245655
 30
0.0
 11
533.59744564808852
 21
197.2423920245655
 31
0.0
  0
POLYLINE
  5
23D03
  8
0
 66
     1
 10
0.0
 20
0.0
 30
0.0
  0
VERTEX
  5
24AB9
  8
0
 10
529.61559954406039
 20
197.2423920245655
 30
0.0
  0
VERTEX
  5
24ABA
  8
0
 10
529.50369805662785
 20
198.14091283562081
 30
0.0
  0
VERTEX
  5
24ABB
  8
0
 10
529.3450596449984
 20
199.82836482399171
 30
0.0
  0
VERTEX
  5
24ABC
  8
0
 10
529.26647485159765
 20
201.44065056128329
 30
0.0
  0
VERTEX
  5
24ABD
  8
0
 10
529.25652259607466
 20
202.2436887314206
 30
0.0
  0
SEQEND
  5
24ABE
  8
0
  0
POLYLINE
  5
23D04
  8
0
 66
     1
 10
0.0
 20
0.0
 30
0.0
  0
VERTEX
  5
24ABF
  8
0
 10
529.25652259607466
 20
202.2436887314206
 30
0.0
  0
VERTEX
  5
24AC0
  8
0
 10
529.26647485159765
 20
203.046726901558
 30
0.0
  0
VERTEX
  5
24AC1
  8
0
 10
529.3450596449984
 20
204.65901263884919
 30
0.0
  0
VERTEX
  5
24AC2
  8
0
 10
529.50369805662785
 20
206.34646462722051
 30
0.0
  0
VERTEX
  5
24AC3
  8
0
 10
529.61559954406039
 20
207.24498543827579
 30
0.0
  0
SEQEND
  5
24AC4
  8
0
  0
LINE
  5
23D05
  8
0
 10
529.61559954406039
 20
207.24498543827579
 30
0.0
 11
531.83273784052335
 21
207.24498543827579
 31
0.0
  0
POLYLINE
  5
23D06
  8
0
 66
     1
 10
0.0
 20
0.0
 30
0.0
  0
VERTEX
  5
24AC5
  8
0
 10
533.95565220075605
 20
202.48094045653619
 30
0.0
  0
VERTEX
  5
24AC6
  8
0
 10
533.95591776347089
 20
202.44145685025379
 30
0.0
  0
VERTEX
  5
24AC7
  8
0
 10
533.95630456730987
 20
202.36242338542431
 30
0.0
  0
VERTEX
  5
24AC8
  8
0
 10
533.95649833746666
 20
202.28329322519991
 30
0.0
  0
VERTEX
  5
24AC9
  8
0
 10
533.95652259607459
 20
202.2436887314206
 30
0.0
  0
SEQEND
  5
24ACA
  8
0
  0
LINE
  5
23D07
  8
0
 10
597.55652259607439
 20
193.92868873142061
 30
0.0
 11
597.55652259607439
 21
210.55868873142069
 31
0.0
  0
LINE
  5
23D08
  8
0
 10
593.8065225960745
 20
193.5811887314207
 30
0.0
 11
593.8065225960745
 21
210.9061887314206
 31
0.0
  0
POLYLINE
  5
23D09
  8
0
 66
     1
 10
0.0
 20
0.0
 30
0.0
  0
VERTEX
  5
24ACB
  8
0
 10
593.44744564808889
 20
212.24628214513089
 30
0.0
  0
VERTEX
  5
24ACC
  8
0
 10
593.55934713552142
 20
211.7970217396032
 30
0.0
  0
VERTEX
  5
24ACD
  8
0
 10
593.71798554715087
 20
210.95329574541759
 30
0.0
  0
VERTEX
  5
24ACE
  8
0
 10
593.79657034055163
 20
210.147152876772
 30
0.0
  0
VERTEX
  5
24ACF
  8
0
 10
593.8065225960745
 20
209.74563379170331
 30
0.0
  0
SEQEND
  5
24AD0
  8
0
  0
POLYLINE
  5
23D0A
  8
0
 66
     1
 10
0.0
 20
0.0
 30
0.0
  0
VERTEX
  5
24AD1
  8
0
 10
593.8065225960745
 20
209.74563379170331
 30
0.0
  0
VERTEX
  5
24AD2
  8
0
 10
593.79657034055163
 20
209.3441147066346
 30
0.0
  0
VERTEX
  5
24AD3
  8
0
 10
593.71798554715087
 20
208.53797183798909
 30
0.0
  0
VERTEX
  5
24AD4
  8
0
 10
593.55934713552142
 20
207.6942458438034
 30
0.0
  0
VERTEX
  5
24AD5
  8
0
 10
593.44744564808889
 20
207.24498543827579
 30
0.0
  0
SEQEND
  5
24AD6
  8
0
  0
LINE
  5
23D0B
  8
0
 10
590.02160687009246
 20
212.24628214513089
 30
0.0
 11
593.44744564808889
 21
212.24628214513089
 31
0.0
  0
POLYLINE
  5
23D0C
  8
0
 66
     1
 10
0.0
 20
0.0
 30
0.0
  0
VERTEX
  5
24AD7
  8
0
 10
593.8065225960745
 20
194.74174367113801
 30
0.0
  0
VERTEX
  5
24AD8
  8
0
 10
593.79657034055163
 20
194.3402245860693
 30
0.0
  0
VERTEX
  5
24AD9
  8
0
 10
593.71798554715087
 20
193.5340817174237
 30
0.0
  0
VERTEX
  5
24ADA
  8
0
 10
593.55934713552142
 20
192.6903557232381
 30
0.0
  0
VERTEX
  5
24ADB
  8
0
 10
593.44744564808889
 20
192.2410953177104
 30
0.0
  0
SEQEND
  5
24ADC
  8
0
  0
POLYLINE
  5
23D0D
  8
0
 66
     1
 10
0.0
 20
0.0
 30
0.0
  0
VERTEX
  5
24ADD
  8
0
 10
585.91559954406046
 20
192.2410953177104
 30
0.0
  0
VERTEX
  5
24ADE
  8
0
 10
585.80369805662804
 20
192.6903557232381
 30
0.0
  0
VERTEX
  5
24ADF
  8
0
 10
585.64505964499858
 20
193.5340817174237
 30
0.0
  0
VERTEX
  5
24AE0
  8
0
 10
585.56647485159783
 20
194.3402245860693
 30
0.0
  0
VERTEX
  5
24AE1
  8
0
 10
585.55652259607439
 20
194.74174367113801
 30
0.0
  0
SEQEND
  5
24AE2
  8
0
  0
POLYLINE
  5
23D0E
  8
0
 66
     1
 10
0.0
 20
0.0
 30
0.0
  0
VERTEX
  5
24AE3
  8
0
 10
585.55652259607439
 20
194.74174367113801
 30
0.0
  0
VERTEX
  5
24AE4
  8
0
 10
585.56647485159783
 20
195.1432627562067
 30
0.0
  0
VERTEX
  5
24AE5
  8
0
 10
585.64505964499858
 20
195.9494056248522
 30
0.0
  0
VERTEX
  5
24AE6
  8
0
 10
585.80369805662804
 20
196.79313161903789
 30
0.0
  0
VERTEX
  5
24AE7
  8
0
 10
585.91559954406046
 20
197.2423920245655
 30
0.0
  0
SEQEND
  5
24AE8
  8
0
  0
POLYLINE
  5
23D0F
  8
0
 66
     1
 10
0.0
 20
0.0
 30
0.0
  0
VERTEX
  5
24AE9
  8
0
 10
593.44744564808889
 20
197.2423920245655
 30
0.0
  0
VERTEX
  5
24AEA
  8
0
 10
593.55934713552142
 20
196.79313161903789
 30
0.0
  0
VERTEX
  5
24AEB
  8
0
 10
593.71798554715087
 20
195.9494056248522
 30
0.0
  0
VERTEX
  5
24AEC
  8
0
 10
593.79657034055163
 20
195.1432627562067
 30
0.0
  0
VERTEX
  5
24AED
  8
0
 10
593.8065225960745
 20
194.74174367113801
 30
0.0
  0
SEQEND
  5
24AEE
  8
0
  0
LINE
  5
23D10
  8
0
 10
585.91559954406046
 20
192.2410953177104
 30
0.0
 11
593.44744564808889
 21
192.2410953177104
 31
0.0
  0
POLYLINE
  5
23D11
  8
0
 66
     1
 10
0.0
 20
0.0
 30
0.0
  0
VERTEX
  5
24AEF
  8
0
 10
593.8065225960745
 20
202.2436887314206
 30
0.0
  0
VERTEX
  5
24AF0
  8
0
 10
593.79657034055163
 20
201.44065056128329
 30
0.0
  0
VERTEX
  5
24AF1
  8
0
 10
593.71798554715087
 20
199.82836482399171
 30
0.0
  0
VERTEX
  5
24AF2
  8
0
 10
593.55934713552142
 20
198.14091283562081
 30
0.0
  0
VERTEX
  5
24AF3
  8
0
 10
593.44744564808889
 20
197.2423920245655
 30
0.0
  0
SEQEND
  5
24AF4
  8
0
  0
LINE
  5
23D12
  8
0
 10
585.91559954406046
 20
197.2423920245655
 30
0.0
 11
593.44744564808889
 21
197.2423920245655
 31
0.0
  0
POLYLINE
  5
23D13
  8
0
 66
     1
 10
0.0
 20
0.0
 30
0.0
  0
VERTEX
  5
24AF5
  8
0
 10
585.91559954406046
 20
197.2423920245655
 30
0.0
  0
VERTEX
  5
24AF6
  8
0
 10
585.82246727778227
 20
197.97983051627801
 30
0.0
  0
VERTEX
  5
24AF7
  8
0
 10
585.68039832708416
 20
199.3760658811261
 30
0.0
  0
VERTEX
  5
24AF8
  8
0
 10
585.59275353069143
 20
200.70716828219969
 30
0.0
  0
VERTEX
  5
24AF9
  8
0
 10
585.56851125878757
 20
201.36212070095229
 30
0.0
  0
SEQEND
  5
24AFA
  8
0
  0
LINE
  5
23D14
  8
0
 10
588.28030735162565
 20
207.24498543827579
 30
0.0
 11
593.44744564808889
 21
207.24498543827579
 31
0.0
  0
POLYLINE
  5
23D15
  8
0
 66
     1
 10
0.0
 20
0.0
 30
0.0
  0
VERTEX
  5
24AFB
  8
0
 10
593.44744564808889
 20
207.24498543827579
 30
0.0
  0
VERTEX
  5
24AFC
  8
0
 10
593.55934713552142
 20
206.34646462722051
 30
0.0
  0
VERTEX
  5
24AFD
  8
0
 10
593.71798554715087
 20
204.65901263884919
 30
0.0
  0
VERTEX
  5
24AFE
  8
0
 10
593.79657034055163
 20
203.046726901558
 30
0.0
  0
VERTEX
  5
24AFF
  8
0
 10
593.8065225960745
 20
202.2436887314206
 30
0.0
  0
SEQEND
  5
24B00
  8
0
  0
ARC
  5
23D16
  8
0
 10
577.05652259607439
 20
260.30615509309018
 30
0.0
 40
1.999999999999982
 50
0.0
 51
73.680596506396782
  0
ARC
  5
23D17
  8
0
 10
577.05652259607439
 20
144.18122236975111
 30
0.0
 40
1.9999999999999829
 50
286.3194034936032
 51
0.0
  0
ARC
  5
23D18
  8
0
 10
560.05652259607439
 20
202.2436887314206
 30
0.0
 40
62.499999999999943
 50
253.6805965063968
 51
286.3194034936032
  0
ARC
  5
23D19
  8
0
 10
560.05652259607439
 20
202.2436887314206
 30
0.0
 40
62.500000000000057
 50
73.680596506396782
 51
106.3194034936032
  0
ARC
  5
23D1A
  8
0
 10
543.05652259607439
 20
260.30615509309018
 30
0.0
 40
1.9999999999999829
 50
106.3194034936032
 51
180.0
  0
ARC
  5
23D1B
  8
0
 10
543.05652259607439
 20
144.18122236975111
 30
0.0
 40
2.0
 50
180.0
 51
253.6805965063968
  0
LINE
  5
23D1C
  8
0
 10
579.0565225960745
 20
260.30615509309018
 30
0.0
 11
579.0565225960745
 21
144.18122236975111
 31
0.0
  0
LINE
  5
23D1D
  8
0
 10
541.0565225960745
 20
260.30615509309018
 30
0.0
 11
541.0565225960745
 21
144.18122236975111
 31
0.0
  0
LINE
  5
23D2A
  8
3
 10
600.5565225960745
 20
207.17018873142069
 30
0.0
 11
597.55652259607439
 21
207.17018873142069
 31
0.0
  0
LINE
  5
23D2B
  8
3
 10
600.5565225960745
 20
197.3171887314206
 30
0.0
 11
597.55652259607439
 21
197.3171887314206
 31
0.0
  0
LINE
  5
23D2C
  8
3
 10
65.706797370378808
 20
207.17018873142069
 30
0.0
 11
68.706797370378808
 21
207.17018873142069
 31
0.0
  0
LINE
  5
23D2D
  8
3
 10
65.706797370378808
 20
197.3171887314206
 30
0.0
 11
68.706797370378808
 21
197.3171887314206
 31
0.0
  0
CIRCLE
  5
23D2E
  8
0
 10
330.37492363408819
 20
202.24368873142021
 30
0.0
 40
8.6625000000000139
  0
LINE
  5
23D2F
  8
1
 10
255.39460365739799
 20
202.24368873142021
 30
0.0
 11
405.3552436107779
 21
202.24368873142021
 31
0.0
  0
LINE
  5
23D30
  8
1
 10
330.37492363408768
 20
127.26336875473039
 30
0.0
 11
330.37492363408768
 21
277.22400870810998
 31
0.0
  0
LINE
  5
23D31
  8
0
 10
321.71242363408783
 20
207.24498543827531
 30
0.0
 11
330.37492363408819
 21
212.24628214513041
 31
0.0
  0
LINE
  5
23D32
  8
0
 10
321.71242363408783
 20
207.24498543827531
 30
0.0
 11
321.71242363408783
 21
197.24239202456511
 31
0.0
  0
LINE
  5
23D33
  8
0
 10
339.0374236340877
 20
207.24498543827579
 30
0.0
 11
330.37492363408728
 21
212.24628214513041
 31
0.0
  0
LINE
  5
23D34
  8
0
 10
339.0374236340877
 20
207.24498543827579
 30
0.0
 11
339.0374236340881
 21
197.2423920245655
 31
0.0
  0
LINE
  5
23D35
  8
0
 10
321.71242363408868
 20
197.2423920245642
 30
0.0
 11
330.3749236340891
 21
192.24109531771001
 31
0.0
  0
LINE
  5
23D36
  8
0
 10
339.0374236340881
 20
197.2423920245655
 30
0.0
 11
330.37492363408819
 21
192.24109531771001
 31
0.0
  0
ARC
  5
23D37
  8
0
 10
330.37492363408728
 20
202.2436887314206
 30
0.0
 40
62.500000000000227
 50
121.1296133227779
 51
43.969309746330801
  0
ARC
  5
23D38
  8
0
 10
330.37492363408728
 20
202.2436887314206
 30
0.0
 40
48.775317228749863
 50
98.25014319806678
 51
40.251653491413201
  0
ARC
  5
23D39
  8
0
 10
330.37492363408728
 20
202.2436887314206
 30
0.0
 40
59.669711229581033
 50
116.2850130595244
 51
43.346935399755061
  0
ARC
  5
23D3A
  8
0
 10
330.37492363408728
 20
202.24368873142021
 30
0.0
 40
18.569732578751879
 50
137.17622741488171
 51
6.8143413451600514
  0
LINE
  5
23D3B
  8
3
 10
335.30142363408783
 20
475.27251748446082
 30
0.0
 11
335.30142363408783
 21
472.27251748446082
 31
0.0
  0
LINE
  5
23D3C
  8
3
 10
325.4484236340877
 20
475.27251748446082
 30
0.0
 11
325.4484236340877
 21
472.27251748446082
 31
0.0
  0
LINE
  5
23D3D
  8
0
 10
321.71242363408783
 20
408.6725174844604
 30
0.0
 11
321.71242363408783
 21
403.9725174844607
 31
0.0
  0
LINE
  5
23D3E
  8
0
 10
339.0374236340877
 20
408.6725174844604
 30
0.0
 11
339.0374236340877
 21
403.9725174844607
 31
0.0
  0
LINE
  5
23D3F
  8
0
 10
339.0374236340877
 20
468.52251748446082
 30
0.0
 11
339.0374236340877
 21
460.27251748446082
 31
0.0
  0
LINE
  5
23D40
  8
0
 10
321.71242363408783
 20
468.52251748446082
 30
0.0
 11
321.71242363408783
 21
460.27251748446082
 31
0.0
  0
LINE
  5
23D41
  8
1
 10
509.88562155056661
 20
202.2436887314206
 30
0.0
 11
610.22742364158239
 21
202.2436887314206
 31
0.0
  0
LINE
  5
23D42
  8
1
 10
560.05652259607439
 20
127.26336875473091
 30
0.0
 11
560.05652259607439
 21
308.22400870810998
 31
0.0
  0
LINE
  5
23D43
  8
1
 10
56.035896324870919
 20
202.2436887314206
 30
0.0
 11
156.3776984158867
 21
202.2436887314206
 31
0.0
  0
LINE
  5
23D44
  8
1
 10
106.20679737037879
 20
127.26336875473091
 30
0.0
 11
106.20679737037879
 21
308.22400870810998
 31
0.0
  0
LINE
  5
23D5E
  8
0
 10
327.87492363408768
 20
409.37251748446079
 30
0.0
 11
269.89158413248327
 21
409.37251748446079
 31
0.0
  0
LINE
  5
23D5F
  8
0
 10
327.87492363408768
 20
460.17251748446091
 30
0.0
 11
269.89158413248327
 21
460.17251748446091
 31
0.0
  0
LINE
  5
23D60
  8
0
 10
318.40824463087853
 20
409.37251748446079
 30
0.0
 11
318.40824463087853
 21
460.17251748446091
 31
0.0
  0
LINE
  5
23D61
  8
0
 10
269.89158413248327
 20
409.37251748446079
 30
0.0
 11
269.89158413248327
 21
460.17251748446091
 31
0.0
  0
LINE
  5
23D62
  8
0
 10
318.40824463087893
 20
281.74368873142021
 30
0.0
 11
269.89158413248379
 21
268.74368873142021
 31
0.0
  0
LINE
  5
23D63
  8
0
 10
327.87492363408819
 20
281.74368873142021
 30
0.0
 11
318.40824463087893
 21
281.74368873142021
 31
0.0
  0
LINE
  5
23D64
  8
0
 10
273.37492363408819
 20
255.74368873142021
 30
0.0
 11
324.22436811052791
 21
255.74368873142021
 31
0.0
  0
LINE
  5
23D65
  8
0
 10
269.89158413248379
 20
268.7436887314206
 30
0.0
 11
273.37492363408819
 21
255.74368873142021
 31
0.0
  0
LINE
  5
23DA5
  8
0
 10
249.89158413248381
 20
450.79403816777619
 30
0.0
 11
249.89158413248381
 21
418.75099680114261
 31
0.0
  0
LINE
  5
23DA6
  8
0
 10
254.43574439651141
 20
453.77251748446088
 30
0.0
 11
254.43574439651141
 21
415.77251748446088
 31
0.0
  0
LINE
  5
23DA7
  8
0
 10
266.89158413248379
 20
450.77251748446082
 30
0.0
 11
266.89158413248418
 21
418.77251748446042
 31
0.0
  0
LINE
  5
23DA8
  8
0
 10
269.89158413248379
 20
453.77251748446088
 30
0.0
 11
251.48569383110001
 21
453.77251748446088
 31
0.0
  0
LINE
  5
23DA9
  8
0
 10
266.89158413248379
 20
450.77251748446082
 30
0.0
 11
269.89158413248379
 21
450.77251748446082
 31
0.0
  0
LINE
  5
23DAA
  8
0
 10
269.89158413248379
 20
415.77251748446088
 30
0.0
 11
251.4856938310995
 21
415.77251748446088
 31
0.0
  0
LINE
  5
23DAB
  8
0
 10
266.89158413248521
 20
418.77251748446042
 30
0.0
 11
269.8915841324847
 21
418.77251748446082
 31
0.0
  0
ARC
  5
23DAC
  8
0
 10
254.2280235261255
 20
450.388966458016
 30
0.0
 40
4.3553174057440378
 50
129.0243741561365
 51
174.6634221469576
  0
ARC
  5
23DAD
  8
0
 10
254.2280235261255
 20
419.1560685109057
 30
0.0
 40
4.3553174057440378
 50
185.3365778530424
 51
230.9756258438635
  0
LINE
  5
23DAE
  8
0
 10
249.89158413248381
 20
269.86604156742942
 30
0.0
 11
253.10552218091649
 21
266.03581935183462
 31
0.0
  0
LINE
  5
23DAF
  8
0
 10
251.80669524028099
 20
271.47301059164602
 30
0.0
 11
249.89158413248381
 21
269.86604156742942
 31
0.0
  0
LINE
  5
23DB0
  8
0
 10
254.43574439651141
 20
268.33983181460189
 30
0.0
 11
251.80669524028099
 21
271.47301059164602
 31
0.0
  0
LINE
  5
23DB1
  8
0
 10
270.6011508321148
 20
266.09554975703799
 30
0.0
 11
254.43574439651141
 21
268.33983181460189
 31
0.0
  0
LINE
  5
23DB2
  8
0
 10
269.91771844553978
 20
268.64615414727541
 30
0.0
 11
269.61217680291378
 21
268.82552289940992
 31
0.0
  0
LINE
  5
23DB3
  8
0
 10
253.10552218091649
 20
266.03581935183462
 30
0.0
 11
271.31508888054759
 21
263.43109668683059
 31
0.0
  0
LINE
  5
23DB4
  8
0
 10
267.34596441293479
 20
272.60214967266211
 30
0.0
 11
269.88999810645061
 21
272.2518263272209
 31
0.0
  0
LINE
  5
23DB5
  8
0
 10
266.8950461208351
 20
269.49170897855038
 30
0.0
 11
267.34596441293479
 21
272.60214967266211
 31
0.0
  0
LINE
  5
23DB6
  8
0
 10
269.54642572061448
 20
269.20457816917639
 30
0.0
 11
269.88999810645061
 21
272.25182632722129
 31
0.0
  0
LINE
  5
23DB7
  8
0
 10
266.8950461208351
 20
269.49170897855038
 30
0.0
 11
267.63299311338818
 21
266.50762619561652
 31
0.0
  0
LINE
  5
23DB8
  8
0
 10
269.54642572061448
 20
269.20457816917639
 30
0.0
 11
269.61217680291378
 21
268.82552289940992
 31
0.0
  0
LINE
  5
23DB9
  8
0
 10
125.20679737037879
 20
263.4310966868311
 30
0.0
 11
87.206797370378808
 21
263.4310966868311
 31
0.0
  0
LINE
  5
23DBA
  8
0
 10
125.20679737037879
 20
263.4310966868311
 30
0.0
 11
125.20679737037879
 21
271.47301059164653
 31
0.0
  0
LINE
  5
23DBB
  8
0
 10
122.20679737037921
 20
271.47301059164653
 30
0.0
 11
122.20679737037921
 21
272.60214967266262
 31
0.0
  0
LINE
  5
23DBC
  8
0
 10
125.20679737037879
 20
271.47301059164653
 30
0.0
 11
87.206797370378808
 21
271.47301059164653
 31
0.0
  0
LINE
  5
23DBD
  8
0
 10
87.206797370378808
 20
263.4310966868311
 30
0.0
 11
87.206797370378808
 21
271.47301059164653
 31
0.0
  0
LINE
  5
23DBE
  8
0
 10
122.20679737037921
 20
272.60214967266262
 30
0.0
 11
90.206797370378354
 21
272.60214967266262
 31
0.0
  0
LINE
  5
23DBF
  8
0
 10
90.206797370378354
 20
271.47301059164653
 30
0.0
 11
90.206797370378354
 21
272.60214967266262
 31
0.0
  0
LINE
  5
23DC0
  8
0
 10
87.206797370378808
 20
266.03581935183462
 30
0.0
 11
125.20679737037879
 21
266.03581935183462
 31
0.0
  0
POLYLINE
  5
23F0A
  8
0
 66
     1
 10
0.0
 20
0.0
 30
0.0
  0
VERTEX
  5
24B01
  8
0
 10
128.69739749300101
 20
264.95896905628888
 30
0.0
  0
VERTEX
  5
24B02
  8
0
 10
128.5574644324665
 20
265.19130073726501
 30
0.0
  0
VERTEX
  5
24B03
  8
0
 10
128.27453393589479
 20
265.6515874859524
 30
0.0
  0
VERTEX
  5
24B04
  8
0
 10
127.987560874596
 20
266.1059685956634
 30
0.0
  0
VERTEX
  5
24B05
  8
0
 10
127.8425747817227
 20
266.33091848148018
 30
0.0
  0
SEQEND
  5
24B06
  8
0
  0
LINE
  5
23F0B
  8
0
 10
131.6067973703789
 20
268.7436887314206
 30
0.0
 11
125.2067973703783
 21
268.74368873142112
 31
0.0
  0
LINE
  5
23F0C
  8
0
 10
125.20679737037879
 20
266.32887416569793
 30
0.0
 11
128.70679737037881
 21
266.32887416569793
 31
0.0
  0
POLYLINE
  5
23F0D
  8
0
 66
     1
 10
0.0
 20
0.0
 30
0.0
  0
VERTEX
  5
24B07
  8
0
 10
83.716197247756554
 20
264.95896905628888
 30
0.0
  0
VERTEX
  5
24B08
  8
0
 10
83.856130308291085
 20
265.19130073726501
 30
0.0
  0
VERTEX
  5
24B09
  8
0
 10
84.139060804862766
 20
265.6515874859524
 30
0.0
  0
VERTEX
  5
24B0A
  8
0
 10
84.426033866161561
 20
266.1059685956634
 30
0.0
  0
VERTEX
  5
24B0B
  8
0
 10
84.571019959034857
 20
266.33091848148018
 30
0.0
  0
SEQEND
  5
24B0C
  8
0
  0
LINE
  5
23F0E
  8
0
 10
80.806797370378717
 20
268.7436887314206
 30
0.0
 11
87.206797370379263
 21
268.74368873142112
 31
0.0
  0
LINE
  5
23F0F
  8
0
 10
87.206797370378808
 20
266.32887416569793
 30
0.0
 11
83.706797370378794
 21
266.32887416569793
 31
0.0
  0
ARC
  5
23F10
  8
0
 10
106.20679737037879
 20
202.2436887314206
 30
0.0
 40
62.500000000000071
 50
101.7632009906325
 51
106.3194034936032
  0
LINE
  5
23F11
  8
0
 10
581.69283758870552
 20
266.32887416569793
 30
0.0
 11
538.42020760344337
 21
266.32887416569793
 31
0.0
  0
LINE
  5
23F12
  8
0
 10
579.0565225960745
 20
263.4310966868311
 30
0.0
 11
579.0565225960745
 21
266.32887416569793
 31
0.0
  0
LINE
  5
23F13
  8
0
 10
541.0565225960745
 20
263.4310966868311
 30
0.0
 11
541.0565225960745
 21
266.32887416569793
 31
0.0
  0
LINE
  5
23F14
  8
0
 10
541.0565225960745
 20
263.4310966868311
 30
0.0
 11
547.31481518701128
 21
263.4310966868311
 31
0.0
  0
LINE
  5
23F15
  8
0
 10
572.79823000513761
 20
263.4310966868311
 30
0.0
 11
579.0565225960745
 21
263.4310966868311
 31
0.0
  0
TEXT
  5
24595
  8
0
 62
     3
 10
0.0
 20
0.0
 30
0.0
 40
10.0
  1
CAF8-125FBF-SUS
  7
STANDARD1
  0
LINE
  5
245B7
  8
0
 10
571.0565225960745
 20
292.44368873142048
 30
0.0
 11
571.0565225960745
 21
295.74368873142021
 31
0.0
  0
LINE
  5
245B8
  8
0
 10
549.0565225960745
 20
295.74368873142021
 30
0.0
 11
549.0565225960745
 21
292.44368873142048
 31
0.0
  0
LINE
  5
245B9
  8
0
 10
549.0565225960745
 20
295.74368873142021
 30
0.0
 11
571.0565225960745
 21
295.74368873142021
 31
0.0
  0
LINE
  5
245BA
  8
0
 10
117.20679737037879
 20
292.44368873142048
 30
0.0
 11
117.20679737037879
 21
295.74368873142021
 31
0.0
  0
LINE
  5
245BB
  8
0
 10
95.206797370378794
 20
295.74368873142021
 30
0.0
 11
95.206797370378794
 21
292.44368873142048
 31
0.0
  0
LINE
  5
245BC
  8
0
 10
95.206797370378794
 20
295.74368873142021
 30
0.0
 11
117.20679737037879
 21
295.74368873142021
 31
0.0
  0
ENDSEC
  0
EOF
